  0
SECTION
  2
HEADER
  0
ENDSEC
  0
SECTION
  2
TABLES
  0
TABLE
  2
LTYPE
 70
     4
  0
LTYPE
  2
CONTINUOUS
 70
    64
  3
Solid line
 72
    65
 73
     0
 40
0.000000
  0
LTYPE
  2
DASHED
 70
    64
  3
__ __ __ __ __ __ __ __ __ __ __ __ __ __ __
 72
    65
 73
     2
 40
3.500000
 49
2.000000
 49
-1.500000
  0
LTYPE
  2
CENTER
 70
    64
  3
____ _ ____ _ ____ _ ____ _ ____ _ ____ _ ____
 72
    65
 73
     4
 40
17.500000
 49
13.000000
 49
-1.500000
 49
1.500000
 49
-1.500000
  0
LTYPE
  2
PHANTOM
 70
    64
  3
_____ _ _ _____ _ _ _____ _ _ _____ _ _ ____  
 72
    65
 73
     6
 40
15.500000
 49
8.000000
 49
-1.500000
 49
1.500000
 49
-1.500000
 49
1.500000
 49
-1.500000
  0
LTYPE
  2
DASHED1
 70
    64
  3
__ __ __ __ __ __ __ __ __ __ __ __ __ __ __
 72
    65
 73
     2
 40
1.500000
 49
1.000000
 49
-0.500000
  0
LTYPE
  2
DASHED2
 70
    64
  3
__ __ __ __ __ __ __ __ __ __ __ __ __ __ __
 72
    65
 73
     2
 40
3.500000
 49
2.500000
 49
-1.000000
  0
LTYPE
  2
DASHED3
 70
    64
  3
__ __ __ __ __ __ __ __ __ __ __ __ __ __ __
 72
    65
 73
     2
 40
6.000000
 49
4.000000
 49
-2.000000
  0
LTYPE
  2
DASHED4
 70
    64
  3
__ __ __ __ __ __ __ __ __ __ __ __ __ __ __
 72
    65
 73
     2
 40
12.000000
 49
10.000000
 49
-2.000000
  0
LTYPE
  2
DASHED5
 70
    64
  3
__ __ __ __ __ __ __ __ __ __ __ __ __ __ __
 72
    65
 73
     2
 40
17.000000
 49
15.000000
 49
-2.000000
  0
LTYPE
  2
DASHED6
 70
    64
  3
__ __ __ __ __ __ __ __ __ __ __ __ __ __ __
 72
    65
 73
     2
 40
29.000000
 49
27.000000
 49
-2.000000
  0
LTYPE
  2
PHANTOM1
 70
    64
  3
_____ _ _ _____ _ _ _____ _ _ _____ _ _ ____  
 72
    65
 73
     6
 40
31.000000
 49
25.000000
 49
-1.500000
 49
1.000000
 49
-1.000000
 49
1.000000
 49
-1.500000
  0
LTYPE
  2
PHANTOM2
 70
    64
  3
_____ _ _ _____ _ _ _____ _ _ _____ _ _ ____  
 72
    65
 73
     6
 40
36.000000
 49
27.000000
 49
-1.500000
 49
2.500000
 49
-1.000000
 49
2.500000
 49
-1.500000
  0
LTYPE
  2
PHANTOM3
 70
    64
  3
_____ _ _ _____ _ _ _____ _ _ _____ _ _ ____  
 72
    65
 73
     6
 40
78.000000
 49
64.000000
 49
-2.000000
 49
4.000000
 49
-2.000000
 49
4.000000
 49
-2.000000
  0
LTYPE
  2
CENTER1
 70
    64
  3
____ _ ____ _ ____ _ ____ _ ____ _ ____ _ ____
 72
    65
 73
     4
 40
19.000000
 49
14.000000
 49
-1.000000
 49
3.000000
 49
-1.000000
  0
LTYPE
  2
CENTER2
 70
    64
  3
____ _ ____ _ ____ _ ____ _ ____ _ ____ _ ____
 72
    65
 73
     4
 40
28.500000
 49
25.000000
 49
-1.000000
 49
1.500000
 49
-1.000000
  0
LTYPE
  2
CENTER3
 70
    64
  3
____ _ ____ _ ____ _ ____ _ ____ _ ____ _ ____
 72
    65
 73
     4
 40
31.500000
 49
27.000000
 49
-1.000000
 49
2.500000
 49
-1.000000
  0
LTYPE
  2
CENTER4
 70
    64
  3
____ _ ____ _ ____ _ ____ _ ____ _ ____ _ ____
 72
    65
 73
     4
 40
50.000000
 49
45.000000
 49
-1.000000
 49
3.000000
 49
-1.000000
  0
LTYPE
  2
CENTER5
 70
    64
  3
____ _ ____ _ ____ _ ____ _ ____ _ ____ _ ____
 72
    65
 73
     4
 40
100.000000
 49
92.000000
 49
-2.000000
 49
4.000000
 49
-2.000000
  0
LTYPE
  2
SBK1
 70
    64
  3
______ _ _ _ ______ _ _ _ ______ _ _ _ _____  
 72
    65
 73
     8
 40
60.500000
 49
45.000000
 49
-2.000000
 49
2.500000
 49
-2.000000
 49
2.500000
 49
-2.000000
 49
2.500000
 49
-2.000000
  0
LTYPE
  2
SBK2
 70
    64
  3
______ _ _ _ ______ _ _ _ ______ _ _ _ _____  
 72
    65
 73
     8
 40
84.000000
 49
64.000000
 49
-2.000000
 49
4.000000
 49
-2.000000
 49
4.000000
 49
-2.000000
 49
4.000000
 49
-2.000000
  0
LTYPE
  2
STCH
 70
    64
  3
__ __ __ __ __ __ __ __ __ __ __ __ __ __ __
 72
    65
 73
     2
 40
3.000000
 49
1.000000
 49
-2.000000
  0
LTYPE
  2
MTCH
 70
    64
  3
_____ _ _ _____ _ _ _____ _ _ _____ _ _ ____  
 72
    65
 73
     6
 40
80.000000
 49
66.000000
 49
-2.000000
 49
4.000000
 49
-2.000000
 49
4.000000
 49
-2.000000
  0
ENDTAB
  0
TABLE
  2
LAYER
 70
     1
  0
LAYER
  2
0
 70
     0
 62
     7
  6
CONTINUOUS
  0
ENDTAB
  0
TABLE
  2
STYLE
 70
     1
  0
STYLE
  2
STANDARD
 70
     0
 40
0.000000
 41
1.000000
 50
0.000000
 71
     0
 42
0.200000
  3
txt
  4
BIGFONT
  0
ENDTAB
  0
TABLE
  2
VIEW
 70
     0
  0
ENDTAB
  0
ENDSEC
  0
SECTION
  2
BLOCKS
  0
ENDSEC
  0
SECTION
  2
ENTITIES
  0
LINE
  8
0
 10
-194.250000
 20
132.600006
 11
194.800003
 21
132.600006
  0
LINE
  8
0
 10
194.800003
 20
132.600006
 11
194.800003
 21
-133.500000
  0
LINE
  8
0
 10
-194.250000
 20
132.600006
 11
-194.250000
 21
-133.500000
  0
LINE
  8
0
 10
-194.250000
 20
-133.500000
 11
194.800003
 21
-133.500000
  0
LINE
  8
0
 10
109.800003
 20
-118.500000
 11
109.800003
 21
-133.500000
  0
LINE
  8
0
 10
109.800003
 20
-118.500000
 11
194.800003
 21
-118.500000
  0
LINE
  8
0
 10
109.800003
 20
132.600006
 11
109.800003
 21
117.600006
  0
LINE
  8
0
 10
109.800003
 20
117.600006
 11
194.800003
 21
117.600006
  0
LINE
  8
0
 10
-194.250000
 20
117.600006
 11
-109.250000
 21
117.600006
  0
LINE
  8
0
 10
-109.250000
 20
132.600006
 11
-109.250000
 21
117.600006
  0
LINE
  8
0
  6
DASHED
 62
     4
 10
-83.096405
 20
-71.709518
 11
-61.096405
 21
-71.709518
  0
LINE
  8
0
  6
DASHED
 62
     4
 10
-83.096405
 20
-75.809525
 11
-61.096405
 21
-75.809525
  0
LINE
  8
0
  6
DASHED
 62
     4
 10
-83.096405
 20
-71.709518
 11
-83.096405
 21
-72.159523
  0
LINE
  8
0
  6
DASHED
 62
     4
 10
-61.096405
 20
-71.709518
 11
-61.096405
 21
-72.159523
  0
LINE
  8
0
  6
DASHED
 62
     4
 10
-83.096405
 20
-75.359520
 11
-83.096405
 21
-75.809525
  0
LINE
  8
0
  6
DASHED
 62
     4
 10
-61.096405
 20
-75.359520
 11
-61.096405
 21
-75.809525
  0
LINE
  8
0
  6
DASHED
 62
     4
 10
59.714737
 20
-70.759506
 11
76.628716
 21
-70.759506
  0
LINE
  8
0
  6
DASHED
 62
     4
 10
59.714737
 20
-66.659515
 11
76.628716
 21
-66.659515
  0
LINE
  8
0
  6
DASHED
 62
     4
 10
59.714737
 20
-67.109512
 11
59.714737
 21
-66.659515
  0
LINE
  8
0
  6
DASHED
 62
     4
 10
59.714737
 20
-70.309509
 11
59.714737
 21
-70.759506
  0
LINE
  8
0
  6
DASHED
 62
     4
 10
-83.096405
 20
-116.309525
 11
-61.096405
 21
-116.309525
  0
LINE
  8
0
  6
DASHED
 62
     4
 10
-78.396393
 20
-120.909523
 11
-61.096405
 21
-120.909523
  0
LINE
  8
0
  6
DASHED
 62
     4
 10
-61.096405
 20
-116.309525
 11
-61.096405
 21
-120.909523
  0
LINE
  8
0
  6
DASHED
 62
     4
 10
-83.096405
 20
-118.109520
 11
-83.096405
 21
-116.309525
  0
LINE
  8
0
  6
DASHED
 62
     4
 10
-78.396393
 20
-119.351486
 11
-78.396393
 21
-120.909523
  0
LINE
  8
0
  6
DASHED
 62
     4
 10
-83.096405
 20
-118.109520
 11
-78.846390
 21
-118.109520
  0
LINE
  8
0
  6
DASHED
 62
     4
 10
-78.846390
 20
-118.109520
 11
-78.846390
 21
-119.351486
  0
LINE
  8
0
  6
DASHED
 62
     4
 10
-79.096390
 20
-118.109520
 11
-79.096390
 21
-118.909523
  0
LINE
  8
0
  6
DASHED
 62
     4
 10
-83.096405
 20
-118.109520
 11
-83.096405
 21
-118.909523
  0
LINE
  8
0
  6
DASHED
 62
     4
 10
-83.096405
 20
-118.909523
 11
-79.096390
 21
-118.909523
  0
LINE
  8
0
  6
DASHED
 62
     4
 10
-78.896393
 20
-118.109520
 11
-78.896393
 21
-120.109520
  0
LINE
  8
0
  6
DASHED
 62
     4
 10
-78.896393
 20
-120.109520
 11
-78.396393
 21
-120.109520
  0
LINE
  8
0
  6
DASHED
 62
     4
 10
-78.846390
 20
-119.351486
 11
-78.396393
 21
-119.351486
  0
LINE
  8
0
  6
DASHED
 62
     4
 10
-52.596375
 20
-117.309509
 11
-52.596375
 21
-119.909515
  0
LINE
  8
0
  6
CENTER
 62
     1
 10
-54.319275
 20
-118.159439
 11
-42.387207
 21
-118.159439
  0
LINE
  8
0
  6
CENTER
 62
     1
 10
-54.268982
 20
-119.059433
 11
-42.345337
 21
-119.059433
  0
LINE
  8
0
  6
DASHED
 62
     4
 10
-42.596375
 20
-117.909454
 11
-42.596375
 21
-118.409454
  0
LINE
  8
0
  6
DASHED
 62
     4
 10
-42.596375
 20
-118.809448
 11
-42.596375
 21
-119.309448
  0
LINE
  8
0
  6
DASHED
 62
     4
 10
-45.596375
 20
-117.709442
 11
-45.596375
 21
-119.509460
  0
LINE
  8
0
  6
DASHED
 62
     4
 10
-52.596375
 20
-119.509445
 11
-48.590820
 21
-119.509445
  0
LINE
  8
0
  6
DASHED
 62
     4
 10
-52.596375
 20
-118.609421
 11
-49.110413
 21
-118.609421
  0
LINE
  8
0
  6
DASHED
 62
     4
 10
-47.610413
 20
-118.609421
 11
-45.596375
 21
-118.609421
  0
LINE
  8
0
  6
DASHED
 62
     4
 10
-47.090820
 20
-119.509445
 11
-45.596375
 21
-119.509445
  0
LINE
  8
0
  6
DASHED
 62
     4
 10
-52.596375
 20
-117.709427
 11
-49.630066
 21
-117.709427
  0
LINE
  8
0
  6
DASHED
 62
     4
 10
-48.130066
 20
-117.709427
 11
-45.596375
 21
-117.709427
  0
LINE
  8
0
  6
DASHED
 62
     4
 10
-45.596375
 20
-117.909439
 11
-42.596375
 21
-117.909439
  0
LINE
  8
0
  6
DASHED
 62
     4
 10
-45.596375
 20
-118.409439
 11
-42.596375
 21
-118.409439
  0
LINE
  8
0
  6
DASHED
 62
     4
 10
-45.596375
 20
-118.809433
 11
-42.596375
 21
-118.809433
  0
LINE
  8
0
  6
DASHED
 62
     4
 10
-45.596375
 20
-119.309433
 11
-42.596375
 21
-119.309433
  0
LINE
  8
0
 62
     1
 10
-48.860401
 20
-116.444527
 11
-46.360397
 21
-120.774651
  0
LINE
  8
0
  6
CENTER
 62
     1
 10
-62.410767
 20
-118.609512
 11
-52.596375
 21
-118.609512
  0
LINE
  8
0
 62
     1
 10
-50.360466
 20
-116.444496
 11
-47.860466
 21
-120.774620
  0
LINE
  8
0
 62
     1
 10
-57.841164
 20
-116.444489
 11
-55.341164
 21
-120.774612
  0
LINE
  8
0
 62
     1
 10
-59.341122
 20
-116.444534
 11
-56.841122
 21
-120.774658
  0
LINE
  8
0
  6
DASHED
 62
     4
 10
-82.121399
 20
-120.309525
 11
-80.071396
 21
-120.309525
  0
LINE
  8
0
  6
DASHED
 62
     4
 10
-80.070984
 20
-120.309982
 11
-79.845993
 21
-120.084984
  0
LINE
  8
0
  6
DASHED
 62
     4
 10
-82.121330
 20
-120.309517
 11
-82.346329
 21
-120.084526
  0
LINE
  8
0
  6
DASHED
 62
     4
 10
-82.346390
 20
-118.908707
 11
-82.346390
 21
-120.084526
  0
LINE
  8
0
 62
     1
 10
-82.121399
 20
-118.908707
 11
-82.121399
 21
-120.309525
  0
LINE
  8
0
 62
     1
 10
-80.071396
 20
-118.908707
 11
-80.071396
 21
-120.309525
  0
LINE
  8
0
  6
DASHED
 62
     4
 10
-79.846390
 20
-118.908707
 11
-79.846390
 21
-120.084518
  0
LINE
  8
0
  6
DASHED
 62
     4
 10
-82.346390
 20
-120.084526
 11
-79.846390
 21
-120.084526
  0
LINE
  8
0
  6
DASHED
 62
     4
 10
-83.096405
 20
-117.309525
 11
-61.096405
 21
-117.309525
  0
LINE
  8
0
  6
DASHED
 62
     4
 10
-83.096405
 20
-116.759506
 11
-61.096405
 21
-116.759506
  0
LINE
  8
0
  6
DASHED
 62
     4
 10
-61.096405
 20
-117.309509
 11
-58.841705
 21
-117.309509
  0
LINE
  8
0
  6
DASHED
 62
     4
 10
-61.096405
 20
-119.909515
 11
-57.340607
 21
-119.909515
  0
LINE
  8
0
  6
DASHED
 62
     4
 10
-57.341675
 20
-117.309509
 11
-52.596375
 21
-117.309509
  0
LINE
  8
0
  6
DASHED
 62
     4
 10
-55.840576
 20
-119.909515
 11
-52.596375
 21
-119.909515
  0
LINE
  8
0
  6
DASHED
 62
     4
 10
59.714737
 20
-116.309525
 11
75.814743
 21
-116.309525
  0
LINE
  8
0
  6
DASHED
 62
     4
 10
64.414719
 20
-120.909523
 11
81.714737
 21
-120.909523
  0
LINE
  8
0
  6
DASHED
 62
     4
 10
59.714737
 20
-118.909523
 11
59.714737
 21
-116.309525
  0
LINE
  8
0
  6
DASHED
 62
     4
 10
64.414719
 20
-119.291679
 11
64.414719
 21
-120.909523
  0
LINE
  8
0
  6
CENTER
 62
     1
 10
61.714737
 20
-115.579269
 11
61.714737
 21
-121.482193
  0
LINE
  8
0
  6
DASHED
 62
     4
 10
59.714737
 20
-118.109528
 11
63.988541
 21
-118.109528
  0
LINE
  8
0
  6
DASHED
 62
     4
 10
59.714737
 20
-118.909523
 11
63.714737
 21
-118.909523
  0
LINE
  8
0
  6
DASHED
 62
     4
 10
63.714737
 20
-118.109520
 11
63.714737
 21
-118.909523
  0
LINE
  8
0
  6
DASHED
 62
     4
 10
63.914719
 20
-120.109528
 11
64.414719
 21
-120.109528
  0
LINE
  8
0
  6
DASHED
 62
     4
 10
63.914719
 20
-118.109528
 11
63.914719
 21
-120.109528
  0
LINE
  8
0
  6
DASHED
 62
     4
 10
63.988541
 20
-119.291679
 11
64.414719
 21
-119.291679
  0
LINE
  8
0
  6
DASHED
 62
     4
 10
63.988541
 20
-118.109528
 11
63.988541
 21
-119.291679
  0
LINE
  8
0
  6
DASHED
 62
     4
 10
59.714737
 20
-117.309525
 11
81.714737
 21
-117.309525
  0
LINE
  8
0
  6
DASHED
 62
     4
 10
59.714737
 20
-116.759521
 11
81.714737
 21
-116.759521
  0
LINE
  8
0
  6
DASHED
 62
     4
 10
60.689713
 20
-120.309525
 11
62.739731
 21
-120.309525
  0
LINE
  8
0
  6
DASHED
 62
     4
 10
62.740303
 20
-120.310066
 11
62.965294
 21
-120.085068
  0
LINE
  8
0
  6
DASHED
 62
     4
 10
60.689812
 20
-120.309402
 11
60.464825
 21
-120.084419
  0
LINE
  8
0
  6
DASHED
 62
     4
 10
60.464737
 20
-118.909523
 11
60.464737
 21
-120.084526
  0
LINE
  8
0
 62
     1
 10
60.689713
 20
-118.909523
 11
60.689713
 21
-120.309525
  0
LINE
  8
0
 62
     1
 10
62.739731
 20
-118.909523
 11
62.739731
 21
-120.309525
  0
LINE
  8
0
  6
DASHED
 62
     4
 10
62.964737
 20
-118.909523
 11
62.964737
 21
-120.084518
  0
LINE
  8
0
  6
DASHED
 62
     4
 10
60.464737
 20
-120.084526
 11
62.964737
 21
-120.084526
  0
LINE
  8
0
 62
     1
 10
60.689713
 20
-115.809525
 11
60.689713
 21
-116.309525
  0
LINE
  8
0
 62
     1
 10
62.739731
 20
-115.809525
 11
62.739731
 21
-116.309525
  0
LINE
  8
0
  6
DASHED
 62
     4
 10
81.714737
 20
-116.309525
 11
81.714737
 21
-120.909523
  0
LINE
  8
0
 10
116.975525
 20
-8.556377
 11
116.975525
 21
-38.556381
  0
LINE
  8
0
 10
128.975525
 20
-8.556377
 11
128.975525
 21
-38.556381
  0
LINE
  8
0
 10
140.975525
 20
-8.556377
 11
140.975525
 21
-38.556381
  0
LINE
  8
0
 10
152.975525
 20
-8.556377
 11
152.975525
 21
-38.556381
  0
LINE
  8
0
 10
164.975525
 20
-8.556377
 11
164.975525
 21
-38.556381
  0
LINE
  8
0
 10
176.975525
 20
-8.556377
 11
176.975525
 21
-38.556381
  0
LINE
  8
0
 10
188.975525
 20
-8.556377
 11
188.975525
 21
-38.556381
  0
LINE
  8
0
 10
91.975525
 20
-8.556377
 11
188.975525
 21
-8.556377
  0
LINE
  8
0
 10
91.975525
 20
-26.556377
 11
188.975525
 21
-26.556377
  0
LINE
  8
0
 10
91.975525
 20
-32.556377
 11
188.975525
 21
-32.556377
  0
LINE
  8
0
 10
116.975563
 20
-26.556370
 11
114.859642
 21
-14.556376
  0
LINE
  8
0
 10
91.975525
 20
-14.556377
 11
114.859604
 21
-14.556377
  0
LINE
  8
0
 10
91.975525
 20
-8.556377
 11
91.975525
 21
-38.556381
  0
LINE
  8
0
 10
91.975525
 20
-38.556381
 11
188.975525
 21
-38.556381
  0
LINE
  8
0
 10
17.000000
 20
90.785721
 11
17.000000
 21
19.214283
  0
LINE
  8
0
  6
CENTER
 62
     2
 10
-15.000000
 20
93.166687
 11
-15.000000
 21
81.500015
  0
LINE
  8
0
  6
CENTER
 62
     2
 10
-40.000000
 20
60.890320
 11
-40.000000
 21
48.833340
  0
LINE
  8
0
  6
CENTER
 62
     2
 10
0.000000
 20
61.500011
 11
0.000000
 21
48.833340
  0
LINE
  8
0
  6
CENTER
 62
     2
 10
-20.915245
 20
21.999992
 11
-8.833336
 21
21.999992
  0
LINE
  8
0
  6
CENTER
 62
     2
 10
-20.500008
 20
88.000015
 11
-8.499992
 21
88.000015
  0
LINE
  8
0
  6
CENTER
 62
     2
 10
-15.000000
 20
28.039837
 11
-15.000000
 21
15.833328
  0
LINE
  8
0
 10
16.285711
 20
91.499992
 11
16.999996
 21
90.785706
  0
LINE
  8
0
 10
16.999985
 20
19.214325
 11
16.285702
 21
18.500042
  0
LINE
  8
0
 10
-55.000000
 20
84.800003
 11
-18.163841
 21
84.800003
  0
LINE
  8
0
 10
-55.000000
 20
81.600006
 11
17.000000
 21
81.600006
  0
LINE
  8
0
 10
-55.000000
 20
59.100002
 11
-41.854729
 21
59.100002
  0
LINE
  8
0
 10
-55.000000
 20
62.299999
 11
17.000000
 21
62.299999
  0
LINE
  8
0
 10
-55.000000
 20
91.000000
 11
-55.000000
 21
18.999985
  0
LINE
  8
0
 10
-54.499969
 20
91.499985
 11
16.285706
 21
91.499985
  0
LINE
  8
0
  6
CENTER
 62
     2
 10
-69.308220
 20
72.000000
 11
-50.166668
 21
72.000000
  0
LINE
  8
0
  6
CENTER
 62
     2
 10
-80.129555
 20
55.000000
 11
23.385712
 21
55.000000
  0
LINE
  8
0
 10
-54.500057
 20
18.499996
 11
16.285706
 21
18.499996
  0
LINE
  8
0
 10
-63.000008
 20
59.118809
 11
-63.000008
 21
50.881199
  0
LINE
  8
0
 10
-62.711334
 20
59.618801
 11
-59.500011
 21
59.618801
  0
LINE
  8
0
 10
-62.711334
 20
57.309402
 11
-59.500011
 21
57.309402
  0
LINE
  8
0
 10
-62.711334
 20
52.690582
 11
-59.500011
 21
52.690582
  0
LINE
  8
0
 10
-62.711334
 20
50.381187
 11
-59.500011
 21
50.381187
  0
LINE
  8
0
 10
-59.500011
 20
59.618793
 11
-59.500011
 21
50.381191
  0
LINE
  8
0
 10
-57.480011
 20
59.118809
 11
-57.480011
 21
50.881199
  0
LINE
  8
0
 10
-62.999989
 20
59.118797
 11
-62.711315
 21
59.618793
  0
LINE
  8
0
 10
-63.000023
 20
50.881207
 11
-62.711349
 21
50.381210
  0
LINE
  8
0
 10
-57.191338
 20
59.618801
 11
-55.288696
 21
59.618801
  0
LINE
  8
0
 10
-57.191338
 20
50.381187
 11
-55.288673
 21
50.381187
  0
LINE
  8
0
 10
-55.000034
 20
59.118744
 11
-55.288715
 21
59.618748
  0
LINE
  8
0
 10
-55.000000
 20
50.881207
 11
-55.288696
 21
50.381168
  0
LINE
  8
0
 10
-57.479973
 20
59.118816
 11
-57.191299
 21
59.618813
  0
LINE
  8
0
 10
-57.480072
 20
50.881149
 11
-57.191399
 21
50.381153
  0
LINE
  8
0
 10
-57.191338
 20
52.690582
 11
-55.288673
 21
52.690582
  0
LINE
  8
0
 10
-57.191338
 20
57.309402
 11
-55.288673
 21
57.309402
  0
LINE
  8
0
 10
-59.500011
 20
57.499996
 11
-57.480011
 21
57.499996
  0
LINE
  8
0
 10
-59.500011
 20
52.500000
 11
-57.480011
 21
52.500000
  0
LINE
  8
0
 62
     2
 10
-59.500011
 20
52.904991
 11
-57.480011
 21
52.904991
  0
LINE
  8
0
 62
     2
 10
-59.500011
 20
57.094994
 11
-57.480011
 21
57.094994
  0
LINE
  8
0
  6
CENTER
 62
     2
 10
-69.308220
 20
37.999992
 11
-51.166664
 21
37.999992
  0
LINE
  8
0
 10
-63.000008
 20
58.999989
 11
-63.000008
 21
51.000000
  0
LINE
  8
0
 10
-64.000000
 20
91.000000
 11
-64.000000
 21
18.999985
  0
LINE
  8
0
 10
-74.000000
 20
91.000000
 11
-74.000000
 21
18.999985
  0
LINE
  8
0
 10
-64.000000
 20
66.000000
 11
-55.000000
 21
66.000000
  0
LINE
  8
0
 10
-64.000000
 20
78.000000
 11
-55.000000
 21
78.000000
  0
LINE
  8
0
 10
-64.000000
 20
31.999992
 11
-55.000000
 21
31.999992
  0
LINE
  8
0
 10
-64.000000
 20
43.999985
 11
-55.000000
 21
43.999985
  0
LINE
  8
0
 10
-74.000000
 20
90.999985
 11
-64.000000
 21
90.999985
  0
LINE
  8
0
 10
-74.000000
 20
18.999985
 11
-64.000000
 21
18.999985
  0
LINE
  8
0
 10
-64.000000
 20
51.000000
 11
-63.000008
 21
51.000000
  0
LINE
  8
0
 10
-64.000000
 20
58.999981
 11
-63.000008
 21
58.999981
  0
LINE
  8
0
 10
-64.000000
 20
75.160706
 11
-62.000011
 21
75.160706
  0
LINE
  8
0
 10
-64.000000
 20
68.839294
 11
-62.000011
 21
68.839294
  0
LINE
  8
0
 10
-62.000011
 20
75.160706
 11
-62.000011
 21
68.839294
  0
LINE
  8
0
 10
-62.000011
 20
75.160706
 11
-64.000000
 21
75.160706
  0
LINE
  8
0
 10
-64.000107
 20
73.053513
 11
-62.000111
 21
68.839249
  0
LINE
  8
0
 10
-61.999973
 20
75.160721
 11
-63.999966
 21
70.946472
  0
LINE
  8
0
 10
-62.000008
 20
41.160725
 11
-64.000000
 21
36.946476
  0
LINE
  8
0
 10
-64.000053
 20
39.053516
 11
-62.000053
 21
34.839252
  0
LINE
  8
0
 10
-62.000011
 20
41.160694
 11
-62.000011
 21
34.839306
  0
LINE
  8
0
 10
-62.000011
 20
34.839287
 11
-64.000000
 21
34.839287
  0
LINE
  8
0
 10
-62.000011
 20
41.160698
 11
-64.000000
 21
41.160698
  0
LINE
  8
0
  6
CENTER
 62
     2
 10
-72.500000
 20
26.999992
 11
-64.833351
 21
26.999992
  0
LINE
  8
0
  6
CENTER
 62
     2
 10
-72.833344
 20
83.000000
 11
-65.500008
 21
83.000000
  0
LINE
  8
0
  6
CENTER
 62
     2
 10
-69.000000
 20
87.166672
 11
-69.000000
 21
78.500000
  0
LINE
  8
0
  6
CENTER
 62
     2
 10
-69.000000
 20
31.833324
 11
-69.000000
 21
22.166664
  0
LINE
  8
0
 10
-55.000027
 20
18.999979
 11
-54.500034
 21
18.499981
  0
LINE
  8
0
 10
-54.499950
 20
91.499992
 11
-54.999973
 21
90.999969
  0
LINE
  8
0
 10
-11.836151
 20
84.800003
 11
17.000000
 21
84.800003
  0
LINE
  8
0
 10
1.854729
 20
59.100002
 11
17.000000
 21
59.100002
  0
LINE
  8
0
 10
-38.145271
 20
59.100002
 11
-1.854729
 21
59.100002
  0
LINE
  8
0
  6
PHANTOM
 62
     3
 10
-27.500000
 20
101.499985
 11
-27.500000
 21
8.499996
  0
LINE
  8
0
  6
PHANTOM
 62
     3
 10
-7.500000
 20
96.421364
 11
-7.500000
 21
8.499996
  0
LINE
  8
0
 10
-144.285706
 20
18.499996
 11
-133.550003
 21
18.499996
  0
LINE
  8
0
 10
-144.285706
 20
91.499985
 11
-131.600006
 21
91.499985
  0
LINE
  8
0
  6
CENTER
 62
     2
 10
-147.258972
 20
55.000000
 11
-112.016518
 21
55.000000
  0
LINE
  8
0
  6
CENTER
 62
     2
 10
-136.748077
 20
72.000000
 11
-122.372849
 21
72.000000
  0
LINE
  8
0
  6
CENTER
 62
     2
 10
-137.057220
 20
38.000015
 11
-122.836563
 21
38.000015
  0
LINE
  8
0
 10
-144.500000
 20
91.000000
 11
-115.499985
 21
91.000000
  0
LINE
  8
0
 10
-144.500000
 20
19.000008
 11
-115.499985
 21
19.000008
  0
LINE
  8
0
  6
CENTER
 62
     2
 10
-130.000000
 20
95.062851
 11
-130.000000
 21
14.530685
  0
LINE
  8
0
 10
-115.499985
 20
91.000015
 11
-115.499985
 21
19.000008
  0
LINE
  8
0
 10
-144.500015
 20
91.000015
 11
-144.500015
 21
19.000008
  0
LINE
  8
0
 10
-145.000000
 20
90.785706
 11
-145.000000
 21
84.800003
  0
LINE
  8
0
 10
-115.000000
 20
90.785721
 11
-115.000000
 21
84.800003
  0
LINE
  8
0
  6
CENTER
 62
     2
 10
-133.192902
 20
21.999992
 11
-126.546280
 21
21.999992
  0
LINE
  8
0
 10
-145.000000
 20
59.099972
 11
-145.000000
 21
19.214283
  0
LINE
  8
0
 10
-128.399994
 20
91.499985
 11
-115.714287
 21
91.499985
  0
LINE
  8
0
 10
-115.000000
 20
59.099972
 11
-115.000000
 21
19.214283
  0
LINE
  8
0
 10
-133.550003
 20
18.499996
 11
-115.714287
 21
18.499996
  0
LINE
  8
0
 10
-127.500000
 20
39.443382
 11
-127.500000
 21
36.556641
  0
LINE
  8
0
 10
-132.500000
 20
39.443382
 11
-132.500000
 21
36.556641
  0
LINE
  8
0
 10
-132.499985
 20
39.443417
 11
-129.999985
 21
40.886799
  0
LINE
  8
0
 10
-129.999985
 20
35.113281
 11
-127.499992
 21
36.556656
  0
LINE
  8
0
 10
-130.000000
 20
40.886772
 11
-127.500015
 21
39.443405
  0
LINE
  8
0
 10
-132.499985
 20
36.556637
 11
-129.999985
 21
35.113262
  0
LINE
  8
0
 10
-132.499985
 20
73.443436
 11
-130.000000
 21
74.886803
  0
LINE
  8
0
 10
-132.500000
 20
73.443390
 11
-132.500000
 21
70.556641
  0
LINE
  8
0
 10
-132.500015
 20
70.556648
 11
-129.999985
 21
69.113258
  0
LINE
  8
0
 10
-130.000000
 20
69.113312
 11
-127.500015
 21
70.556679
  0
LINE
  8
0
 10
-127.500000
 20
73.443390
 11
-127.500000
 21
70.556641
  0
LINE
  8
0
 10
-129.999985
 20
74.886757
 11
-127.500008
 21
73.443390
  0
LINE
  8
0
 10
-133.599976
 20
91.000000
 11
-134.599976
 21
91.000000
  0
LINE
  8
0
 10
-122.099998
 20
91.000000
 11
-125.099991
 21
91.000000
  0
LINE
  8
0
  6
CENTER
 62
     2
 10
-133.621063
 20
88.000015
 11
-126.148788
 21
88.000015
  0
LINE
  8
0
 10
-114.999977
 20
47.100006
 11
-114.999977
 21
50.100014
  0
LINE
  8
0
 10
-144.285645
 20
91.499893
 11
-144.999924
 21
90.785599
  0
LINE
  8
0
 10
-115.714317
 20
91.499992
 11
-115.000031
 21
90.785713
  0
LINE
  8
0
 10
-145.000000
 20
19.214308
 11
-144.285706
 21
18.500019
  0
LINE
  8
0
 10
-114.999992
 20
19.214287
 11
-115.714272
 21
18.500002
  0
LINE
  8
0
 10
-115.000000
 20
62.299999
 11
-115.499985
 21
62.299999
  0
LINE
  8
0
 10
-115.000000
 20
59.099972
 11
-115.499985
 21
59.099972
  0
LINE
  8
0
 10
-145.000000
 20
81.599976
 11
-144.500015
 21
81.599976
  0
LINE
  8
0
 10
-145.000000
 20
84.800003
 11
-144.500015
 21
84.800003
  0
LINE
  8
0
 10
-131.600006
 20
91.499985
 11
-131.600006
 21
91.000000
  0
LINE
  8
0
 10
-128.399994
 20
91.499985
 11
-128.399994
 21
91.000000
  0
LINE
  8
0
 10
-145.000000
 20
59.099972
 11
-144.500015
 21
59.099972
  0
LINE
  8
0
 10
-145.000000
 20
62.299999
 11
-144.500015
 21
62.299999
  0
LINE
  8
0
 10
-145.000000
 20
81.599976
 11
-145.000000
 21
62.300007
  0
LINE
  8
0
 10
-115.000000
 20
84.800003
 11
-115.499985
 21
84.800003
  0
LINE
  8
0
 10
-115.000023
 20
81.599976
 11
-115.499985
 21
81.599976
  0
LINE
  8
0
 10
-115.000000
 20
81.599976
 11
-115.000000
 21
62.300007
  0
LINE
  8
0
  6
CENTER
 62
     2
 10
-146.500000
 20
88.000000
 11
-143.500000
 21
88.000000
  0
LINE
  8
0
  6
CENTER
 62
     2
 10
-146.500000
 20
22.000000
 11
-143.500000
 21
22.000000
  0
LINE
  8
0
  6
CENTER
 62
     2
 10
70.000000
 20
94.554886
 11
70.000000
 21
16.298218
  0
LINE
  8
0
 10
54.999985
 20
90.785721
 11
54.999985
 21
84.800003
  0
LINE
  8
0
 10
85.000000
 20
90.785721
 11
85.000000
 21
84.799988
  0
LINE
  8
0
 10
55.714279
 20
18.499996
 11
84.285706
 21
18.499996
  0
LINE
  8
0
 10
55.714279
 20
91.499985
 11
68.399948
 21
91.499985
  0
LINE
  8
0
  6
CENTER
 62
     2
 10
52.885208
 20
55.000000
 11
87.430954
 21
55.000000
  0
LINE
  8
0
  6
CENTER
 62
     2
 10
52.885208
 20
38.000015
 11
86.725937
 21
38.000015
  0
LINE
  8
0
  6
CENTER
 62
     2
 10
53.590256
 20
72.000000
 11
86.866943
 21
72.000000
  0
LINE
  8
0
 10
54.999985
 20
59.099972
 11
54.999985
 21
19.214283
  0
LINE
  8
0
 10
85.000000
 20
59.099957
 11
85.000000
 21
19.214283
  0
LINE
  8
0
 10
71.599991
 20
91.499985
 11
84.285706
 21
91.499985
  0
LINE
  8
0
 10
55.714264
 20
91.500000
 11
54.999985
 21
90.785721
  0
LINE
  8
0
 10
84.285568
 20
91.499878
 11
84.999863
 21
90.785599
  0
LINE
  8
0
 10
55.000000
 20
19.214321
 11
55.714283
 21
18.500038
  0
LINE
  8
0
 10
84.999962
 20
19.214321
 11
84.285683
 21
18.500038
  0
LINE
  8
0
 10
55.000031
 20
59.100002
 11
55.500015
 21
59.100002
  0
LINE
  8
0
 10
55.000031
 20
62.299999
 11
55.499710
 21
62.299999
  0
LINE
  8
0
 10
55.499950
 20
59.100048
 11
55.999939
 21
58.600060
  0
LINE
  8
0
 10
56.000015
 20
58.599987
 11
57.600006
 21
58.599987
  0
LINE
  8
0
 10
56.000015
 20
62.799984
 11
57.600006
 21
62.799984
  0
LINE
  8
0
 10
55.499798
 20
62.300091
 11
55.999821
 21
62.800114
  0
LINE
  8
0
 10
83.983124
 20
58.599941
 11
82.383530
 21
58.599941
  0
LINE
  8
0
 10
84.483345
 20
59.100174
 11
83.983353
 21
58.600185
  0
LINE
  8
0
 10
83.983536
 20
62.799953
 11
82.383530
 21
62.799953
  0
LINE
  8
0
 10
83.983566
 20
62.800041
 11
84.483559
 21
62.300053
  0
LINE
  8
0
 10
84.999985
 20
62.299984
 11
84.483551
 21
62.299984
  0
LINE
  8
0
 10
84.999985
 20
59.099957
 11
84.483521
 21
59.099957
  0
LINE
  8
0
  6
CENTER
 62
     2
 10
52.885208
 20
60.699993
 11
87.430954
 21
60.699993
  0
LINE
  8
0
  6
CENTER
 62
     2
 10
53.217575
 20
83.199997
 11
87.430954
 21
83.199997
  0
LINE
  8
0
 10
68.399963
 20
91.499985
 11
68.399963
 21
90.983521
  0
LINE
  8
0
 10
71.599991
 20
91.499985
 11
71.599991
 21
90.983521
  0
LINE
  8
0
 10
72.099991
 20
90.483505
 11
72.099991
 21
88.883514
  0
LINE
  8
0
 10
71.599876
 20
90.983391
 11
72.099861
 21
90.483398
  0
LINE
  8
0
 10
67.899994
 20
90.483536
 11
67.899994
 21
88.883514
  0
LINE
  8
0
 10
67.900009
 20
90.483505
 11
68.399994
 21
90.983490
  0
LINE
  8
0
 10
84.999985
 20
84.799988
 11
84.483551
 21
84.799988
  0
LINE
  8
0
 10
84.999985
 20
81.599960
 11
84.483521
 21
81.599960
  0
LINE
  8
0
 10
83.983170
 20
81.099945
 11
82.383530
 21
81.099945
  0
LINE
  8
0
 10
84.483353
 20
81.600151
 11
83.983368
 21
81.100159
  0
LINE
  8
0
 10
83.983536
 20
85.299957
 11
82.383530
 21
85.299957
  0
LINE
  8
0
 10
83.983536
 20
85.300026
 11
84.483528
 21
84.800041
  0
LINE
  8
0
 10
85.000000
 20
81.599960
 11
85.000000
 21
62.299984
  0
LINE
  8
0
 10
54.999985
 20
81.599976
 11
54.999985
 21
62.300007
  0
LINE
  8
0
 10
54.999985
 20
84.800003
 11
54.999985
 21
84.999985
  0
LINE
  8
0
 10
55.000031
 20
81.600006
 11
55.500015
 21
81.600006
  0
LINE
  8
0
 10
55.000031
 20
84.800003
 11
55.499710
 21
84.800003
  0
LINE
  8
0
 10
55.499966
 20
81.600037
 11
55.999958
 21
81.100044
  0
LINE
  8
0
 10
56.000015
 20
81.099991
 11
57.600006
 21
81.099991
  0
LINE
  8
0
 10
56.000015
 20
85.300003
 11
57.600006
 21
85.300003
  0
LINE
  8
0
 10
55.499805
 20
84.800095
 11
55.999828
 21
85.300117
  0
LINE
  8
0
  6
CENTER
 62
     2
 10
83.500000
 20
88.000000
 11
86.500000
 21
88.000000
  0
LINE
  8
0
  6
CENTER
 62
     2
 10
83.500000
 20
22.000000
 11
86.500000
 21
22.000000
  0
LINE
  8
0
 10
17.000000
 20
-2.214287
 11
17.000000
 21
-30.785721
  0
LINE
  8
0
  6
CENTER
 62
     2
 10
-25.000000
 20
-13.000000
 11
-25.000000
 21
-20.000000
  0
LINE
  8
0
  6
CENTER
 62
     2
 10
5.000000
 20
-13.000000
 11
5.000000
 21
-20.000000
  0
LINE
  8
0
 10
16.285683
 20
-1.500019
 11
16.999962
 21
-2.214303
  0
LINE
  8
0
 10
16.999945
 20
-30.785700
 11
16.285664
 21
-31.499983
  0
LINE
  8
0
 10
-55.000000
 20
-1.999989
 11
-55.000000
 21
-31.000015
  0
LINE
  8
0
 10
-54.500011
 20
-1.500004
 11
16.285706
 21
-1.500004
  0
LINE
  8
0
 10
-54.500034
 20
-31.500000
 11
16.285706
 21
-31.500000
  0
LINE
  8
0
  6
CENTER
 62
     2
 10
-79.841965
 20
-16.500000
 11
22.399994
 21
-16.500000
  0
LINE
  8
0
  6
CENTER
 62
     2
 10
-64.800003
 20
-23.499992
 11
-50.310429
 21
-23.499992
  0
LINE
  8
0
 10
-63.000008
 20
-23.499992
 11
-63.000008
 21
-27.000015
  0
LINE
  8
0
 10
-62.711334
 20
-27.500000
 11
-59.500011
 21
-27.500000
  0
LINE
  8
0
 10
-59.500011
 20
-23.499992
 11
-59.500011
 21
-27.500000
  0
LINE
  8
0
 10
-57.480011
 20
-23.499992
 11
-57.480011
 21
-27.000015
  0
LINE
  8
0
 10
-63.000004
 20
-27.000027
 11
-62.711330
 21
-27.500023
  0
LINE
  8
0
 10
-57.480042
 20
-27.000006
 11
-57.191368
 21
-27.500002
  0
LINE
  8
0
 10
-55.000000
 20
-26.999975
 11
-55.288673
 21
-27.499973
  0
LINE
  8
0
 10
-57.191338
 20
-27.500000
 11
-55.288673
 21
-27.500000
  0
LINE
  8
0
 10
-59.500011
 20
-25.999992
 11
-57.480011
 21
-25.999992
  0
LINE
  8
0
 62
     2
 10
-59.500011
 20
-25.595001
 11
-57.480011
 21
-25.595001
  0
LINE
  8
0
 10
-63.000008
 20
-23.499992
 11
-63.000008
 21
-21.599991
  0
LINE
  8
0
 10
-59.500011
 20
-23.499992
 11
-59.500011
 21
-22.500000
  0
LINE
  8
0
 10
-57.480011
 20
-23.499992
 11
-57.480011
 21
-22.500000
  0
LINE
  8
0
 10
-62.711334
 20
-23.499992
 11
-59.500011
 21
-23.499992
  0
LINE
  8
0
 10
-57.191338
 20
-23.499992
 11
-55.288673
 21
-23.499992
  0
LINE
  8
0
 10
-74.000000
 20
-2.000011
 11
-74.000000
 21
-31.000015
  0
LINE
  8
0
 10
-64.000000
 20
-2.000011
 11
-64.000000
 21
-11.400017
  0
LINE
  8
0
 10
-63.000008
 20
-21.599991
 11
-63.000008
 21
-27.500000
  0
LINE
  8
0
 10
-74.000000
 20
-31.000015
 11
-64.000000
 21
-31.000015
  0
LINE
  8
0
 10
-74.000000
 20
-2.000011
 11
-64.000000
 21
-2.000011
  0
LINE
  8
0
 10
-62.000011
 20
-10.500008
 11
-55.000000
 21
-10.500008
  0
LINE
  8
0
 10
-62.000011
 20
-22.500000
 11
-55.000000
 21
-22.500000
  0
LINE
  8
0
 10
-65.000000
 20
-11.400017
 11
-65.000000
 21
-21.600014
  0
LINE
  8
0
 10
-65.000000
 20
-21.599991
 11
-62.000011
 21
-21.599991
  0
LINE
  8
0
 10
-65.000000
 20
-11.400009
 11
-62.000011
 21
-11.400009
  0
LINE
  8
0
 10
-62.000011
 20
-10.500008
 11
-62.000011
 21
-11.400017
  0
LINE
  8
0
 10
-64.000000
 20
-21.600014
 11
-64.000000
 21
-31.000015
  0
LINE
  8
0
 10
-64.000000
 20
-27.500000
 11
-63.000008
 21
-27.500000
  0
LINE
  8
0
 10
-62.000011
 20
-21.600014
 11
-62.000011
 21
-22.500000
  0
LINE
  8
0
 10
-54.500008
 20
-1.500006
 11
-55.000015
 21
-2.000012
  0
LINE
  8
0
 10
-55.000031
 20
-31.000019
 11
-54.500027
 21
-31.500025
  0
LINE
  8
0
 10
-17.828430
 20
-7.500000
 11
-12.171562
 21
-7.500000
  0
LINE
  8
0
 10
-17.828430
 20
-25.500008
 11
-12.171562
 21
-25.500008
  0
LINE
  8
0
 10
-17.828430
 20
-1.500004
 11
-17.828430
 21
-7.500000
  0
LINE
  8
0
 10
-12.171562
 20
-1.500004
 11
-12.171562
 21
-7.500000
  0
LINE
  8
0
 10
-17.828430
 20
-25.500008
 11
-17.828430
 21
-31.500000
  0
LINE
  8
0
 10
-12.171562
 20
-25.500008
 11
-12.171562
 21
-31.500000
  0
LINE
  8
0
  6
CENTER
 62
     2
 10
-40.000000
 20
-30.000000
 11
-40.000000
 21
-33.000000
  0
LINE
  8
0
  6
CENTER
 62
     2
 10
-15.000000
 20
-30.000000
 11
-15.000000
 21
-33.000000
  0
LINE
  8
0
  6
CENTER
 62
     2
 10
0.000000
 20
-30.000000
 11
0.000000
 21
-33.000000
  0
LINE
  8
0
  6
PHANTOM
 62
     3
 10
-27.500000
 20
8.499996
 11
-27.500000
 21
-37.042404
  0
LINE
  8
0
  6
PHANTOM
 62
     3
 10
-7.500000
 20
8.499996
 11
-7.500000
 21
-37.042404
  0
LINE
  8
0
  6
CENTER
 62
     1
 10
-81.096390
 20
-115.502808
 11
-81.096390
 21
-121.741425
  0
LINE
  8
0
 62
     4
 10
-82.346390
 20
-115.809525
 11
-82.346390
 21
-116.309525
  0
LINE
  8
0
 62
     1
 10
-82.121399
 20
-115.809525
 11
-82.121399
 21
-116.309525
  0
LINE
  8
0
 62
     1
 10
-80.071396
 20
-115.809525
 11
-80.071396
 21
-116.309525
  0
LINE
  8
0
 62
     4
 10
-79.846390
 20
-115.809525
 11
-79.846390
 21
-116.309525
  0
LINE
  8
0
 62
     4
 10
-82.346390
 20
-115.809525
 11
-79.846390
 21
-115.809525
  0
LINE
  8
0
  6
CENTER
 62
     1
 10
-127.639130
 20
-114.256554
 11
-127.639130
 21
-122.969315
  0
LINE
  8
0
 62
     4
 10
-129.689117
 20
-117.309525
 11
-129.689117
 21
-118.859520
  0
LINE
  8
0
 62
     4
 10
-129.689194
 20
-117.309486
 11
-129.139175
 21
-116.759476
  0
LINE
  8
0
 62
     4
 10
-129.139130
 20
-116.309525
 11
-129.139130
 21
-116.759521
  0
LINE
  8
0
 62
     4
 10
-129.139130
 20
-116.309525
 11
-126.139130
 21
-116.309525
  0
LINE
  8
0
 62
     4
 10
-126.139130
 20
-116.309525
 11
-126.139130
 21
-116.759521
  0
LINE
  8
0
 62
     4
 10
-125.589134
 20
-117.309479
 11
-126.139137
 21
-116.759483
  0
LINE
  8
0
 62
     4
 10
-125.589127
 20
-117.309525
 11
-125.589127
 21
-118.859520
  0
LINE
  8
0
 62
     4
 10
-129.689117
 20
-118.109520
 11
-125.589127
 21
-118.109520
  0
LINE
  8
0
 62
     4
 10
-129.689133
 20
-118.908707
 11
-125.589127
 21
-118.908707
  0
LINE
  8
0
 62
     4
 10
-128.664139
 20
-120.309525
 11
-126.614136
 21
-120.309525
  0
LINE
  8
0
 62
     4
 10
-126.613678
 20
-120.309975
 11
-126.388680
 21
-120.084961
  0
LINE
  8
0
 62
     4
 10
-128.664124
 20
-120.309570
 11
-128.889130
 21
-120.084579
  0
LINE
  8
0
 62
     4
 10
-128.889130
 20
-118.908707
 11
-128.889130
 21
-120.084526
  0
LINE
  8
0
 62
     1
 10
-128.664139
 20
-118.908707
 11
-128.664139
 21
-120.309525
  0
LINE
  8
0
 62
     1
 10
-126.614136
 20
-118.908707
 11
-126.614136
 21
-120.309525
  0
LINE
  8
0
 62
     4
 10
-126.389130
 20
-118.908707
 11
-126.389130
 21
-120.084518
  0
LINE
  8
0
 62
     4
 10
-128.889130
 20
-120.084526
 11
-126.389130
 21
-120.084526
  0
LINE
  8
0
 62
     4
 10
-128.889130
 20
-115.809525
 11
-128.889130
 21
-116.309525
  0
LINE
  8
0
 62
     1
 10
-128.664139
 20
-115.809525
 11
-128.664139
 21
-116.309525
  0
LINE
  8
0
 62
     1
 10
-126.614136
 20
-115.809525
 11
-126.614136
 21
-116.309525
  0
LINE
  8
0
 62
     4
 10
-126.389130
 20
-115.809525
 11
-126.389130
 21
-116.309525
  0
LINE
  8
0
 62
     4
 10
-128.889130
 20
-115.809525
 11
-126.389130
 21
-115.809525
  0
LINE
  8
0
  6
CENTER
 62
     1
 10
-85.896942
 20
-73.759521
 11
-55.688889
 21
-73.759521
  0
LINE
  8
0
 62
     4
 10
-83.096405
 20
-75.259521
 11
-61.096405
 21
-75.259521
  0
LINE
  8
0
 62
     4
 10
-83.096405
 20
-72.259521
 11
-61.096405
 21
-72.259521
  0
LINE
  8
0
  6
CENTER
 62
     1
 10
-81.096390
 20
-70.923019
 11
-81.096390
 21
-76.512344
  0
LINE
  8
0
 62
     1
 10
-60.007172
 20
-71.594421
 11
-57.507172
 21
-75.924545
  0
LINE
  8
0
 62
     4
 10
-61.096405
 20
-72.459518
 11
-59.507751
 21
-72.459518
  0
LINE
  8
0
 62
     4
 10
-61.096405
 20
-75.059525
 11
-58.006622
 21
-75.059525
  0
LINE
  8
0
 62
     4
 10
-82.105865
 20
-74.486176
 11
-80.360863
 21
-72.741173
  0
LINE
  8
0
 62
     4
 10
-81.823044
 20
-74.768997
 11
-80.078041
 21
-73.023994
  0
LINE
  8
0
 62
     4
 10
-83.096405
 20
-72.159523
 11
-83.096405
 21
-75.359520
  0
LINE
  8
0
 62
     4
 10
-61.096405
 20
-72.159523
 11
-61.096405
 21
-75.359520
  0
LINE
  8
0
 62
     4
 10
81.714737
 20
-109.409523
 11
81.714737
 21
-116.309525
  0
LINE
  8
0
  6
CENTER
 62
     1
 10
61.714737
 20
-115.579269
 11
61.714737
 21
-121.482193
  0
LINE
  8
0
 62
     4
 10
75.814713
 20
-109.409523
 11
75.814713
 21
-116.309525
  0
LINE
  8
0
 62
     4
 10
75.814743
 20
-109.409523
 11
81.714737
 21
-109.409523
  0
LINE
  8
0
 62
     4
 10
75.814713
 20
-115.159508
 11
81.714737
 21
-115.159508
  0
LINE
  8
0
 62
     4
 10
75.814713
 20
-115.909508
 11
81.714737
 21
-115.909508
  0
LINE
  8
0
 62
     4
 10
75.814713
 20
-110.909523
 11
81.714737
 21
-110.909523
  0
LINE
  8
0
 62
     4
 10
77.822098
 20
-100.909485
 11
80.422073
 21
-100.909485
  0
LINE
  8
0
  6
CENTER
 62
     1
 10
78.672012
 20
-102.632416
 11
78.672012
 21
-90.700333
  0
LINE
  8
0
  6
CENTER
 62
     1
 10
79.572006
 20
-102.582123
 11
79.572006
 21
-90.658478
  0
LINE
  8
0
 62
     4
 10
78.422012
 20
-90.909485
 11
78.922012
 21
-90.909485
  0
LINE
  8
0
 62
     4
 10
79.322006
 20
-90.909485
 11
79.822006
 21
-90.909485
  0
LINE
  8
0
 62
     4
 10
78.222000
 20
-93.909485
 11
80.022018
 21
-93.909485
  0
LINE
  8
0
 62
     4
 10
80.022018
 20
-100.909485
 11
80.022018
 21
-96.903938
  0
LINE
  8
0
 62
     4
 10
79.121994
 20
-100.909485
 11
79.121994
 21
-97.423553
  0
LINE
  8
0
 62
     4
 10
79.121994
 20
-95.923553
 11
79.121994
 21
-93.909485
  0
LINE
  8
0
 62
     4
 10
80.022018
 20
-95.403938
 11
80.022018
 21
-93.909485
  0
LINE
  8
0
 62
     4
 10
78.222000
 20
-100.909485
 11
78.222000
 21
-97.943176
  0
LINE
  8
0
 62
     4
 10
78.222000
 20
-96.443176
 11
78.222000
 21
-93.909485
  0
LINE
  8
0
 62
     4
 10
78.422012
 20
-93.909485
 11
78.422012
 21
-90.909485
  0
LINE
  8
0
 62
     4
 10
78.922012
 20
-93.909485
 11
78.922012
 21
-90.909485
  0
LINE
  8
0
 62
     4
 10
79.322006
 20
-93.909485
 11
79.322006
 21
-90.909485
  0
LINE
  8
0
 62
     4
 10
79.822006
 20
-93.909485
 11
79.822006
 21
-90.909485
  0
LINE
  8
0
 62
     1
 10
76.957130
 20
-97.173637
 11
81.287277
 21
-94.673630
  0
LINE
  8
0
  6
CENTER
 62
     1
 10
79.122086
 20
-110.723892
 11
79.122086
 21
-100.909485
  0
LINE
  8
0
 62
     1
 10
76.957047
 20
-98.673637
 11
81.287193
 21
-96.173622
  0
LINE
  8
0
 62
     1
 10
76.957031
 20
-106.154350
 11
81.287155
 21
-103.654350
  0
LINE
  8
0
 62
     1
 10
76.957077
 20
-107.654343
 11
81.287193
 21
-105.154350
  0
LINE
  8
0
 62
     4
 10
60.464737
 20
-115.809525
 11
60.464737
 21
-116.309525
  0
LINE
  8
0
 62
     1
 10
60.689713
 20
-115.809525
 11
60.689713
 21
-116.309525
  0
LINE
  8
0
 62
     1
 10
62.739731
 20
-115.809525
 11
62.739731
 21
-116.309525
  0
LINE
  8
0
 62
     4
 10
62.964737
 20
-115.809525
 11
62.964737
 21
-116.309525
  0
LINE
  8
0
 62
     4
 10
60.464737
 20
-115.809525
 11
62.964737
 21
-115.809525
  0
LINE
  8
0
 62
     4
 10
80.422073
 20
-109.409523
 11
80.422073
 21
-105.653687
  0
LINE
  8
0
 62
     4
 10
77.822098
 20
-109.409523
 11
77.822098
 21
-107.154778
  0
LINE
  8
0
 62
     4
 10
77.822098
 20
-105.654793
 11
77.822098
 21
-100.909485
  0
LINE
  8
0
 62
     4
 10
80.422073
 20
-104.153694
 11
80.422073
 21
-100.909485
  0
LINE
  8
0
 62
     4
 10
14.422012
 20
-110.909523
 11
18.922012
 21
-110.909523
  0
LINE
  8
0
 62
     4
 10
14.422012
 20
-109.409523
 11
14.422012
 21
-115.159523
  0
LINE
  8
0
 62
     4
 10
15.171953
 20
-115.909485
 11
14.421990
 21
-115.159523
  0
LINE
  8
0
 62
     4
 10
15.172012
 20
-116.759521
 11
15.172012
 21
-115.909523
  0
LINE
  8
0
 62
     4
 10
14.621999
 20
-117.309479
 11
15.172009
 21
-116.759468
  0
LINE
  8
0
 62
     4
 10
14.621994
 20
-117.309525
 11
14.621994
 21
-118.859520
  0
LINE
  8
0
 62
     4
 10
18.722000
 20
-117.309525
 11
18.722000
 21
-118.859520
  0
LINE
  8
0
 62
     4
 10
18.721991
 20
-117.309563
 11
18.171980
 21
-116.759552
  0
LINE
  8
0
 62
     4
 10
18.172012
 20
-116.759521
 11
18.172012
 21
-115.909523
  0
LINE
  8
0
 62
     4
 10
18.172071
 20
-115.909622
 11
18.922068
 21
-115.159622
  0
LINE
  8
0
 62
     4
 10
18.922012
 20
-109.409523
 11
18.922012
 21
-115.159523
  0
LINE
  8
0
  6
CENTER
 62
     1
 10
16.672012
 20
-103.748566
 11
16.672012
 21
-122.376190
  0
LINE
  8
0
 62
     4
 10
15.172012
 20
-116.309525
 11
18.172012
 21
-116.309525
  0
LINE
  8
0
 62
     4
 10
14.621994
 20
-118.109520
 11
18.722000
 21
-118.109520
  0
LINE
  8
0
 62
     4
 10
14.621994
 20
-118.911972
 11
18.722000
 21
-118.911972
  0
LINE
  8
0
 62
     4
 10
14.422012
 20
-109.409523
 11
18.922012
 21
-109.409523
  0
LINE
  8
0
 62
     1
 10
14.507029
 20
-107.654343
 11
18.837156
 21
-105.154343
  0
LINE
  8
0
 62
     4
 10
15.646988
 20
-120.309525
 11
17.697006
 21
-120.309525
  0
LINE
  8
0
 62
     4
 10
17.697527
 20
-120.310066
 11
17.922518
 21
-120.085068
  0
LINE
  8
0
 62
     4
 10
15.647052
 20
-120.309448
 11
15.422046
 21
-120.084442
  0
LINE
  8
0
 62
     4
 10
15.422012
 20
-118.911972
 11
15.422012
 21
-120.084526
  0
LINE
  8
0
 62
     1
 10
15.646988
 20
-118.911972
 11
15.646988
 21
-120.309525
  0
LINE
  8
0
 62
     1
 10
17.697006
 20
-118.911972
 11
17.697006
 21
-120.309525
  0
LINE
  8
0
 62
     4
 10
17.922012
 20
-118.911972
 11
17.922012
 21
-120.084518
  0
LINE
  8
0
 62
     4
 10
15.422012
 20
-120.084526
 11
17.922012
 21
-120.084526
  0
LINE
  8
0
 62
     4
 10
15.422012
 20
-115.809525
 11
15.422012
 21
-116.309525
  0
LINE
  8
0
 62
     1
 10
15.646988
 20
-115.809525
 11
15.646988
 21
-116.309525
  0
LINE
  8
0
 62
     1
 10
17.697006
 20
-115.809525
 11
17.697006
 21
-116.309525
  0
LINE
  8
0
 62
     4
 10
17.922012
 20
-115.809525
 11
17.922012
 21
-116.309525
  0
LINE
  8
0
 62
     4
 10
15.422012
 20
-115.809525
 11
17.922012
 21
-115.809525
  0
LINE
  8
0
 62
     4
 10
15.372025
 20
-107.154800
 11
15.372025
 21
-109.409523
  0
LINE
  8
0
 62
     4
 10
17.972000
 20
-105.653702
 11
17.972000
 21
-109.409523
  0
LINE
  8
0
  6
CENTER
 62
     1
 10
58.385544
 20
-68.709511
 11
83.294724
 21
-68.709511
  0
LINE
  8
0
 62
     4
 10
59.714737
 20
-70.209511
 11
76.275345
 21
-70.209511
  0
LINE
  8
0
 62
     4
 10
59.714737
 20
-67.209511
 11
76.275345
 21
-67.209511
  0
LINE
  8
0
 62
     4
 10
59.714737
 20
-67.109512
 11
59.714737
 21
-70.309509
  0
LINE
  8
0
  6
CENTER
 62
     1
 10
61.714737
 20
-65.873001
 11
61.714737
 21
-71.462326
  0
LINE
  8
0
 62
     4
 10
76.800705
 20
-66.459511
 11
81.714737
 21
-66.459511
  0
LINE
  8
0
 62
     4
 10
76.800705
 20
-70.959511
 11
81.714737
 21
-70.959511
  0
LINE
  8
0
 62
     4
 10
81.714737
 20
-66.459503
 11
81.714737
 21
-70.959503
  0
LINE
  8
0
 62
     4
 10
60.705276
 20
-69.436157
 11
62.450275
 21
-67.691154
  0
LINE
  8
0
 62
     4
 10
60.988094
 20
-69.718987
 11
62.733097
 21
-67.973984
  0
CIRCLE
  8
0
 10
-40.000000
 20
55.000000
 40
2.250000
  0
CIRCLE
  8
0
 10
-15.000000
 20
21.999992
 40
2.250000
  0
CIRCLE
  8
0
 10
0.000000
 20
55.000000
 40
2.250000
  0
CIRCLE
  8
0
 10
-15.000000
 20
88.000015
 40
2.250000
  0
ARC
  8
0
 10
-57.453743
 20
51.535889
 40
2.453748
 50
331.927612
 51
28.072313
  0
ARC
  8
0
 10
-57.453743
 20
58.464092
 40
2.453748
 50
331.927612
 51
28.072313
  0
ARC
  8
0
 10
-64.381973
 20
55.000000
 40
9.381963
 50
345.750000
 51
14.249941
  0
ARC
  8
0
 10
-60.546265
 20
58.464092
 40
2.453748
 50
151.927612
 51
208.072388
  0
ARC
  8
0
 10
-53.618053
 20
55.000000
 40
9.381962
 50
165.750015
 51
194.249908
  0
ARC
  8
0
 10
-60.546265
 20
51.535889
 40
2.453748
 50
151.927612
 51
208.072388
  0
ARC
  8
0
 10
-55.026264
 20
58.464092
 40
2.453748
 50
151.927612
 51
208.072388
  0
ARC
  8
0
 10
-48.098034
 20
55.000000
 40
9.381962
 50
165.750015
 51
194.249908
  0
ARC
  8
0
 10
-55.026264
 20
51.535889
 40
2.453748
 50
151.927612
 51
208.072388
  0
CIRCLE
  8
0
 62
     2
 10
-69.000000
 20
26.999992
 40
2.500000
  0
CIRCLE
  8
0
 10
-69.000000
 20
26.999992
 40
2.094999
  0
CIRCLE
  8
0
 10
-69.000000
 20
83.000000
 40
2.094999
  0
CIRCLE
  8
0
 62
     2
 10
-69.000000
 20
83.000000
 40
2.500000
  0
ARC
  8
0
 10
-40.000000
 20
55.000000
 40
4.500000
 50
0.000000
 51
133.401062
  0
CIRCLE
  8
0
 10
0.000000
 20
55.000000
 40
4.500000
  0
ARC
  8
0
 10
-15.000000
 20
88.000015
 40
4.499997
 50
128.943024
 51
51.056992
  0
ARC
  8
0
 10
-15.000000
 20
21.999992
 40
4.500000
 50
308.942535
 51
231.057480
  0
CIRCLE
  8
0
 10
-40.000000
 20
55.000000
 40
4.500000
  0
CIRCLE
  8
0
 10
-130.000000
 20
72.000000
 40
5.500000
  0
CIRCLE
  8
0
 10
-130.000000
 20
38.000015
 40
5.500000
  0
CIRCLE
  8
0
 62
     2
 10
-130.000000
 20
88.000015
 40
2.000000
  0
CIRCLE
  8
0
 62
     2
 10
-130.000000
 20
21.999992
 40
2.000000
  0
CIRCLE
  8
0
 10
-130.000000
 20
88.000015
 40
1.620000
  0
CIRCLE
  8
0
 10
-130.000000
 20
21.999992
 40
1.620000
  0
CIRCLE
  8
0
 10
-130.000000
 20
72.000000
 40
5.000000
  0
CIRCLE
  8
0
 10
-130.000000
 20
38.000015
 40
5.000000
  0
CIRCLE
  8
0
 10
-130.000000
 20
72.000000
 40
4.500000
  0
CIRCLE
  8
0
 10
-130.000000
 20
38.000015
 40
4.500000
  0
CIRCLE
  8
0
 10
70.000000
 20
72.000000
 40
14.000001
  0
CIRCLE
  8
0
 10
70.000000
 20
38.000015
 40
14.000001
  0
ARC
  8
0
 10
57.599960
 20
60.699993
 40
2.099998
 50
270.000000
 51
89.999893
  0
ARC
  8
0
 10
82.383545
 20
60.699993
 40
2.099998
 50
90.000000
 51
270.000000
  0
ARC
  8
0
 10
70.000000
 20
88.883530
 40
2.099998
 50
180.000000
 51
0.000000
  0
ARC
  8
0
 10
82.383545
 20
83.199997
 40
2.099998
 50
90.000000
 51
270.000000
  0
ARC
  8
0
 10
57.599960
 20
83.199997
 40
2.099998
 50
270.000000
 51
89.999893
  0
CIRCLE
  8
0
 62
     2
 10
-25.000000
 20
-16.500000
 40
2.500000
  0
CIRCLE
  8
0
 62
     2
 10
5.000000
 20
-16.500000
 40
2.500000
  0
CIRCLE
  8
0
 10
-25.000000
 20
-16.500000
 40
2.094999
  0
CIRCLE
  8
0
 10
5.000000
 20
-16.500000
 40
2.094999
  0
ARC
  8
0
 10
-62.072556
 20
-25.500008
 40
7.072560
 50
343.573639
 51
16.426315
  0
ARC
  8
0
 10
-55.927448
 20
-25.500008
 40
7.072560
 50
163.573639
 51
196.426300
  0
ARC
  8
0
 10
-50.407452
 20
-25.500008
 40
7.072560
 50
163.573639
 51
196.426300
  0
ARC
  8
0
 10
-55.927448
 20
-21.500000
 40
7.072561
 50
180.810104
 51
196.426315
  0
ARC
  8
0
 10
-50.407452
 20
-21.500000
 40
7.072559
 50
188.128342
 51
196.426315
  0
ARC
  8
0
 10
-62.072556
 20
-21.500000
 40
7.072561
 50
343.573608
 51
351.871643
  0
ARC
  8
0
 62
     4
 10
-127.639130
 20
-118.859520
 40
2.050003
 50
180.000000
 51
270.000000
  0
ARC
  8
0
 62
     4
 10
-127.639130
 20
-118.859520
 40
2.050003
 50
270.000000
 51
0.000000
  0
CIRCLE
  8
0
 62
     1
 10
-81.096390
 20
-73.765808
 40
1.000000
  0
CIRCLE
  8
0
 62
     4
 10
-81.096390
 20
-73.765808
 40
1.250000
  0
ARC
  8
0
 62
     4
 10
16.672012
 20
-118.859520
 40
2.050000
 50
180.000000
 51
270.000000
  0
ARC
  8
0
 62
     4
 10
16.672012
 20
-118.859520
 40
2.050003
 50
271.259949
 51
0.000000
  0
ARC
  8
0
 62
     4
 10
79.214737
 20
-68.709511
 40
3.300002
 50
137.014145
 51
222.985855
  0
CIRCLE
  8
0
 62
     4
 10
79.122086
 20
-68.709511
 40
1.300000
  0
CIRCLE
  8
0
 62
     4
 10
79.443893
 20
-69.050514
 40
0.450000
  0
CIRCLE
  8
0
 62
     4
 10
78.832016
 20
-68.391357
 40
0.450000
  0
CIRCLE
  8
0
 62
     4
 10
79.443893
 20
-69.050514
 40
0.250000
  0
CIRCLE
  8
0
 62
     4
 10
78.832016
 20
-68.391357
 40
0.250000
  0
CIRCLE
  8
0
 62
     1
 10
61.714737
 20
-68.715797
 40
1.000000
  0
CIRCLE
  8
0
 62
     4
 10
61.714737
 20
-68.715797
 40
1.250000
  0
TEXT
  8
0
 10
115.907150
 20
122.050003
 40
4.500000
  1
DATE : APR ,1994
 50
0.000000
 41
1.052631
 51
0.000000
  7
STANDARD
  0
TEXT
  8
0
 10
113.700279
 20
-130.669998
 40
6.300000
  1
KOGANEI CORP.
 50
0.000000
 41
1.052632
 51
0.000000
  7
STANDARD
  0
TEXT
  8
0
 10
-190.392654
 20
122.050003
 40
4.500000
  1
TWIN ROD CYLINDER
 50
0.000000
 41
1.052632
 51
0.000000
  7
STANDARD
  0
TEXT
  8
0
 10
-186.892654
 20
104.550003
 40
4.500000
  1
MODEL:TBSA25*ST(10)
 50
0.000000
 41
1.052632
 51
0.000000
  7
STANDARD
  0
TEXT
  8
0
 10
95.668526
 20
-13.436378
 40
3.200000
  1
STROKE
 50
0.000000
 41
1.052632
 51
0.000000
  7
STANDARD
  0
TEXT
  8
0
 10
121.068527
 20
-7.436378
 40
3.200000
  1
STRETCH LIST
 50
0.000000
 41
1.052632
 51
0.000000
  7
STANDARD
  0
TEXT
  8
0
 10
179.568527
 20
-19.436378
 40
3.200000
  1
60
 50
0.000000
 41
1.052632
 51
0.000000
  7
STANDARD
  0
TEXT
  8
0
 10
167.568527
 20
-19.436378
 40
3.200000
  1
50
 50
0.000000
 41
1.052632
 51
0.000000
  7
STANDARD
  0
TEXT
  8
0
 10
155.568527
 20
-19.436378
 40
3.200000
  1
40
 50
0.000000
 41
1.052632
 51
0.000000
  7
STANDARD
  0
TEXT
  8
0
 10
143.568527
 20
-19.436378
 40
3.200000
  1
30
 50
0.000000
 41
1.052632
 51
0.000000
  7
STANDARD
  0
TEXT
  8
0
 10
131.568527
 20
-19.436378
 40
3.200000
  1
20
 50
0.000000
 41
1.052632
 51
0.000000
  7
STANDARD
  0
TEXT
  8
0
 10
119.568527
 20
-19.436378
 40
3.200000
  1
10
 50
0.000000
 41
1.052632
 51
0.000000
  7
STANDARD
  0
TEXT
  8
0
 10
179.568527
 20
-31.436378
 40
3.200000
  1
25
 50
0.000000
 41
1.052632
 51
0.000000
  7
STANDARD
  0
TEXT
  8
0
 10
167.568527
 20
-31.436378
 40
3.200000
  1
20
 50
0.000000
 41
1.052632
 51
0.000000
  7
STANDARD
  0
TEXT
  8
0
 10
155.568527
 20
-31.436378
 40
3.200000
  1
15
 50
0.000000
 41
1.052632
 51
0.000000
  7
STANDARD
  0
TEXT
  8
0
 10
145.168518
 20
-31.436378
 40
3.200000
  1
5
 50
0.000000
 41
1.052632
 51
0.000000
  7
STANDARD
  0
TEXT
  8
0
 10
121.168526
 20
-31.436378
 40
3.200000
  1
0
 50
0.000000
 41
1.052632
 51
0.000000
  7
STANDARD
  0
TEXT
  8
0
 10
176.368530
 20
-7.436378
 40
3.200000
  1
(mm)
 50
0.000000
 41
1.052632
 51
0.000000
  7
STANDARD
  0
TEXT
  8
0
 10
92.465004
 20
-20.056376
 40
3.200000
  1
STRETCH
 50
0.000000
 41
1.052632
 51
0.000000
  7
STANDARD
  0
TEXT
  8
0
 10
92.465004
 20
-24.856377
 40
3.200000
  1
  PLACE
 50
0.000000
 41
1.052632
 51
0.000000
  7
STANDARD
  0
TEXT
  8
0
 10
102.668526
 20
-31.436378
 40
3.200000
  1
A
 50
0.000000
 41
1.052632
 51
0.000000
  7
STANDARD
  0
TEXT
  8
0
 10
102.668526
 20
-37.436382
 40
3.200000
  1
B
 50
0.000000
 41
1.052632
 51
0.000000
  7
STANDARD
  0
TEXT
  8
0
 10
167.568527
 20
-37.436378
 40
3.200000
  1
30
 50
0.000000
 41
1.052632
 51
0.000000
  7
STANDARD
  0
TEXT
  8
0
 10
155.568527
 20
-37.436378
 40
3.200000
  1
25
 50
0.000000
 41
1.052632
 51
0.000000
  7
STANDARD
  0
TEXT
  8
0
 10
143.568527
 20
-37.436378
 40
3.200000
  1
15
 50
0.000000
 41
1.052632
 51
0.000000
  7
STANDARD
  0
TEXT
  8
0
 10
131.568527
 20
-37.436378
 40
3.200000
  1
10
 50
0.000000
 41
1.052632
 51
0.000000
  7
STANDARD
  0
TEXT
  8
0
 10
121.168526
 20
-37.436378
 40
3.200000
  1
0
 50
0.000000
 41
1.052632
 51
0.000000
  7
STANDARD
  0
TEXT
  8
0
 10
179.568527
 20
-37.436378
 40
3.200000
  1
35
 50
0.000000
 41
1.052632
 51
0.000000
  7
STANDARD
  0
TEXT
  8
0
 10
133.168518
 20
-31.436378
 40
3.200000
  1
0
 50
0.000000
 41
1.052632
 51
0.000000
  7
STANDARD
  0
TEXT
  8
0
 62
     3
 10
-10.894094
 20
97.995369
 40
3.200000
  1
STRETCH LINE B
 50
0.000000
 41
1.052632
 51
0.000000
  7
STANDARD
  0
TEXT
  8
0
 62
     3
 10
-29.248690
 20
104.164513
 40
3.200000
  1
STRETCH LINE A
 50
0.000000
 41
1.052632
 51
0.000000
  7
STANDARD
  0
TEXT
  8
0
 10
-137.619888
 20
-82.047035
 40
4.500000
  1
ZE102
 50
0.000000
 41
1.052632
 51
0.000000
  7
STANDARD
  0
TEXT
  8
0
 10
-173.619888
 20
-56.697033
 40
4.500000
  1
SENSOR
 50
0.000000
 41
1.052632
 51
0.000000
  7
STANDARD
  0
TEXT
  8
0
 10
-173.619888
 20
-63.447037
 40
4.500000
  1
 SWITCH:ZE135
 50
0.000000
 41
1.052632
 51
0.000000
  7
STANDARD
  0
TEXT
  8
0
 10
-137.619888
 20
-70.047035
 40
4.500000
  1
ZE155
 50
0.000000
 41
1.052632
 51
0.000000
  7
STANDARD
  0
TEXT
  8
0
 10
-137.619888
 20
-76.047035
 40
4.500000
  1
ZE101
 50
0.000000
 41
1.052632
 51
0.000000
  7
STANDARD
  0
TEXT
  8
0
 10
-36.619881
 20
-56.697033
 40
4.500000
  1
SENSOR
 50
0.000000
 41
1.052632
 51
0.000000
  7
STANDARD
  0
TEXT
  8
0
 10
-36.619884
 20
-63.447037
 40
4.500000
  1
 SWITCH:ZE235
 50
0.000000
 41
1.052632
 51
0.000000
  7
STANDARD
  0
TEXT
  8
0
 10
-0.619880
 20
-70.047035
 40
4.500000
  1
ZE255
 50
0.000000
 41
1.052632
 51
0.000000
  7
STANDARD
  0
TEXT
  8
0
 10
-0.619880
 20
-76.047035
 40
4.500000
  1
ZE201
 50
0.000000
 41
1.052632
 51
0.000000
  7
STANDARD
  0
TEXT
  8
0
 10
-0.619880
 20
-82.047035
 40
4.500000
  1
ZE202
 50
0.000000
 41
1.052632
 51
0.000000
  7
STANDARD
  0
ENDSEC
  0
EOF
