  0
SECTION
  2
HEADER
  0
ENDSEC
  0
SECTION
  2
TABLES
  0
TABLE
  2
LTYPE
 70
     4
  0
LTYPE
  2
CONTINUOUS
 70
    64
  3
Solid line
 72
    65
 73
     0
 40
0.000000
  0
LTYPE
  2
DASHED
 70
    64
  3
__ __ __ __ __ __ __ __ __ __ __ __ __ __ __
 72
    65
 73
     2
 40
3.500000
 49
2.000000
 49
-1.500000
  0
LTYPE
  2
CENTER
 70
    64
  3
____ _ ____ _ ____ _ ____ _ ____ _ ____ _ ____
 72
    65
 73
     4
 40
17.500000
 49
13.000000
 49
-1.500000
 49
1.500000
 49
-1.500000
  0
LTYPE
  2
PHANTOM
 70
    64
  3
_____ _ _ _____ _ _ _____ _ _ _____ _ _ ____  
 72
    65
 73
     6
 40
15.500000
 49
8.000000
 49
-1.500000
 49
1.500000
 49
-1.500000
 49
1.500000
 49
-1.500000
  0
LTYPE
  2
DASHED1
 70
    64
  3
__ __ __ __ __ __ __ __ __ __ __ __ __ __ __
 72
    65
 73
     2
 40
1.500000
 49
1.000000
 49
-0.500000
  0
LTYPE
  2
DASHED2
 70
    64
  3
__ __ __ __ __ __ __ __ __ __ __ __ __ __ __
 72
    65
 73
     2
 40
3.500000
 49
2.500000
 49
-1.000000
  0
LTYPE
  2
DASHED3
 70
    64
  3
__ __ __ __ __ __ __ __ __ __ __ __ __ __ __
 72
    65
 73
     2
 40
6.000000
 49
4.000000
 49
-2.000000
  0
LTYPE
  2
DASHED4
 70
    64
  3
__ __ __ __ __ __ __ __ __ __ __ __ __ __ __
 72
    65
 73
     2
 40
12.000000
 49
10.000000
 49
-2.000000
  0
LTYPE
  2
DASHED5
 70
    64
  3
__ __ __ __ __ __ __ __ __ __ __ __ __ __ __
 72
    65
 73
     2
 40
17.000000
 49
15.000000
 49
-2.000000
  0
LTYPE
  2
DASHED6
 70
    64
  3
__ __ __ __ __ __ __ __ __ __ __ __ __ __ __
 72
    65
 73
     2
 40
29.000000
 49
27.000000
 49
-2.000000
  0
LTYPE
  2
PHANTOM1
 70
    64
  3
_____ _ _ _____ _ _ _____ _ _ _____ _ _ ____  
 72
    65
 73
     6
 40
31.000000
 49
25.000000
 49
-1.500000
 49
1.000000
 49
-1.000000
 49
1.000000
 49
-1.500000
  0
LTYPE
  2
PHANTOM2
 70
    64
  3
_____ _ _ _____ _ _ _____ _ _ _____ _ _ ____  
 72
    65
 73
     6
 40
36.000000
 49
27.000000
 49
-1.500000
 49
2.500000
 49
-1.000000
 49
2.500000
 49
-1.500000
  0
LTYPE
  2
PHANTOM3
 70
    64
  3
_____ _ _ _____ _ _ _____ _ _ _____ _ _ ____  
 72
    65
 73
     6
 40
78.000000
 49
64.000000
 49
-2.000000
 49
4.000000
 49
-2.000000
 49
4.000000
 49
-2.000000
  0
LTYPE
  2
CENTER1
 70
    64
  3
____ _ ____ _ ____ _ ____ _ ____ _ ____ _ ____
 72
    65
 73
     4
 40
19.000000
 49
14.000000
 49
-1.000000
 49
3.000000
 49
-1.000000
  0
LTYPE
  2
CENTER2
 70
    64
  3
____ _ ____ _ ____ _ ____ _ ____ _ ____ _ ____
 72
    65
 73
     4
 40
28.500000
 49
25.000000
 49
-1.000000
 49
1.500000
 49
-1.000000
  0
LTYPE
  2
CENTER3
 70
    64
  3
____ _ ____ _ ____ _ ____ _ ____ _ ____ _ ____
 72
    65
 73
     4
 40
31.500000
 49
27.000000
 49
-1.000000
 49
2.500000
 49
-1.000000
  0
LTYPE
  2
CENTER4
 70
    64
  3
____ _ ____ _ ____ _ ____ _ ____ _ ____ _ ____
 72
    65
 73
     4
 40
50.000000
 49
45.000000
 49
-1.000000
 49
3.000000
 49
-1.000000
  0
LTYPE
  2
CENTER5
 70
    64
  3
____ _ ____ _ ____ _ ____ _ ____ _ ____ _ ____
 72
    65
 73
     4
 40
100.000000
 49
92.000000
 49
-2.000000
 49
4.000000
 49
-2.000000
  0
LTYPE
  2
SBK1
 70
    64
  3
______ _ _ _ ______ _ _ _ ______ _ _ _ _____  
 72
    65
 73
     8
 40
60.500000
 49
45.000000
 49
-2.000000
 49
2.500000
 49
-2.000000
 49
2.500000
 49
-2.000000
 49
2.500000
 49
-2.000000
  0
LTYPE
  2
SBK2
 70
    64
  3
______ _ _ _ ______ _ _ _ ______ _ _ _ _____  
 72
    65
 73
     8
 40
84.000000
 49
64.000000
 49
-2.000000
 49
4.000000
 49
-2.000000
 49
4.000000
 49
-2.000000
 49
4.000000
 49
-2.000000
  0
LTYPE
  2
STCH
 70
    64
  3
__ __ __ __ __ __ __ __ __ __ __ __ __ __ __
 72
    65
 73
     2
 40
3.000000
 49
1.000000
 49
-2.000000
  0
LTYPE
  2
MTCH
 70
    64
  3
_____ _ _ _____ _ _ _____ _ _ _____ _ _ ____  
 72
    65
 73
     6
 40
80.000000
 49
66.000000
 49
-2.000000
 49
4.000000
 49
-2.000000
 49
4.000000
 49
-2.000000
  0
ENDTAB
  0
TABLE
  2
LAYER
 70
     1
  0
LAYER
  2
0
 70
     0
 62
     7
  6
CONTINUOUS
  0
ENDTAB
  0
TABLE
  2
STYLE
 70
     1
  0
STYLE
  2
STANDARD
 70
     0
 40
0.000000
 41
1.000000
 50
0.000000
 71
     0
 42
0.200000
  3
txt
  4
BIGFONT
  0
ENDTAB
  0
TABLE
  2
VIEW
 70
     0
  0
ENDTAB
  0
ENDSEC
  0
SECTION
  2
BLOCKS
  0
ENDSEC
  0
SECTION
  2
ENTITIES
  0
LINE
  8
0
 10
118.527802
 20
118.298965
 11
194.800003
 21
118.298965
  0
LINE
  8
0
 10
118.527802
 20
132.600006
 11
118.527802
 21
118.298965
  0
LINE
  8
0
 10
-117.977806
 20
118.298965
 11
-117.977806
 21
132.600006
  0
LINE
  8
0
 10
-194.250000
 20
118.298965
 11
-117.977806
 21
118.298965
  0
LINE
  8
0
 10
-194.250000
 20
132.600006
 11
194.800003
 21
132.600006
  0
LINE
  8
0
 10
194.800003
 20
132.600006
 11
194.800003
 21
-133.500000
  0
LINE
  8
0
 10
-194.250000
 20
132.600006
 11
-194.250000
 21
-133.500000
  0
LINE
  8
0
 10
-194.250000
 20
-133.500000
 11
194.800003
 21
-133.500000
  0
LINE
  8
0
 10
118.527802
 20
-119.198959
 11
194.800003
 21
-119.198959
  0
LINE
  8
0
 10
210.000000
 20
148.500000
 11
210.000000
 21
-148.500000
  0
LINE
  8
0
 10
-210.000000
 20
148.500000
 11
-210.000000
 21
-148.500000
  0
LINE
  8
0
 10
-210.000000
 20
148.500000
 11
210.000000
 21
148.500000
  0
LINE
  8
0
 10
-210.000000
 20
-148.500000
 11
210.000000
 21
-148.500000
  0
LINE
  8
0
 10
118.527802
 20
-119.198959
 11
118.527802
 21
-133.500000
  0
LINE
  8
0
 10
-184.250000
 20
-63.500000
 11
-184.250000
 21
-123.500000
  0
LINE
  8
0
 10
-169.250000
 20
-63.500000
 11
-169.250000
 21
-123.500000
  0
LINE
  8
0
 10
-154.250000
 20
-63.500000
 11
-154.250000
 21
-123.500000
  0
LINE
  8
0
 10
-139.250000
 20
-63.500000
 11
-139.250000
 21
-123.500000
  0
LINE
  8
0
 10
-124.250000
 20
-63.500000
 11
-124.250000
 21
-123.500000
  0
LINE
  8
0
 10
-184.250000
 20
-123.500000
 11
-124.250000
 21
-123.500000
  0
LINE
  8
0
 10
-184.250000
 20
-113.500000
 11
-124.250000
 21
-113.500000
  0
LINE
  8
0
 10
-184.250000
 20
-103.500000
 11
-124.250000
 21
-103.500000
  0
LINE
  8
0
 10
-184.250000
 20
-93.500000
 11
-124.250000
 21
-93.500000
  0
LINE
  8
0
 10
-184.250000
 20
-83.500000
 11
-124.250000
 21
-83.500000
  0
LINE
  8
0
 10
-184.250000
 20
-73.500000
 11
-124.250000
 21
-73.500000
  0
LINE
  8
0
 10
-184.250000
 20
-63.500000
 11
-124.250000
 21
-63.500000
  0
TEXT
  8
0
 10
122.724205
 20
122.631119
 40
4.242641
  1
DATE : MAR ,1987
 50
0.000000
 41
1.052631
 51
0.000000
  7
STANDARD
  0
TEXT
  8
0
 10
-186.578186
 20
121.949493
 40
5.000000
  1
TWIN ROD CYL
 50
0.000000
 41
1.052632
 51
0.000000
  7
STANDARD
  0
TEXT
  8
0
 10
-182.571259
 20
-61.099998
 40
4.000000
  1
DIMENSION LIST
 50
0.000000
 41
1.052632
 51
0.000000
  7
STANDARD
  0
TEXT
  8
0
 10
-164.071243
 20
-71.099998
 40
4.000000
  1
L
 50
0.000000
 41
1.052632
 51
0.000000
  7
STANDARD
  0
TEXT
  8
0
 10
-149.071243
 20
-71.099998
 40
4.000000
  1
C
 50
0.000000
 41
1.052632
 51
0.000000
  7
STANDARD
  0
TEXT
  8
0
 10
-134.071243
 20
-71.099998
 40
4.000000
  1
E
 50
0.000000
 41
1.052632
 51
0.000000
  7
STANDARD
  0
TEXT
  8
0
 10
-179.893738
 20
-71.099998
 40
4.000000
  1
ST
 50
0.000000
 41
0.781484
 51
0.000000
  7
STANDARD
  0
TEXT
  8
0
 10
-181.071243
 20
-81.099998
 40
4.000000
  1
10
 50
0.000000
 41
1.052632
 51
0.000000
  7
STANDARD
  0
TEXT
  8
0
 10
-181.071243
 20
-91.099998
 40
4.000000
  1
20
 50
0.000000
 41
1.052632
 51
0.000000
  7
STANDARD
  0
TEXT
  8
0
 10
-181.071243
 20
-101.099998
 40
4.000000
  1
30
 50
0.000000
 41
1.052632
 51
0.000000
  7
STANDARD
  0
TEXT
  8
0
 10
-181.071243
 20
-111.099998
 40
4.000000
  1
40
 50
0.000000
 41
1.052632
 51
0.000000
  7
STANDARD
  0
TEXT
  8
0
 10
-181.071243
 20
-121.099998
 40
4.000000
  1
50
 50
0.000000
 41
1.052632
 51
0.000000
  7
STANDARD
  0
TEXT
  8
0
 10
-166.071243
 20
-81.099998
 40
4.000000
  1
49
 50
0.000000
 41
1.052632
 51
0.000000
  7
STANDARD
  0
TEXT
  8
0
 10
-166.071243
 20
-91.099998
 40
4.000000
  1
59
 50
0.000000
 41
1.052632
 51
0.000000
  7
STANDARD
  0
TEXT
  8
0
 10
-166.071243
 20
-101.099998
 40
4.000000
  1
69
 50
0.000000
 41
1.052632
 51
0.000000
  7
STANDARD
  0
TEXT
  8
0
 10
-166.071243
 20
-111.099998
 40
4.000000
  1
79
 50
0.000000
 41
1.052632
 51
0.000000
  7
STANDARD
  0
TEXT
  8
0
 10
-166.071243
 20
-121.099998
 40
4.000000
  1
89
 50
0.000000
 41
1.052632
 51
0.000000
  7
STANDARD
  0
TEXT
  8
0
 10
-151.071243
 20
-81.099998
 40
4.000000
  1
23
 50
0.000000
 41
1.052632
 51
0.000000
  7
STANDARD
  0
TEXT
  8
0
 10
-151.071243
 20
-91.099998
 40
4.000000
  1
33
 50
0.000000
 41
1.052632
 51
0.000000
  7
STANDARD
  0
TEXT
  8
0
 10
-151.071243
 20
-101.099998
 40
4.000000
  1
43
 50
0.000000
 41
1.052632
 51
0.000000
  7
STANDARD
  0
TEXT
  8
0
 10
-151.071243
 20
-111.099998
 40
4.000000
  1
53
 50
0.000000
 41
1.052632
 51
0.000000
  7
STANDARD
  0
TEXT
  8
0
 10
-151.071243
 20
-121.099998
 40
4.000000
  1
63
 50
0.000000
 41
1.052632
 51
0.000000
  7
STANDARD
  0
TEXT
  8
0
 10
-136.071243
 20
-81.099998
 40
4.000000
  1
20
 50
0.000000
 41
1.052632
 51
0.000000
  7
STANDARD
  0
TEXT
  8
0
 10
-136.071243
 20
-91.099998
 40
4.000000
  1
30
 50
0.000000
 41
1.052632
 51
0.000000
  7
STANDARD
  0
TEXT
  8
0
 10
-136.071243
 20
-101.099998
 40
4.000000
  1
40
 50
0.000000
 41
1.052632
 51
0.000000
  7
STANDARD
  0
TEXT
  8
0
 10
-136.071243
 20
-111.099998
 40
4.000000
  1
50
 50
0.000000
 41
1.052632
 51
0.000000
  7
STANDARD
  0
TEXT
  8
0
 10
-136.071243
 20
-121.099998
 40
4.000000
  1
60
 50
0.000000
 41
1.052632
 51
0.000000
  7
STANDARD
  0
TEXT
  8
0
 10
-181.313080
 20
97.868843
 40
4.000000
  1
MODEL: TDA 6*ST(30)
 50
0.000000
 41
1.052632
 51
0.000000
  7
STANDARD
  0
TEXT
  8
0
 10
123.699844
 20
-129.849472
 40
5.000000
  1
KOGANEI CORP.
 50
0.000000
 41
1.052632
 51
0.000000
  7
STANDARD
  0
POINT
  8
0
 10
-5.000000
 20
40.000000
  0
POINT
  8
0
 10
64.000015
 20
40.000000
  0
LINE
  8
0
 10
60.250015
 20
58.800018
 11
60.250015
 21
55.000015
  0
LINE
  8
0
 10
52.750015
 20
58.800018
 11
52.750015
 21
55.000015
  0
LINE
  8
0
 10
28.750000
 20
37.699997
 11
28.750000
 21
48.899994
  0
LINE
  8
0
 10
21.250000
 20
37.699997
 11
21.250000
 21
48.899994
  0
LINE
  8
0
 10
23.727396
 20
40.851692
 11
24.151653
 21
40.427437
  0
LINE
  8
0
 10
25.848806
 20
42.973076
 11
26.273075
 21
42.548805
  0
LINE
  8
0
 10
23.727430
 20
42.548752
 11
24.151697
 21
42.124485
  0
LINE
  8
0
 10
24.151709
 20
42.973038
 11
24.575966
 21
42.548779
  0
LINE
  8
0
 10
23.727316
 20
42.548424
 11
24.151575
 21
42.972679
  0
LINE
  8
0
 10
25.848408
 20
40.427299
 11
26.272676
 21
40.851566
  0
LINE
  8
0
 10
23.727308
 20
40.851379
 11
24.151577
 21
41.275646
  0
LINE
  8
0
 10
24.151598
 20
40.427109
 11
24.575857
 21
40.851368
  0
LINE
  8
0
 10
25.424486
 20
40.851696
 11
25.848743
 21
40.427437
  0
LINE
  8
0
 10
25.848766
 20
41.275982
 11
26.273024
 21
40.851723
  0
LINE
  8
0
 10
25.424360
 20
42.548431
 11
25.848618
 21
42.972687
  0
LINE
  8
0
 10
25.848505
 20
42.124298
 11
26.272772
 21
42.548569
  0
LINE
  8
0
 10
21.250000
 20
37.699997
 11
28.750000
 21
37.699997
  0
LINE
  8
0
 10
22.000000
 20
39.000000
 11
23.500000
 21
39.000000
  0
LINE
  8
0
 10
22.000000
 20
47.699997
 11
28.000000
 21
47.699997
  0
LINE
  8
0
 10
23.500000
 20
38.500000
 11
26.500000
 21
38.500000
  0
LINE
  8
0
 10
23.500000
 20
38.500000
 11
23.500000
 21
39.000000
  0
LINE
  8
0
 10
26.500000
 20
38.500000
 11
26.500000
 21
39.000000
  0
LINE
  8
0
 10
22.000000
 20
39.000000
 11
22.000000
 21
47.699997
  0
LINE
  8
0
 10
28.000000
 20
39.000000
 11
28.000000
 21
47.699997
  0
LINE
  8
0
 10
16.000000
 20
45.699997
 11
52.000000
 21
45.699997
  0
LINE
  8
0
 10
49.500000
 20
56.000015
 11
52.750015
 21
56.000015
  0
LINE
  8
0
 10
48.000015
 20
55.133987
 11
48.000015
 21
52.865906
  0
LINE
  8
0
 10
49.499958
 20
56.000038
 11
47.999943
 21
55.134003
  0
LINE
  8
0
 10
49.500015
 20
56.000015
 11
49.500015
 21
51.999985
  0
LINE
  8
0
 10
-45.000000
 20
55.800018
 11
-45.000000
 21
24.200012
  0
LINE
  8
0
 10
-5.000000
 20
55.300095
 11
-5.000000
 21
24.700027
  0
LINE
  8
0
 10
-0.700012
 20
55.799988
 11
49.153412
 21
55.799988
  0
LINE
  8
0
 10
-1.000000
 20
55.500000
 11
-1.000000
 21
23.800003
  0
LINE
  8
0
 10
-4.799957
 20
24.500000
 11
-1.199982
 21
24.500000
  0
LINE
  8
0
 10
-4.799941
 20
24.500038
 11
-4.999966
 21
24.700047
  0
LINE
  8
0
 10
-1.199938
 20
24.500011
 11
-0.999931
 21
24.700016
  0
LINE
  8
0
 10
-40.000000
 20
55.800018
 11
-40.000000
 21
24.200012
  0
LINE
  8
0
 10
-44.800003
 20
55.999985
 11
-40.200012
 21
55.999985
  0
LINE
  8
0
 10
-44.799957
 20
24.000000
 11
-40.199951
 21
24.000000
  0
LINE
  8
0
 10
-40.199924
 20
23.999979
 11
-39.999916
 21
24.199986
  0
LINE
  8
0
 10
-44.999973
 20
24.199986
 11
-44.799976
 21
23.999990
  0
LINE
  8
0
 10
-39.999958
 20
55.800060
 11
-40.199966
 21
56.000069
  0
LINE
  8
0
 10
-45.000088
 20
55.800140
 11
-44.800095
 21
56.000137
  0
LINE
  8
0
 10
-45.000000
 20
50.500000
 11
-40.000000
 21
50.500000
  0
LINE
  8
0
 10
-44.999969
 20
29.500000
 11
-39.999969
 21
29.500000
  0
LINE
  8
0
 10
-47.000000
 20
32.500000
 11
-3.000000
 21
32.500000
  0
LINE
  8
0
 10
-47.000000
 20
47.500000
 11
-3.000000
 21
47.500000
  0
LINE
  8
0
 10
-42.500000
 20
53.000015
 11
-42.500000
 21
48.000015
  0
LINE
  8
0
 10
-42.500000
 20
32.000015
 11
-42.500000
 21
27.000015
  0
LINE
  8
0
 10
-39.999969
 20
34.500000
 11
-4.999969
 21
34.500000
  0
LINE
  8
0
 10
-39.999969
 20
30.500000
 11
-4.999969
 21
30.500000
  0
LINE
  8
0
 10
-40.000000
 20
49.500000
 11
-5.000000
 21
49.500000
  0
LINE
  8
0
 10
-40.000000
 20
45.500000
 11
-5.000000
 21
45.500000
  0
LINE
  8
0
 10
-10.000000
 20
42.750015
 11
-10.000000
 21
37.250015
  0
LINE
  8
0
 10
-8.000000
 20
43.175446
 11
-8.000000
 21
36.824570
  0
LINE
  8
0
 10
-9.754364
 20
43.175430
 11
-8.000000
 21
43.175430
  0
LINE
  8
0
 10
-9.754364
 20
41.587708
 11
-7.999985
 21
41.587708
  0
LINE
  8
0
 10
-9.754364
 20
38.412277
 11
-7.999985
 21
38.412277
  0
LINE
  8
0
 10
-9.754364
 20
36.824570
 11
-7.999969
 21
36.824570
  0
LINE
  8
0
 10
-9.999909
 20
42.749962
 11
-9.754289
 21
43.175388
  0
LINE
  8
0
 10
-9.999931
 20
37.250038
 11
-9.754311
 21
36.824612
  0
LINE
  8
0
 10
-40.000000
 20
48.468246
 11
-37.500000
 21
48.468246
  0
LINE
  8
0
 10
-39.999985
 20
46.531754
 11
-37.499985
 21
46.531754
  0
LINE
  8
0
 10
-37.500000
 20
48.468262
 11
-37.500000
 21
46.531769
  0
LINE
  8
0
 10
-40.000175
 20
46.532017
 11
-37.500175
 21
48.468510
  0
LINE
  8
0
 10
-37.499989
 20
46.531769
 11
-39.999989
 21
48.468262
  0
LINE
  8
0
 10
-48.000000
 20
40.000000
 11
67.000015
 21
40.000000
  0
LINE
  8
0
 10
-0.700012
 20
23.500000
 11
63.700012
 21
23.500000
  0
LINE
  8
0
 10
-39.999969
 20
31.531754
 11
-37.499969
 21
31.531754
  0
LINE
  8
0
 10
-39.999969
 20
33.468246
 11
-37.499969
 21
33.468246
  0
LINE
  8
0
 10
-37.499855
 20
33.468166
 11
-39.999855
 21
31.531677
  0
LINE
  8
0
 10
-40.000000
 20
33.468246
 11
-37.500000
 21
31.531752
  0
LINE
  8
0
 10
-37.500000
 20
31.531769
 11
-37.500000
 21
33.468262
  0
LINE
  8
0
 10
-4.800003
 20
55.499985
 11
-1.199997
 21
55.499985
  0
LINE
  8
0
 10
-5.000058
 20
55.300106
 11
-4.800061
 21
55.500099
  0
LINE
  8
0
 10
-0.999940
 20
55.300110
 11
-1.199934
 21
55.500107
  0
LINE
  8
0
 10
64.000015
 20
51.999985
 11
64.000015
 21
23.800003
  0
LINE
  8
0
 10
63.700050
 20
23.499966
 11
64.000046
 21
23.799961
  0
LINE
  8
0
 10
-0.999995
 20
55.499989
 11
-0.700001
 21
55.799984
  0
LINE
  8
0
 10
-0.999994
 20
23.800018
 11
-0.699996
 21
23.500017
  0
LINE
  8
0
 10
10.000015
 20
44.000000
 11
10.000015
 21
36.000000
  0
LINE
  8
0
 10
53.000015
 20
44.000000
 11
53.000015
 21
36.000000
  0
LINE
  8
0
 10
-7.154373
 20
43.175446
 11
-5.245605
 21
43.175446
  0
LINE
  8
0
 10
-7.400000
 20
42.750008
 11
-7.154379
 21
43.175434
  0
LINE
  8
0
 10
-7.399994
 20
42.750015
 11
-7.399994
 21
37.250015
  0
LINE
  8
0
 10
-7.154358
 20
41.587738
 11
-5.245605
 21
41.587738
  0
LINE
  8
0
 10
-7.154358
 20
38.412308
 11
-5.245605
 21
38.412308
  0
LINE
  8
0
 10
-7.154373
 20
36.824585
 11
-5.245605
 21
36.824585
  0
LINE
  8
0
 10
-7.399941
 20
37.250019
 11
-7.154321
 21
36.824593
  0
LINE
  8
0
 10
-4.999988
 20
37.250015
 11
-5.245608
 21
36.824589
  0
LINE
  8
0
 10
-5.000006
 20
42.750019
 11
-5.245627
 21
43.175446
  0
LINE
  8
0
 10
-8.000000
 20
38.500000
 11
-7.399994
 21
38.500000
  0
LINE
  8
0
 10
-8.000000
 20
41.500000
 11
-7.399994
 21
41.500000
  0
LINE
  8
0
 10
-8.000000
 20
38.770493
 11
-7.399994
 21
38.770493
  0
LINE
  8
0
 10
-8.000000
 20
41.229492
 11
-7.399994
 21
41.229492
  0
LINE
  8
0
 10
25.000000
 20
50.500000
 11
25.000000
 21
35.699997
  0
LINE
  8
0
 10
60.000015
 20
44.699997
 11
60.000015
 21
38.699997
  0
LINE
  8
0
 10
20.195480
 20
41.699997
 11
29.738373
 21
41.699997
  0
LINE
  8
0
 10
56.500015
 20
60.337662
 11
56.500015
 21
50.510315
  0
LINE
  8
0
 10
-1.000000
 20
43.500000
 11
21.250000
 21
43.500000
  0
LINE
  8
0
 10
-1.000000
 20
48.500000
 11
21.250000
 21
48.500000
  0
LINE
  8
0
 10
28.750000
 20
43.500000
 11
64.000015
 21
43.500000
  0
LINE
  8
0
 10
19.500000
 20
47.699997
 11
21.250000
 21
47.699997
  0
LINE
  8
0
 10
19.500000
 20
43.699997
 11
19.500000
 21
47.699997
  0
LINE
  8
0
 10
19.500038
 20
47.700012
 11
18.000034
 21
46.833984
  0
LINE
  8
0
 10
18.000000
 20
44.566025
 11
18.000000
 21
46.833969
  0
LINE
  8
0
 10
19.500124
 20
43.700249
 11
18.000120
 21
44.566277
  0
LINE
  8
0
 10
19.500000
 20
43.699997
 11
21.250000
 21
43.699997
  0
LINE
  8
0
 10
40.000000
 20
43.699997
 11
40.000000
 21
47.699997
  0
LINE
  8
0
 10
28.750000
 20
47.699997
 11
40.000000
 21
47.699997
  0
LINE
  8
0
 10
28.750000
 20
43.699997
 11
40.000000
 21
43.699997
  0
LINE
  8
0
 10
40.000000
 20
44.199997
 11
50.000000
 21
44.199997
  0
LINE
  8
0
 10
40.000000
 20
47.199997
 11
50.000000
 21
47.199997
  0
LINE
  8
0
 10
52.750015
 20
55.000015
 11
60.250015
 21
55.000015
  0
LINE
  8
0
 10
42.257462
 20
41.699997
 11
47.983185
 21
41.699997
  0
LINE
  8
0
 10
57.094650
 20
41.699997
 11
62.979431
 21
41.699997
  0
LINE
  8
0
 10
21.250000
 20
48.899994
 11
28.750000
 21
48.899994
  0
LINE
  8
0
 10
28.750000
 20
48.500000
 11
64.000015
 21
48.500000
  0
LINE
  8
0
 10
49.500023
 20
52.000050
 11
48.000023
 21
52.866077
  0
LINE
  8
0
 10
45.000015
 20
44.712189
 11
45.000015
 21
38.699997
  0
LINE
  8
0
 10
70.000000
 20
55.500015
 11
80.000000
 21
55.500015
  0
LINE
  8
0
 10
70.000015
 20
56.000015
 11
70.000015
 21
51.999985
  0
LINE
  8
0
 10
-1.000000
 20
51.999985
 11
70.000015
 21
51.999985
  0
LINE
  8
0
 10
70.000000
 20
52.499985
 11
80.000015
 21
52.499985
  0
LINE
  8
0
 10
60.250015
 20
56.000015
 11
70.000015
 21
56.000015
  0
LINE
  8
0
 10
26.500000
 20
39.000000
 11
28.000000
 21
39.000000
  0
LINE
  8
0
 10
52.750015
 20
58.800018
 11
60.250015
 21
58.800018
  0
ARC
  8
0
 10
56.500015
 20
55.000031
 40
4.000002
 50
71.804832
 51
108.195114
  0
ARC
  8
0
 10
25.000000
 20
42.972794
 40
0.600000
 50
224.999878
 51
315.000000
  0
CIRCLE
  8
0
 10
25.000000
 20
41.699997
 40
2.250000
  0
ARC
  8
0
 10
25.000000
 20
40.427200
 40
0.600000
 50
44.999870
 51
135.000000
  0
ARC
  8
0
 10
23.727219
 20
41.699997
 40
0.599998
 50
315.000000
 51
44.999870
  0
ARC
  8
0
 10
26.272781
 20
41.699997
 40
0.599998
 50
135.000000
 51
224.999878
  0
ARC
  8
0
 10
-10.254364
 20
40.000015
 40
5.254376
 50
342.412018
 51
17.587904
  0
ARC
  8
0
 10
-6.405685
 20
42.381592
 40
1.405701
 50
325.615662
 51
25.615721
  0
CIRCLE
  8
0
 10
-42.500000
 20
50.500015
 40
1.500000
  0
CIRCLE
  8
0
 10
-42.499969
 20
29.500015
 40
1.500000
  0
CIRCLE
  8
0
 10
-42.500000
 20
50.500015
 40
1.200000
  0
CIRCLE
  8
0
 10
-42.499969
 20
29.500015
 40
1.200000
  0
ARC
  8
0
 10
-4.745605
 20
40.000015
 40
5.254379
 50
162.412018
 51
197.587891
  0
ARC
  8
0
 10
-8.594284
 20
42.381577
 40
1.405702
 50
154.384140
 51
214.384140
  0
ARC
  8
0
 10
-8.594284
 20
37.618439
 40
1.405702
 50
145.615692
 51
205.615677
  0
CIRCLE
  8
0
 10
10.000015
 20
40.000000
 40
3.000000
  0
CIRCLE
  8
0
 10
53.000015
 20
40.000000
 40
3.000000
  0
ARC
  8
0
 10
-5.994278
 20
42.381592
 40
1.405702
 50
154.384125
 51
214.384186
  0
ARC
  8
0
 10
-2.145599
 20
40.000015
 40
5.254375
 50
162.412003
 51
197.587906
  0
ARC
  8
0
 10
-5.994278
 20
37.618454
 40
1.405701
 50
145.615646
 51
205.615707
  0
ARC
  8
0
 10
-6.405685
 20
37.618454
 40
1.405702
 50
334.384125
 51
34.384174
  0
CIRCLE
  8
0
 10
60.000015
 20
41.699997
 40
1.299999
  0
CIRCLE
  8
0
 10
60.000015
 20
41.699997
 40
1.056499
  0
CIRCLE
  8
0
 10
45.000015
 20
41.699997
 40
1.299999
  0
CIRCLE
  8
0
 10
45.000015
 20
41.699997
 40
1.056499
  0
CIRCLE
  8
0
 10
10.000015
 20
40.000000
 40
1.700000
  0
CIRCLE
  8
0
 10
53.000015
 20
40.000000
 40
1.700000
  0
ARC
  8
0
 10
49.687500
 20
46.449997
 40
0.812500
 50
292.619873
 51
67.380135
  0
ARC
  8
0
 10
49.687500
 20
44.949997
 40
0.812500
 50
292.619873
 51
67.380135
  0
ARC
  8
0
 10
50.312500
 20
44.949997
 40
0.812500
 50
112.619865
 51
247.380142
  0
ARC
  8
0
 10
80.312531
 20
54.750000
 40
0.812516
 50
112.620544
 51
247.379456
  0
ARC
  8
0
 10
79.687500
 20
53.249985
 40
0.812506
 50
292.620270
 51
67.379745
  0
ARC
  8
0
 10
79.687500
 20
54.750000
 40
0.812516
 50
292.620544
 51
67.379456
  0
POINT
  8
0
 10
-5.000000
 20
-65.000000
  0
POINT
  8
0
 10
64.000000
 20
-65.000000
  0
LINE
  8
0
 10
69.999985
 20
-59.550003
 11
80.000000
 21
-59.550003
  0
LINE
  8
0
 10
70.000000
 20
-59.049988
 11
70.000000
 21
-63.050018
  0
LINE
  8
0
 10
64.000000
 20
-63.050018
 11
70.000000
 21
-63.050018
  0
LINE
  8
0
 10
40.000000
 20
-56.099976
 11
50.000000
 21
-56.099976
  0
LINE
  8
0
 10
-48.000000
 20
-65.000000
 11
67.000000
 21
-65.000000
  0
LINE
  8
0
 10
-0.700012
 20
-58.000000
 11
63.699997
 21
-58.000000
  0
LINE
  8
0
 10
-0.700012
 20
-72.000000
 11
63.699997
 21
-72.000000
  0
LINE
  8
0
 10
-1.000000
 20
-58.299988
 11
-1.000000
 21
-71.699997
  0
LINE
  8
0
 10
64.000000
 20
-58.299988
 11
64.000000
 21
-71.699997
  0
LINE
  8
0
 10
-5.000000
 20
-58.699997
 11
-5.000000
 21
-71.300003
  0
LINE
  8
0
 10
-45.000000
 20
-58.699997
 11
-45.000000
 21
-71.300003
  0
LINE
  8
0
 10
-40.000000
 20
-58.699997
 11
-40.000000
 21
-63.250000
  0
LINE
  8
0
 10
56.500000
 20
-60.500000
 11
56.500000
 21
-69.500000
  0
LINE
  8
0
 10
13.500000
 20
-60.500000
 11
13.500000
 21
-69.500000
  0
LINE
  8
0
 10
-44.800003
 20
-58.500000
 11
-40.199997
 21
-58.500000
  0
LINE
  8
0
 10
-44.800003
 20
-71.500000
 11
-40.199997
 21
-71.500000
  0
LINE
  8
0
 10
-4.800003
 20
-71.500000
 11
-1.200012
 21
-71.500000
  0
LINE
  8
0
 10
-4.800003
 20
-58.500000
 11
-1.199997
 21
-58.500000
  0
LINE
  8
0
 10
-45.000000
 20
-58.699989
 11
-44.799992
 21
-58.499985
  0
LINE
  8
0
 10
-44.999977
 20
-71.299957
 11
-44.799980
 21
-71.499954
  0
LINE
  8
0
 10
-40.000000
 20
-58.699982
 11
-40.199997
 21
-58.499985
  0
LINE
  8
0
 10
-40.000000
 20
-71.300011
 11
-40.199997
 21
-71.500000
  0
LINE
  8
0
 10
-4.800006
 20
-58.499985
 11
-5.000007
 21
-58.699989
  0
LINE
  8
0
 10
-5.000009
 20
-71.299988
 11
-4.800002
 21
-71.499992
  0
LINE
  8
0
 10
-1.200017
 20
-58.500004
 11
-1.000023
 21
-58.700001
  0
LINE
  8
0
 10
-1.000006
 20
-71.299980
 11
-1.200008
 21
-71.499977
  0
LINE
  8
0
 10
-37.250000
 20
-67.000000
 11
-5.000000
 21
-67.000000
  0
LINE
  8
0
 10
-37.250000
 20
-63.000000
 11
-5.000000
 21
-63.000000
  0
LINE
  8
0
 10
-40.500000
 20
-66.750000
 11
-37.500000
 21
-66.750000
  0
LINE
  8
0
 10
-40.500000
 20
-63.250000
 11
-37.500000
 21
-63.250000
  0
LINE
  8
0
 10
-37.499989
 20
-63.250004
 11
-37.249989
 21
-63.000004
  0
LINE
  8
0
 10
-37.500046
 20
-66.750023
 11
-37.250038
 21
-67.000031
  0
LINE
  8
0
 10
-40.500000
 20
-63.250000
 11
-40.500000
 21
-66.750000
  0
LINE
  8
0
 10
-40.000000
 20
-66.750000
 11
-40.000000
 21
-71.300003
  0
LINE
  8
0
 10
-9.754379
 20
-68.000000
 11
-8.000000
 21
-68.000000
  0
LINE
  8
0
 10
-8.000000
 20
-67.000000
 11
-8.000000
 21
-69.500000
  0
LINE
  8
0
 10
-8.000000
 20
-69.500000
 11
-7.400009
 21
-69.500000
  0
LINE
  8
0
 10
-8.000000
 20
-69.229492
 11
-7.400009
 21
-69.229492
  0
LINE
  8
0
 10
-10.000000
 20
-70.750000
 11
-8.000000
 21
-70.750000
  0
LINE
  8
0
 10
-8.000000
 20
-67.000000
 11
-8.000000
 21
-70.750000
  0
LINE
  8
0
 10
-10.000000
 20
-67.000000
 11
-10.000000
 21
-70.750000
  0
LINE
  8
0
 10
-7.154388
 20
-68.000000
 11
-5.245621
 21
-68.000000
  0
LINE
  8
0
 10
-7.400009
 20
-67.000000
 11
-7.400009
 21
-70.750000
  0
LINE
  8
0
 10
-7.400009
 20
-70.750000
 11
-5.000000
 21
-70.750000
  0
LINE
  8
0
 10
-12.000000
 20
-68.000000
 11
-3.000000
 21
-68.000000
  0
LINE
  8
0
 10
25.000000
 20
-50.500000
 11
25.000000
 21
-60.100021
  0
LINE
  8
0
 10
21.250000
 20
-54.199997
 11
28.750000
 21
-54.199997
  0
LINE
  8
0
 10
27.249985
 20
-53.488220
 11
27.249985
 21
-54.199997
  0
LINE
  8
0
 10
22.750000
 20
-53.488220
 11
22.750000
 21
-54.199997
  0
LINE
  8
0
 10
28.750000
 20
-54.199997
 11
28.750000
 21
-58.000000
  0
LINE
  8
0
 10
19.500031
 20
-55.599995
 11
18.000025
 21
-56.466022
  0
LINE
  8
0
 10
18.000000
 20
-58.000000
 11
18.000000
 21
-56.466003
  0
LINE
  8
0
 10
19.500000
 20
-58.000000
 11
19.500000
 21
-55.599976
  0
LINE
  8
0
 10
19.500000
 20
-55.599976
 11
21.250000
 21
-55.599976
  0
LINE
  8
0
 10
28.750000
 20
-55.599976
 11
40.000000
 21
-55.599976
  0
LINE
  8
0
 10
40.000000
 20
-58.000000
 11
40.000000
 21
-55.599976
  0
LINE
  8
0
 10
63.699989
 20
-58.000015
 11
63.999985
 21
-58.300007
  0
LINE
  8
0
 10
64.000031
 20
-71.700035
 11
63.700020
 21
-72.000038
  0
LINE
  8
0
 10
-0.700003
 20
-57.999992
 11
-1.000008
 21
-58.299995
  0
LINE
  8
0
 10
-1.000021
 20
-71.699997
 11
-0.700018
 21
-72.000000
  0
LINE
  8
0
 10
21.250000
 20
-54.199997
 11
21.250000
 21
-58.000000
  0
LINE
  8
0
 10
69.999985
 20
-62.550034
 11
80.000000
 21
-62.550034
  0
LINE
  8
0
 10
64.000000
 20
-59.050003
 11
70.000000
 21
-59.050003
  0
ARC
  8
0
 10
49.687500
 20
-58.349976
 40
0.812499
 50
25.514511
 51
67.380135
  0
ARC
  8
0
 10
50.312500
 20
-58.349976
 40
0.812500
 50
112.619865
 51
154.485489
  0
ARC
  8
0
 10
49.687500
 20
-56.849976
 40
0.812500
 50
292.619873
 51
67.380135
  0
CIRCLE
  8
0
 10
13.500000
 20
-65.000000
 40
2.500000
  0
CIRCLE
  8
0
 10
56.500000
 20
-65.000000
 40
2.500000
  0
CIRCLE
  8
0
 10
13.500000
 20
-65.000000
 40
2.066999
  0
CIRCLE
  8
0
 10
56.500000
 20
-65.000000
 40
2.066999
  0
ARC
  8
0
 10
-6.028519
 20
-69.375000
 40
3.971487
 50
159.743835
 51
200.256042
  0
ARC
  8
0
 10
-6.028519
 20
-66.625000
 40
3.971487
 50
185.418121
 51
200.256149
  0
ARC
  8
0
 10
-3.428528
 20
-66.625000
 40
3.971485
 50
185.418121
 51
200.256180
  0
ARC
  8
0
 10
-3.428513
 20
-69.375000
 40
3.971486
 50
159.743713
 51
200.256058
  0
ARC
  8
0
 10
-8.971497
 20
-69.375000
 40
3.971485
 50
339.743835
 51
20.256163
  0
ARC
  8
0
 10
-8.971497
 20
-66.625000
 40
3.971485
 50
339.743835
 51
354.581879
  0
ARC
  8
0
 10
26.716660
 20
-53.488220
 40
0.533333
 50
0.000000
 51
60.317589
  0
ARC
  8
0
 10
23.283325
 20
-53.488220
 40
0.533334
 50
119.682411
 51
180.000000
  0
ARC
  8
0
 10
25.000000
 20
-56.500000
 40
4.000002
 50
60.317574
 51
119.682381
  0
CIRCLE
  8
0
 10
13.500000
 20
-65.000000
 40
0.400000
  0
CIRCLE
  8
0
 10
56.500000
 20
-65.000000
 40
0.400000
  0
ARC
  8
0
 10
80.312500
 20
-60.300018
 40
0.812516
 50
112.620544
 51
247.379456
  0
ARC
  8
0
 10
79.687485
 20
-61.800034
 40
0.812506
 50
292.620270
 51
67.379745
  0
ARC
  8
0
 10
79.687469
 20
-60.300018
 40
0.812516
 50
292.620544
 51
67.379456
  0
POINT
  8
0
 10
-132.000000
 20
40.000000
  0
POINT
  8
0
 10
-118.000000
 20
40.000000
  0
LINE
  8
0
 10
-131.700012
 20
23.500000
 11
-118.300003
 21
23.500000
  0
LINE
  8
0
 10
-134.500000
 20
40.000000
 11
-110.399979
 21
40.000000
  0
LINE
  8
0
 10
-118.500000
 20
55.800003
 11
-118.500000
 21
24.199997
  0
LINE
  8
0
 10
-131.500000
 20
55.800003
 11
-131.500000
 21
24.199997
  0
LINE
  8
0
 10
-129.800003
 20
47.500000
 11
-120.199997
 21
47.500000
  0
LINE
  8
0
 10
-129.800003
 20
32.500000
 11
-120.199997
 21
32.500000
  0
LINE
  8
0
 10
-128.500000
 20
26.500000
 11
-121.500000
 21
26.500000
  0
LINE
  8
0
 10
-128.500000
 20
53.500000
 11
-121.500000
 21
53.500000
  0
LINE
  8
0
 10
-131.300003
 20
24.000000
 11
-118.699997
 21
24.000000
  0
LINE
  8
0
 10
-131.299988
 20
56.000000
 11
-118.699997
 21
56.000000
  0
LINE
  8
0
 10
-125.000000
 20
62.199997
 11
-125.000000
 21
20.500000
  0
LINE
  8
0
 10
-118.700165
 20
24.000154
 11
-118.500160
 21
24.200163
  0
LINE
  8
0
 10
-131.300125
 20
23.999924
 11
-131.500122
 21
24.199921
  0
LINE
  8
0
 10
-131.500214
 20
55.800228
 11
-131.300201
 21
56.000233
  0
LINE
  8
0
 10
-118.500053
 20
55.799946
 11
-118.700043
 21
55.999943
  0
LINE
  8
0
 10
-132.000000
 20
52.000000
 11
-132.000000
 21
48.500000
  0
LINE
  8
0
 10
-118.000000
 20
52.000000
 11
-118.000000
 21
48.500000
  0
LINE
  8
0
 10
-132.000000
 20
52.000000
 11
-131.500000
 21
52.000000
  0
LINE
  8
0
 10
-118.500000
 20
52.000000
 11
-118.000000
 21
52.000000
  0
LINE
  8
0
 10
-123.940002
 20
33.038010
 11
-123.940002
 21
31.961990
  0
LINE
  8
0
 10
-126.059998
 20
33.038010
 11
-126.059998
 21
31.961990
  0
LINE
  8
0
 10
-125.000053
 20
31.350132
 11
-123.940041
 21
31.962132
  0
LINE
  8
0
 10
-126.060005
 20
33.038166
 11
-125.000015
 21
33.650150
  0
LINE
  8
0
 10
-125.000008
 20
33.649940
 11
-123.939995
 21
33.037941
  0
LINE
  8
0
 10
-126.060028
 20
31.961952
 11
-125.000038
 21
31.349968
  0
LINE
  8
0
 10
-126.059967
 20
46.961937
 11
-124.999992
 21
46.349960
  0
LINE
  8
0
 10
-126.059998
 20
48.038010
 11
-126.059998
 21
46.961990
  0
LINE
  8
0
 10
-126.060043
 20
48.038212
 11
-125.000053
 21
48.650196
  0
LINE
  8
0
 10
-125.000015
 20
48.649963
 11
-123.940002
 21
48.037964
  0
LINE
  8
0
 10
-123.940002
 20
48.038010
 11
-123.940002
 21
46.961990
  0
LINE
  8
0
 10
-125.000053
 20
46.350227
 11
-123.940056
 21
46.962219
  0
LINE
  8
0
 10
-131.500000
 20
48.500000
 11
-132.000000
 21
48.500000
  0
LINE
  8
0
 10
-132.000000
 20
43.500000
 11
-132.000000
 21
23.799988
  0
LINE
  8
0
 10
-118.000000
 20
43.500000
 11
-118.000000
 21
23.799988
  0
LINE
  8
0
 10
-132.000046
 20
23.799974
 11
-131.700058
 21
23.499973
  0
LINE
  8
0
 10
-118.000053
 20
23.800068
 11
-118.300056
 21
23.500065
  0
LINE
  8
0
 10
-132.000000
 20
43.500000
 11
-131.500000
 21
43.500000
  0
LINE
  8
0
 10
-118.500000
 20
43.500000
 11
-118.000000
 21
43.500000
  0
LINE
  8
0
 10
-114.199982
 20
37.300034
 11
-114.199982
 21
48.500015
  0
LINE
  8
0
 10
-118.500000
 20
48.500031
 11
-114.199982
 21
48.500031
  0
LINE
  8
0
 10
-113.488205
 20
43.550018
 11
-114.199982
 21
43.550018
  0
LINE
  8
0
 10
-110.499985
 20
41.300034
 11
-120.699982
 21
41.300034
  0
LINE
  8
0
 10
-113.488205
 20
39.050034
 11
-114.199982
 21
39.050034
  0
LINE
  8
0
 10
-118.000015
 20
37.300034
 11
-114.199982
 21
37.300034
  0
LINE
  8
0
 10
-117.500000
 20
41.300034
 11
-117.500000
 21
43.700027
  0
LINE
  8
0
 10
-117.500000
 20
42.550034
 11
-118.000015
 21
42.550034
  0
LINE
  8
0
 10
-117.500000
 20
42.306534
 11
-118.000015
 21
42.306534
  0
LINE
  8
0
 10
-118.500000
 20
43.700027
 11
-115.600006
 21
43.700027
  0
LINE
  8
0
 10
-115.599991
 20
43.700027
 11
-115.599991
 21
47.700027
  0
LINE
  8
0
 10
-118.500000
 20
47.700027
 11
-115.600006
 21
47.700027
  0
LINE
  8
0
 10
-118.499977
 20
44.799919
 11
-115.599960
 21
47.699944
  0
LINE
  8
0
 10
-115.599945
 20
43.700069
 11
-118.499969
 21
46.600098
  0
LINE
  8
0
 10
-117.500000
 20
41.300034
 11
-118.000000
 21
41.300034
  0
LINE
  8
0
 10
-127.250015
 20
58.011810
 11
-127.250015
 21
57.300018
  0
LINE
  8
0
 10
-122.750015
 20
58.011810
 11
-122.750015
 21
57.300018
  0
LINE
  8
0
 10
-122.200012
 20
57.300018
 11
-127.500015
 21
57.300018
  0
LINE
  8
0
 10
-118.300018
 20
58.800018
 11
-118.300018
 21
55.000015
  0
LINE
  8
0
 10
-118.300018
 20
55.000015
 11
-118.500000
 21
55.000015
  0
LINE
  8
0
 10
-127.500015
 20
57.300018
 11
-127.500015
 21
56.300018
  0
LINE
  8
0
 10
-126.900024
 20
56.300018
 11
-127.500015
 21
56.300018
  0
LINE
  8
0
 10
-126.900024
 20
56.300018
 11
-126.900024
 21
56.000000
  0
LINE
  8
0
 10
-122.200012
 20
58.800018
 11
-122.200012
 21
57.300018
  0
LINE
  8
0
 10
-118.300018
 20
58.800018
 11
-122.200012
 21
58.800018
  0
CIRCLE
  8
0
 10
-125.000000
 20
53.500000
 40
1.500000
  0
CIRCLE
  8
0
 10
-125.000000
 20
26.500000
 40
1.500000
  0
CIRCLE
  8
0
 10
-125.000000
 20
47.500000
 40
3.000000
  0
CIRCLE
  8
0
 10
-125.000000
 20
32.500000
 40
3.000000
  0
CIRCLE
  8
0
 10
-125.000000
 20
32.500000
 40
2.250000
  0
CIRCLE
  8
0
 10
-125.000000
 20
32.500000
 40
1.903595
  0
CIRCLE
  8
0
 10
-125.000000
 20
47.500000
 40
1.903595
  0
CIRCLE
  8
0
 10
-125.000000
 20
47.500000
 40
2.250000
  0
CIRCLE
  8
0
 10
-125.000000
 20
53.500000
 40
1.229500
  0
CIRCLE
  8
0
 10
-125.000000
 20
26.500000
 40
1.229500
  0
ARC
  8
0
 10
-113.488205
 20
43.016693
 40
0.533331
 50
29.682613
 51
90.000000
  0
ARC
  8
0
 10
-116.499985
 20
41.300034
 40
4.000002
 50
330.317566
 51
29.682379
  0
ARC
  8
0
 10
-113.488205
 20
39.583359
 40
0.533333
 50
270.000000
 51
330.317383
  0
ARC
  8
0
 10
-126.716675
 20
58.011810
 40
0.533333
 50
119.682053
 51
180.000000
  0
ARC
  8
0
 10
-125.000015
 20
55.000031
 40
4.000000
 50
60.317619
 51
119.682381
  0
ARC
  8
0
 10
-123.283356
 20
58.011810
 40
0.533333
 50
0.000000
 51
60.317741
  0
POINT
  8
0
 10
160.000015
 20
40.000015
  0
POINT
  8
0
 10
142.000015
 20
40.000015
  0
LINE
  8
0
 10
128.300018
 20
23.500015
 11
141.700012
 21
23.500015
  0
LINE
  8
0
 10
132.861496
 20
30.212532
 11
132.815872
 21
30.163902
  0
LINE
  8
0
 10
142.000015
 20
52.000015
 11
142.000015
 21
48.500031
  0
LINE
  8
0
 10
141.500015
 20
55.800018
 11
141.500015
 21
52.000015
  0
LINE
  8
0
 10
140.400040
 20
43.500015
 11
140.400040
 21
48.500031
  0
LINE
  8
0
 10
140.400024
 20
43.500015
 11
142.000015
 21
43.500015
  0
LINE
  8
0
 10
140.400040
 20
48.500031
 11
142.000015
 21
48.500031
  0
LINE
  8
0
 10
142.000015
 20
43.500015
 11
142.000015
 21
23.800018
  0
LINE
  8
0
 10
133.750015
 20
56.000015
 11
133.750015
 21
55.800018
  0
LINE
  8
0
 10
133.993515
 20
56.000015
 11
133.993515
 21
55.800018
  0
LINE
  8
0
 10
129.000015
 20
56.000015
 11
135.000015
 21
56.000015
  0
LINE
  8
0
 10
137.250015
 20
58.011810
 11
137.250015
 21
57.300018
  0
LINE
  8
0
 10
133.300018
 20
55.800018
 11
136.900024
 21
55.800018
  0
LINE
  8
0
 10
132.750015
 20
58.011810
 11
132.750015
 21
57.300018
  0
LINE
  8
0
 10
128.000015
 20
52.000015
 11
128.000015
 21
48.500031
  0
LINE
  8
0
 10
135.000015
 20
62.200027
 11
135.000015
 21
20.500015
  0
LINE
  8
0
 10
120.399994
 20
40.000015
 11
144.400040
 21
40.000015
  0
LINE
  8
0
 10
133.100021
 20
55.600021
 11
133.100021
 21
52.000015
  0
LINE
  8
0
 10
129.220078
 20
32.500015
 11
140.709167
 21
32.500015
  0
LINE
  8
0
 10
130.040726
 20
47.500015
 11
139.888519
 21
47.500015
  0
LINE
  8
0
 10
128.000015
 20
52.000015
 11
133.100021
 21
52.000015
  0
LINE
  8
0
 10
136.900009
 20
52.000015
 11
142.000015
 21
52.000015
  0
LINE
  8
0
 10
136.900009
 20
55.600021
 11
136.900009
 21
52.000015
  0
LINE
  8
0
 10
133.050018
 20
56.000015
 11
133.050018
 21
52.000015
  0
LINE
  8
0
 10
129.050018
 20
56.000015
 11
129.050018
 21
52.000015
  0
LINE
  8
0
 10
128.500015
 20
55.000015
 11
128.500015
 21
52.000015
  0
LINE
  8
0
 10
128.000015
 20
37.300034
 11
124.199982
 21
37.300034
  0
LINE
  8
0
 10
124.199982
 20
37.300034
 11
124.199982
 21
48.500015
  0
LINE
  8
0
 10
129.600006
 20
43.700027
 11
125.600006
 21
43.700027
  0
LINE
  8
0
 10
129.600006
 20
47.700027
 11
125.600006
 21
47.700027
  0
LINE
  8
0
 10
125.599991
 20
43.700027
 11
125.599991
 21
47.700027
  0
LINE
  8
0
 10
129.199982
 20
48.500015
 11
129.199982
 21
47.700027
  0
LINE
  8
0
 10
129.599991
 20
43.500015
 11
129.599991
 21
48.500031
  0
LINE
  8
0
 10
128.000015
 20
43.500015
 11
128.000015
 21
23.800018
  0
LINE
  8
0
 10
129.600006
 20
43.500015
 11
128.000015
 21
43.500015
  0
LINE
  8
0
 10
129.599991
 20
48.500031
 11
124.199982
 21
48.500031
  0
LINE
  8
0
 10
123.488205
 20
43.550018
 11
124.199982
 21
43.550018
  0
LINE
  8
0
 10
123.488205
 20
39.050034
 11
124.199982
 21
39.050034
  0
LINE
  8
0
 10
128.300018
 20
55.000015
 11
129.000015
 21
55.000015
  0
LINE
  8
0
 10
129.000015
 20
56.000015
 11
129.000015
 21
55.000015
  0
LINE
  8
0
 10
127.500000
 20
42.306534
 11
128.000015
 21
42.306534
  0
LINE
  8
0
 10
131.980362
 20
48.206615
 11
131.105225
 21
48.411449
  0
LINE
  8
0
 10
132.915649
 20
49.721001
 11
132.810898
 21
49.832661
  0
LINE
  8
0
 10
131.980438
 20
46.793324
 11
131.105286
 21
46.588486
  0
LINE
  8
0
 10
132.861496
 20
45.212528
 11
132.815872
 21
45.163898
  0
LINE
  8
0
 10
131.980377
 20
33.206631
 11
131.105240
 21
33.411465
  0
LINE
  8
0
 10
132.915680
 20
34.720966
 11
132.810913
 21
34.832634
  0
LINE
  8
0
 10
131.980438
 20
31.793304
 11
131.105286
 21
31.588467
  0
LINE
  8
0
 10
141.500015
 20
48.500031
 11
141.500015
 21
43.500015
  0
LINE
  8
0
 10
133.300018
 20
55.800041
 11
133.100021
 21
55.600044
  0
LINE
  8
0
 10
136.700104
 20
55.800106
 11
136.900101
 21
55.600101
  0
LINE
  8
0
 10
128.300018
 20
58.800018
 11
128.300018
 21
55.000015
  0
LINE
  8
0
 10
132.200012
 20
57.300018
 11
137.500015
 21
57.300018
  0
LINE
  8
0
 10
137.500015
 20
57.300018
 11
137.500015
 21
56.300018
  0
LINE
  8
0
 10
136.900024
 20
56.300018
 11
137.500015
 21
56.300018
  0
LINE
  8
0
 10
136.900024
 20
56.300018
 11
136.900024
 21
55.800018
  0
LINE
  8
0
 10
135.000015
 20
56.000015
 11
135.000015
 21
55.800018
  0
LINE
  8
0
 10
136.900024
 20
56.000015
 11
141.300018
 21
56.000015
  0
LINE
  8
0
 10
141.299988
 20
55.999989
 11
141.499969
 21
55.799995
  0
LINE
  8
0
 10
127.500000
 20
41.300034
 11
127.500000
 21
43.700027
  0
LINE
  8
0
 10
128.000015
 20
41.300034
 11
127.500000
 21
41.300034
  0
LINE
  8
0
 10
128.500015
 20
43.700027
 11
128.500015
 21
43.500015
  0
LINE
  8
0
 10
120.499985
 20
41.300034
 11
130.699982
 21
41.300034
  0
LINE
  8
0
 10
127.500000
 20
42.550034
 11
128.000015
 21
42.550034
  0
LINE
  8
0
 10
132.200012
 20
58.800018
 11
132.200012
 21
57.300018
  0
LINE
  8
0
 10
128.300018
 20
58.800018
 11
132.200012
 21
58.800018
  0
ARC
  8
0
 10
133.064468
 20
29.930695
 40
0.341044
 50
136.826569
 51
235.978958
  0
ARC
  8
0
 10
134.798920
 20
47.500015
 40
3.441010
 50
235.978424
 51
124.121857
  0
CIRCLE
  8
0
 10
135.000015
 20
32.500015
 40
3.999995
  0
ARC
  8
0
 10
133.059967
 20
35.066315
 40
0.341044
 50
124.122704
 51
223.173431
  0
CIRCLE
  8
0
 10
132.194183
 20
34.119980
 40
0.341043
  0
CIRCLE
  8
0
 10
132.194183
 20
30.880066
 40
0.341043
  0
ARC
  8
0
 10
134.798920
 20
32.500015
 40
3.441010
 50
235.978424
 51
124.121857
  0
ARC
  8
0
 10
135.000015
 20
55.000031
 40
4.000004
 50
60.317524
 51
119.682472
  0
ARC
  8
0
 10
133.283356
 20
58.011810
 40
0.533333
 50
119.682053
 51
180.000000
  0
ARC
  8
0
 10
136.716675
 20
58.011810
 40
0.533340
 50
0.000000
 51
60.317741
  0
ARC
  8
0
 10
132.194183
 20
30.880066
 40
0.937867
 50
315.607513
 51
103.173775
  0
ARC
  8
0
 10
132.194183
 20
34.119980
 40
0.937867
 50
256.826202
 51
43.173515
  0
ARC
  8
0
 10
123.488205
 20
43.016693
 40
0.533333
 50
90.000000
 51
150.317383
  0
ARC
  8
0
 10
123.488205
 20
39.583359
 40
0.533331
 50
209.682617
 51
270.000000
  0
ARC
  8
0
 10
126.499985
 20
41.300034
 40
3.999996
 50
150.317520
 51
209.682373
  0
ARC
  8
0
 10
133.059967
 20
50.066315
 40
0.341044
 50
124.122704
 51
223.173431
  0
ARC
  8
0
 10
133.064468
 20
44.930695
 40
0.341044
 50
136.826569
 51
235.978958
  0
CIRCLE
  8
0
 10
135.000015
 20
47.500015
 40
3.999995
  0
CIRCLE
  8
0
 10
132.194183
 20
49.119980
 40
0.341043
  0
ARC
  8
0
 10
132.194183
 20
49.119980
 40
0.937867
 50
256.826202
 51
43.173515
  0
ARC
  8
0
 10
132.194183
 20
45.880066
 40
0.937868
 50
315.607422
 51
103.173798
  0
CIRCLE
  8
0
 10
132.194183
 20
45.880066
 40
0.341043
  0
ARC
  8
0
 10
128.300018
 20
23.800018
 40
0.300003
 50
180.000000
 51
270.000000
  0
ARC
  8
0
 10
141.700012
 20
23.800018
 40
0.299999
 50
270.000000
 51
0.000000
  0
CIRCLE
  8
0
 10
127.599945
 20
45.700012
 40
1.500000
  0
CIRCLE
  8
0
 10
131.049942
 20
53.999969
 40
1.500000
  0
TEXT
  8
0
 10
23.292873
 20
85.605339
 40
3.200000
  1
Cü}0.2
 50
0.000000
 41
1.052632
 51
0.000000
  7
STANDARD
  0
LINE
  8
0
 10
10.000015
 20
84.605339
 11
53.000015
 21
84.605339
  0
LINE
  8
0
 10
10.000015
 20
84.605339
 11
12.897793
 21
85.381798
  0
LINE
  8
0
 10
10.000015
 20
84.605339
 11
12.897793
 21
83.828880
  0
LINE
  8
0
 10
53.000015
 20
84.605339
 11
50.102238
 21
83.828880
  0
LINE
  8
0
 10
53.000015
 20
84.605339
 11
50.102238
 21
85.381798
  0
LINE
  8
0
 10
10.000015
 20
44.000000
 11
10.000015
 21
86.105339
  0
LINE
  8
0
 10
53.000015
 20
44.000000
 11
53.000015
 21
86.105339
  0
TEXT
  8
0
 10
-33.207142
 20
4.333334
 40
3.200000
  1
Eü}0.6
 50
0.000000
 41
1.052632
 51
0.000000
  7
STANDARD
  0
LINE
  8
0
 10
-45.000000
 20
3.333334
 11
-5.000000
 21
3.333334
  0
LINE
  8
0
 10
-45.000000
 20
3.333334
 11
-42.102222
 21
4.109791
  0
LINE
  8
0
 10
-45.000000
 20
3.333334
 11
-42.102222
 21
2.556877
  0
LINE
  8
0
 10
-5.000000
 20
3.333334
 11
-7.897778
 21
2.556877
  0
LINE
  8
0
 10
-5.000000
 20
3.333334
 11
-7.897778
 21
4.109791
  0
LINE
  8
0
 10
-45.000000
 20
24.200012
 11
-45.000000
 21
1.833334
  0
LINE
  8
0
 10
-5.000000
 20
24.700027
 11
-5.000000
 21
1.833334
  0
TEXT
  8
0
 10
21.292866
 20
4.333334
 40
3.200000
  1
Lü}0.3
 50
0.000000
 41
1.052632
 51
0.000000
  7
STANDARD
  0
LINE
  8
0
 10
-5.000000
 20
3.333334
 11
64.000015
 21
3.333334
  0
LINE
  8
0
 10
-5.000000
 20
3.333334
 11
-2.102222
 21
4.109791
  0
LINE
  8
0
 10
-5.000000
 20
3.333334
 11
-2.102222
 21
2.556877
  0
LINE
  8
0
 10
64.000015
 20
3.333334
 11
61.102238
 21
2.556877
  0
LINE
  8
0
 10
64.000015
 20
3.333334
 11
61.102238
 21
4.109791
  0
LINE
  8
0
 10
-5.000000
 20
24.700027
 11
-5.000000
 21
1.833334
  0
LINE
  8
0
 10
64.000015
 20
23.800003
 11
64.000015
 21
1.833334
  0
ENDSEC
  0
EOF
