  0
SECTION
  2
HEADER
  0
ENDSEC
  0
SECTION
  2
TABLES
  0
TABLE
  2
LTYPE
 70
     4
  0
LTYPE
  2
CONTINUOUS
 70
    64
  3
Solid line
 72
    65
 73
     0
 40
0.000000
  0
LTYPE
  2
DASHED
 70
    64
  3
__ __ __ __ __ __ __ __ __ __ __ __ __ __ __
 72
    65
 73
     2
 40
3.500000
 49
2.000000
 49
-1.500000
  0
LTYPE
  2
CENTER
 70
    64
  3
____ _ ____ _ ____ _ ____ _ ____ _ ____ _ ____
 72
    65
 73
     4
 40
17.500000
 49
13.000000
 49
-1.500000
 49
1.500000
 49
-1.500000
  0
LTYPE
  2
PHANTOM
 70
    64
  3
_____ _ _ _____ _ _ _____ _ _ _____ _ _ ____  
 72
    65
 73
     6
 40
15.500000
 49
8.000000
 49
-1.500000
 49
1.500000
 49
-1.500000
 49
1.500000
 49
-1.500000
  0
LTYPE
  2
DASHED1
 70
    64
  3
__ __ __ __ __ __ __ __ __ __ __ __ __ __ __
 72
    65
 73
     2
 40
1.500000
 49
1.000000
 49
-0.500000
  0
LTYPE
  2
DASHED2
 70
    64
  3
__ __ __ __ __ __ __ __ __ __ __ __ __ __ __
 72
    65
 73
     2
 40
3.500000
 49
2.500000
 49
-1.000000
  0
LTYPE
  2
DASHED3
 70
    64
  3
__ __ __ __ __ __ __ __ __ __ __ __ __ __ __
 72
    65
 73
     2
 40
6.000000
 49
4.000000
 49
-2.000000
  0
LTYPE
  2
DASHED4
 70
    64
  3
__ __ __ __ __ __ __ __ __ __ __ __ __ __ __
 72
    65
 73
     2
 40
12.000000
 49
10.000000
 49
-2.000000
  0
LTYPE
  2
DASHED5
 70
    64
  3
__ __ __ __ __ __ __ __ __ __ __ __ __ __ __
 72
    65
 73
     2
 40
17.000000
 49
15.000000
 49
-2.000000
  0
LTYPE
  2
DASHED6
 70
    64
  3
__ __ __ __ __ __ __ __ __ __ __ __ __ __ __
 72
    65
 73
     2
 40
29.000000
 49
27.000000
 49
-2.000000
  0
LTYPE
  2
PHANTOM1
 70
    64
  3
_____ _ _ _____ _ _ _____ _ _ _____ _ _ ____  
 72
    65
 73
     6
 40
31.000000
 49
25.000000
 49
-1.500000
 49
1.000000
 49
-1.000000
 49
1.000000
 49
-1.500000
  0
LTYPE
  2
PHANTOM2
 70
    64
  3
_____ _ _ _____ _ _ _____ _ _ _____ _ _ ____  
 72
    65
 73
     6
 40
36.000000
 49
27.000000
 49
-1.500000
 49
2.500000
 49
-1.000000
 49
2.500000
 49
-1.500000
  0
LTYPE
  2
PHANTOM3
 70
    64
  3
_____ _ _ _____ _ _ _____ _ _ _____ _ _ ____  
 72
    65
 73
     6
 40
78.000000
 49
64.000000
 49
-2.000000
 49
4.000000
 49
-2.000000
 49
4.000000
 49
-2.000000
  0
LTYPE
  2
CENTER1
 70
    64
  3
____ _ ____ _ ____ _ ____ _ ____ _ ____ _ ____
 72
    65
 73
     4
 40
19.000000
 49
14.000000
 49
-1.000000
 49
3.000000
 49
-1.000000
  0
LTYPE
  2
CENTER2
 70
    64
  3
____ _ ____ _ ____ _ ____ _ ____ _ ____ _ ____
 72
    65
 73
     4
 40
28.500000
 49
25.000000
 49
-1.000000
 49
1.500000
 49
-1.000000
  0
LTYPE
  2
CENTER3
 70
    64
  3
____ _ ____ _ ____ _ ____ _ ____ _ ____ _ ____
 72
    65
 73
     4
 40
31.500000
 49
27.000000
 49
-1.000000
 49
2.500000
 49
-1.000000
  0
LTYPE
  2
CENTER4
 70
    64
  3
____ _ ____ _ ____ _ ____ _ ____ _ ____ _ ____
 72
    65
 73
     4
 40
50.000000
 49
45.000000
 49
-1.000000
 49
3.000000
 49
-1.000000
  0
LTYPE
  2
CENTER5
 70
    64
  3
____ _ ____ _ ____ _ ____ _ ____ _ ____ _ ____
 72
    65
 73
     4
 40
100.000000
 49
92.000000
 49
-2.000000
 49
4.000000
 49
-2.000000
  0
LTYPE
  2
SBK1
 70
    64
  3
______ _ _ _ ______ _ _ _ ______ _ _ _ _____  
 72
    65
 73
     8
 40
60.500000
 49
45.000000
 49
-2.000000
 49
2.500000
 49
-2.000000
 49
2.500000
 49
-2.000000
 49
2.500000
 49
-2.000000
  0
LTYPE
  2
SBK2
 70
    64
  3
______ _ _ _ ______ _ _ _ ______ _ _ _ _____  
 72
    65
 73
     8
 40
84.000000
 49
64.000000
 49
-2.000000
 49
4.000000
 49
-2.000000
 49
4.000000
 49
-2.000000
 49
4.000000
 49
-2.000000
  0
LTYPE
  2
STCH
 70
    64
  3
__ __ __ __ __ __ __ __ __ __ __ __ __ __ __
 72
    65
 73
     2
 40
3.000000
 49
1.000000
 49
-2.000000
  0
LTYPE
  2
MTCH
 70
    64
  3
_____ _ _ _____ _ _ _____ _ _ _____ _ _ ____  
 72
    65
 73
     6
 40
80.000000
 49
66.000000
 49
-2.000000
 49
4.000000
 49
-2.000000
 49
4.000000
 49
-2.000000
  0
ENDTAB
  0
TABLE
  2
LAYER
 70
     1
  0
LAYER
  2
0
 70
     0
 62
     7
  6
CONTINUOUS
  0
ENDTAB
  0
TABLE
  2
STYLE
 70
     1
  0
STYLE
  2
STANDARD
 70
     0
 40
0.000000
 41
1.000000
 50
0.000000
 71
     0
 42
0.200000
  3
txt
  4
BIGFONT
  0
ENDTAB
  0
TABLE
  2
VIEW
 70
     0
  0
ENDTAB
  0
ENDSEC
  0
SECTION
  2
BLOCKS
  0
ENDSEC
  0
SECTION
  2
ENTITIES
  0
POINT
  8
0
 10
44.999878
 20
245.000061
  0
POINT
  8
0
 10
55.999878
 20
245.000061
  0
POINT
  8
0
 10
104.700043
 20
245.000076
  0
POINT
  8
0
 10
111.700043
 20
245.000000
  0
POINT
  8
0
 10
151.700058
 20
244.999786
  0
POINT
  8
0
 10
159.199997
 20
244.999710
  0
POINT
  8
0
 10
218.400238
 20
244.997910
  0
POINT
  8
0
 10
229.400238
 20
244.997665
  0
POINT
  8
0
 10
302.247223
 20
245.000061
  0
POINT
  8
0
 10
316.247223
 20
245.000061
  0
POINT
  8
0
 10
363.347198
 20
245.000061
  0
POINT
  8
0
 10
371.347198
 20
245.000061
  0
POINT
  8
0
 10
416.347198
 20
245.000061
  0
POINT
  8
0
 10
424.847198
 20
245.000061
  0
POINT
  8
0
 10
485.447174
 20
245.000061
  0
POINT
  8
0
 10
499.447144
 20
245.000061
  0
POINT
  8
0
 10
145.000000
 20
85.224762
  0
POINT
  8
0
 10
161.000000
 20
85.224762
  0
POINT
  8
0
 10
215.440369
 20
85.224792
  0
POINT
  8
0
 10
224.440369
 20
85.224792
  0
POINT
  8
0
 10
274.440369
 20
85.224792
  0
POINT
  8
0
 10
283.940369
 20
85.224792
  0
POINT
  8
0
 10
353.880737
 20
85.224762
  0
POINT
  8
0
 10
369.880737
 20
85.224762
  0
LINE
  8
0
 62
     3
 10
0.000000
 20
0.000000
 11
0.000000
 21
360.000092
  0
LINE
  8
0
 62
     3
 10
524.494446
 20
360.000092
 11
524.494446
 21
0.000000
  0
LINE
  8
0
 62
     3
 10
0.000000
 20
0.000000
 11
524.494446
 21
0.000000
  0
LINE
  8
0
 62
     3
 10
0.000000
 20
360.000092
 11
524.494446
 21
360.000092
  0
LINE
  8
0
 62
     3
 10
0.000000
 20
339.775330
 11
107.865173
 21
339.775330
  0
LINE
  8
0
 62
     3
 10
107.865173
 20
339.775330
 11
107.865173
 21
360.000092
  0
LINE
  8
0
 62
     3
 10
416.629272
 20
20.224701
 11
524.494446
 21
20.224701
  0
LINE
  8
0
 62
     3
 10
416.629272
 20
339.775330
 11
524.494446
 21
339.775330
  0
LINE
  8
0
 62
     3
 10
416.629272
 20
360.000092
 11
416.629272
 21
339.775330
  0
LINE
  8
0
 62
     3
 10
416.629272
 20
20.224701
 11
416.629272
 21
0.000000
  0
LINE
  8
0
 10
0.000000
 20
180.000046
 11
524.494446
 21
180.000046
  0
LINE
  8
0
 10
40.062027
 20
242.334991
 11
40.062027
 21
247.665115
  0
LINE
  8
0
 10
42.334808
 20
249.937881
 11
47.664948
 21
249.937881
  0
LINE
  8
0
 10
37.749863
 20
238.278336
 11
38.999863
 21
237.556641
  0
LINE
  8
0
 10
38.999851
 20
237.556717
 11
40.249851
 21
238.278397
  0
LINE
  8
0
 10
40.249863
 20
238.278366
 11
40.249863
 21
239.721741
  0
LINE
  8
0
 10
40.249844
 20
239.721771
 11
38.999859
 21
240.443451
  0
LINE
  8
0
 10
38.999809
 20
240.443604
 11
37.749809
 21
239.721924
  0
LINE
  8
0
 10
37.749863
 20
239.721741
 11
37.749863
 21
238.278366
  0
LINE
  8
0
 10
218.400177
 20
246.441162
 11
219.650177
 21
245.719467
  0
LINE
  8
0
 10
219.650253
 20
245.719589
 11
219.650253
 21
244.276215
  0
LINE
  8
0
 10
219.650330
 20
244.276001
 11
218.400330
 21
243.554321
  0
LINE
  8
0
 10
218.400162
 20
243.554413
 11
217.150162
 21
244.276093
  0
LINE
  8
0
 10
217.150330
 20
245.719406
 11
218.400314
 21
246.441086
  0
LINE
  8
0
 10
217.150253
 20
244.276215
 11
217.150253
 21
245.719589
  0
LINE
  8
0
 10
38.999882
 20
249.556625
 11
37.749882
 21
250.278305
  0
LINE
  8
0
 10
37.749863
 20
250.278366
 11
37.749863
 21
251.721741
  0
LINE
  8
0
 10
37.749882
 20
251.721664
 11
38.999870
 21
252.443344
  0
LINE
  8
0
 10
38.999874
 20
252.443390
 11
40.249878
 21
251.721710
  0
LINE
  8
0
 10
40.249985
 20
250.278214
 11
38.999973
 21
249.556519
  0
LINE
  8
0
 10
40.249863
 20
251.721741
 11
40.249863
 21
250.278366
  0
LINE
  8
0
 10
50.999954
 20
249.556488
 11
52.249954
 21
250.278168
  0
LINE
  8
0
 10
52.249893
 20
250.278366
 11
52.249893
 21
251.721741
  0
LINE
  8
0
 10
52.249855
 20
251.721741
 11
50.999859
 21
252.443436
  0
LINE
  8
0
 10
50.999920
 20
252.443314
 11
49.749931
 21
251.721634
  0
LINE
  8
0
 10
49.749908
 20
250.278427
 11
50.999905
 21
249.556732
  0
LINE
  8
0
 10
49.749893
 20
251.721741
 11
49.749893
 21
250.278366
  0
LINE
  8
0
 10
33.999878
 20
235.000061
 11
55.999878
 21
235.000061
  0
LINE
  8
0
 10
33.999878
 20
229.000061
 11
55.999878
 21
229.000061
  0
LINE
  8
0
 10
55.999878
 20
245.000061
 11
55.999878
 21
229.000061
  0
LINE
  8
0
 10
33.999878
 20
245.000061
 11
33.999878
 21
229.000061
  0
LINE
  8
0
 10
49.937714
 20
247.665115
 11
49.937714
 21
242.334991
  0
LINE
  8
0
 10
38.999878
 20
242.500061
 11
33.999878
 21
242.500061
  0
LINE
  8
0
 10
42.499878
 20
239.000061
 11
42.499878
 21
237.000061
  0
LINE
  8
0
 10
50.999878
 20
242.500061
 11
55.999878
 21
242.500061
  0
LINE
  8
0
 10
47.499878
 20
239.000061
 11
47.499878
 21
237.000061
  0
LINE
  8
0
 10
38.999878
 20
247.500061
 11
34.287735
 21
247.500061
  0
LINE
  8
0
 10
42.499878
 20
251.000061
 11
42.499878
 21
255.712189
  0
LINE
  8
0
 10
50.999878
 20
247.500061
 11
55.712021
 21
247.500061
  0
LINE
  8
0
 10
47.499878
 20
251.000061
 11
47.499878
 21
255.712189
  0
LINE
  8
0
  6
DASHED
 10
35.749878
 20
235.000061
 11
35.749878
 21
229.000061
  0
LINE
  8
0
  6
CENTER
 10
37.999878
 20
237.000061
 11
37.999878
 21
227.000061
  0
LINE
  8
0
  6
DASHED
 10
40.249878
 20
235.000061
 11
40.249878
 21
229.000061
  0
LINE
  8
0
  6
DASHED
 10
49.749878
 20
235.000061
 11
49.749878
 21
229.000061
  0
LINE
  8
0
  6
CENTER
 10
51.999878
 20
237.000061
 11
51.999878
 21
227.000061
  0
LINE
  8
0
  6
DASHED
 10
54.249878
 20
235.000061
 11
54.249878
 21
229.000061
  0
LINE
  8
0
  6
CENTER
 10
50.999878
 20
243.000061
 11
50.999878
 21
235.000061
  0
LINE
  8
0
  6
CENTER
 10
54.999878
 20
239.000061
 11
46.999878
 21
239.000061
  0
LINE
  8
0
  6
CENTER
 10
34.999878
 20
239.000061
 11
42.999878
 21
239.000061
  0
LINE
  8
0
  6
CENTER
 10
38.999878
 20
243.000061
 11
38.999878
 21
235.000061
  0
LINE
  8
0
  6
CENTER
 10
34.999878
 20
251.000061
 11
42.999878
 21
251.000061
  0
LINE
  8
0
  6
CENTER
 10
38.999878
 20
247.000061
 11
38.999878
 21
255.000061
  0
LINE
  8
0
  6
CENTER
 10
30.999878
 20
245.000061
 11
58.999878
 21
245.000061
  0
LINE
  8
0
  6
CENTER
 10
44.999878
 20
259.000061
 11
44.999878
 21
226.000061
  0
LINE
  8
0
  6
CENTER
 10
50.999878
 20
247.000061
 11
50.999878
 21
255.000061
  0
LINE
  8
0
  6
CENTER
 10
54.999878
 20
251.000061
 11
46.999878
 21
251.000061
  0
LINE
  8
0
 10
105.200081
 20
250.803955
 11
104.700073
 21
249.937927
  0
LINE
  8
0
 10
110.700043
 20
245.000031
 11
110.699860
 21
229.000031
  0
LINE
  8
0
 10
111.700172
 20
256.000000
 11
111.699913
 21
234.000000
  0
LINE
  8
0
 10
105.200081
 20
248.250076
 11
105.200150
 21
253.750076
  0
LINE
  8
0
 10
96.699883
 20
229.000198
 11
110.699883
 21
229.000031
  0
LINE
  8
0
 10
108.200150
 20
256.000031
 11
111.700150
 21
256.000000
  0
LINE
  8
0
 10
104.700104
 20
249.937912
 11
104.699951
 21
237.000092
  0
LINE
  8
0
 10
96.699951
 20
235.000198
 11
108.199951
 21
235.000061
  0
LINE
  8
0
 10
96.699928
 20
235.000183
 11
96.699860
 21
229.000183
  0
LINE
  8
0
 10
108.200142
 20
256.000061
 11
106.901077
 21
253.750076
  0
LINE
  8
0
 10
108.200172
 20
256.000031
 11
108.199928
 21
235.000046
  0
LINE
  8
0
 10
104.700035
 20
242.500092
 11
108.200035
 21
242.500061
  0
LINE
  8
0
 10
104.700096
 20
247.500076
 11
108.200096
 21
247.500046
  0
LINE
  8
0
 10
105.200142
 20
253.750076
 11
108.200142
 21
253.750046
  0
LINE
  8
0
 10
105.200005
 20
241.750076
 11
105.199944
 21
236.250076
  0
LINE
  8
0
 10
105.200012
 20
241.750092
 11
108.200012
 21
241.750061
  0
LINE
  8
0
 10
105.199966
 20
236.250092
 11
108.199966
 21
236.250061
  0
LINE
  8
0
 10
110.699936
 20
234.000031
 11
111.699936
 21
234.000015
  0
LINE
  8
0
 10
105.200073
 20
248.250076
 11
108.200073
 21
248.250046
  0
LINE
  8
0
  6
DASHED
 10
98.449928
 20
235.000153
 11
98.449860
 21
229.000153
  0
LINE
  8
0
  6
CENTER
 10
100.699951
 20
237.000122
 11
100.699829
 21
227.000122
  0
LINE
  8
0
  6
DASHED
 10
102.949928
 20
235.000107
 11
102.949860
 21
229.000107
  0
LINE
  8
0
  6
CENTER
 10
103.199997
 20
239.000122
 11
114.699997
 21
238.999985
  0
LINE
  8
0
  6
CENTER
 10
101.700066
 20
245.000122
 11
114.700066
 21
244.999969
  0
LINE
  8
0
  6
CENTER
 10
103.200104
 20
251.000107
 11
114.700104
 21
250.999969
  0
LINE
  8
0
 10
296.041412
 20
242.429443
 11
296.041412
 21
247.570709
  0
LINE
  8
0
 10
299.676575
 20
251.205841
 11
304.817841
 21
251.205841
  0
LINE
  8
0
 10
293.747223
 20
237.134094
 11
295.247223
 21
236.268066
  0
LINE
  8
0
 10
295.247192
 20
236.268051
 11
296.747192
 21
237.134079
  0
LINE
  8
0
 10
296.747192
 20
237.134048
 11
296.747192
 21
238.866104
  0
LINE
  8
0
 10
296.747223
 20
238.866180
 11
295.247223
 21
239.732208
  0
LINE
  8
0
 10
295.247192
 20
239.732178
 11
293.747192
 21
238.866150
  0
LINE
  8
0
 10
293.747192
 20
238.866089
 11
293.747192
 21
237.134033
  0
LINE
  8
0
 10
307.747223
 20
237.134048
 11
307.747223
 21
238.866104
  0
LINE
  8
0
 10
307.747253
 20
238.866074
 11
309.247253
 21
239.732101
  0
LINE
  8
0
 10
309.247162
 20
239.732071
 11
310.747162
 21
238.866043
  0
LINE
  8
0
 10
310.747223
 20
238.866089
 11
310.747223
 21
237.134033
  0
LINE
  8
0
 10
310.747223
 20
237.134048
 11
309.247223
 21
236.268021
  0
LINE
  8
0
 10
309.247192
 20
236.267990
 11
307.747162
 21
237.134033
  0
LINE
  8
0
 10
296.747192
 20
252.866089
 11
296.747192
 21
251.134033
  0
LINE
  8
0
 10
296.747223
 20
251.134003
 11
295.247192
 21
250.267975
  0
LINE
  8
0
 10
295.247223
 20
250.267990
 11
293.747223
 21
251.134018
  0
LINE
  8
0
 10
293.747192
 20
251.134033
 11
293.747192
 21
252.866089
  0
LINE
  8
0
 10
293.747223
 20
252.866104
 11
295.247223
 21
253.732132
  0
LINE
  8
0
 10
295.247192
 20
253.732056
 11
296.747223
 21
252.866028
  0
LINE
  8
0
 10
307.747223
 20
252.866089
 11
307.747223
 21
251.134033
  0
LINE
  8
0
 10
307.747192
 20
251.134003
 11
309.247223
 21
250.267975
  0
LINE
  8
0
 10
309.247131
 20
250.267975
 11
310.747162
 21
251.134003
  0
LINE
  8
0
 10
310.747223
 20
251.134033
 11
310.747223
 21
252.866089
  0
LINE
  8
0
 10
310.747192
 20
252.866104
 11
309.247192
 21
253.732132
  0
LINE
  8
0
 10
309.247223
 20
253.732086
 11
307.747223
 21
252.866058
  0
LINE
  8
0
 10
288.247223
 20
233.000061
 11
316.247223
 21
233.000061
  0
LINE
  8
0
 10
288.247223
 20
226.000061
 11
316.247223
 21
226.000061
  0
LINE
  8
0
 10
288.247223
 20
245.000061
 11
288.247223
 21
226.000061
  0
LINE
  8
0
 10
316.247223
 20
245.000061
 11
316.247223
 21
226.000061
  0
LINE
  8
0
 10
295.247223
 20
242.500061
 11
288.247223
 21
242.500061
  0
LINE
  8
0
 10
299.747223
 20
238.000061
 11
299.747223
 21
235.000061
  0
LINE
  8
0
 10
304.747223
 20
238.000061
 11
304.747223
 21
235.000061
  0
LINE
  8
0
 10
309.247223
 20
242.500061
 11
316.247223
 21
242.500061
  0
LINE
  8
0
 10
299.747223
 20
252.000061
 11
299.747223
 21
258.775055
  0
LINE
  8
0
 10
295.247223
 20
247.500061
 11
288.472229
 21
247.500061
  0
LINE
  8
0
 10
304.747223
 20
252.000061
 11
304.747223
 21
258.775055
  0
LINE
  8
0
 10
309.247223
 20
247.500061
 11
316.022186
 21
247.500061
  0
LINE
  8
0
 10
308.453003
 20
242.429443
 11
308.453003
 21
247.570709
  0
LINE
  8
0
  6
CENTER
 10
290.247223
 20
252.000061
 11
300.247223
 21
252.000061
  0
LINE
  8
0
  6
CENTER
 10
295.247223
 20
247.000061
 11
295.247223
 21
257.000061
  0
LINE
  8
0
  6
CENTER
 10
309.247223
 20
247.000061
 11
309.247223
 21
257.000061
  0
LINE
  8
0
  6
CENTER
 10
314.247223
 20
252.000061
 11
304.247223
 21
252.000061
  0
LINE
  8
0
  6
CENTER
 10
302.247223
 20
262.000061
 11
302.247223
 21
223.000061
  0
LINE
  8
0
  6
CENTER
 10
285.247223
 20
245.000061
 11
319.247223
 21
245.000061
  0
LINE
  8
0
  6
CENTER
 10
314.247223
 20
238.000061
 11
304.247223
 21
238.000061
  0
LINE
  8
0
  6
CENTER
 10
309.247223
 20
243.000061
 11
309.247223
 21
233.000061
  0
LINE
  8
0
  6
CENTER
 10
290.247223
 20
238.000061
 11
300.247223
 21
238.000061
  0
LINE
  8
0
  6
CENTER
 10
295.247223
 20
243.000061
 11
295.247223
 21
233.000061
  0
LINE
  8
0
  6
DASHED
 10
290.497223
 20
233.000061
 11
290.497223
 21
226.000061
  0
LINE
  8
0
  6
CENTER
 10
293.247223
 20
235.000061
 11
293.247223
 21
224.000061
  0
LINE
  8
0
  6
DASHED
 10
295.997223
 20
233.000061
 11
295.997223
 21
226.000061
  0
LINE
  8
0
  6
DASHED
 10
308.497223
 20
233.000061
 11
308.497223
 21
226.000061
  0
LINE
  8
0
  6
CENTER
 10
311.247223
 20
235.000061
 11
311.247223
 21
224.000061
  0
LINE
  8
0
  6
DASHED
 10
313.997223
 20
233.000061
 11
313.997223
 21
226.000061
  0
LINE
  8
0
 10
371.347198
 20
259.000061
 11
371.347198
 21
231.000061
  0
LINE
  8
0
  6
CENTER
 10
360.347198
 20
245.000061
 11
374.347198
 21
245.000061
  0
LINE
  8
0
 10
353.347198
 20
233.000061
 11
353.347198
 21
226.000061
  0
LINE
  8
0
 10
370.347198
 20
245.000061
 11
370.347198
 21
226.000061
  0
LINE
  8
0
 10
353.347198
 20
226.000061
 11
370.347198
 21
226.000061
  0
LINE
  8
0
 10
353.347198
 20
233.000061
 11
367.847198
 21
233.000061
  0
LINE
  8
0
 10
370.347198
 20
231.000061
 11
371.347198
 21
231.000061
  0
LINE
  8
0
 10
367.847198
 20
259.000061
 11
367.847198
 21
233.000061
  0
LINE
  8
0
 10
367.847198
 20
259.000061
 11
371.347198
 21
259.000061
  0
LINE
  8
0
 10
367.847198
 20
259.000061
 11
365.826447
 21
255.500046
  0
LINE
  8
0
  6
CENTER
 10
358.347198
 20
235.000061
 11
358.347198
 21
224.000061
  0
LINE
  8
0
  6
DASHED
 10
361.097198
 20
233.000061
 11
361.097198
 21
226.000061
  0
LINE
  8
0
  6
DASHED
 10
355.597198
 20
233.000061
 11
355.597198
 21
226.000061
  0
LINE
  8
0
  6
CENTER
 10
361.847198
 20
238.000061
 11
374.347198
 21
238.000061
  0
LINE
  8
0
 10
363.347198
 20
247.500061
 11
367.847198
 21
247.500061
  0
LINE
  8
0
 10
363.347198
 20
242.500061
 11
367.847198
 21
242.500061
  0
LINE
  8
0
 10
363.847198
 20
241.500061
 11
367.847198
 21
241.500061
  0
LINE
  8
0
 10
363.847198
 20
234.500061
 11
367.847198
 21
234.500061
  0
LINE
  8
0
 10
363.847198
 20
241.500061
 11
363.847198
 21
234.500061
  0
LINE
  8
0
 10
363.847198
 20
248.500061
 11
367.847198
 21
248.500061
  0
LINE
  8
0
 10
363.847198
 20
255.500061
 11
367.847198
 21
255.500061
  0
LINE
  8
0
 10
363.847198
 20
248.500061
 11
363.847198
 21
255.500061
  0
LINE
  8
0
  6
CENTER
 10
361.847198
 20
252.000061
 11
374.347198
 21
252.000061
  0
LINE
  8
0
 10
363.847198
 20
252.071869
 11
363.347198
 21
251.205841
  0
LINE
  8
0
 10
363.347198
 20
251.205841
 11
363.347198
 21
235.000061
  0
LINE
  8
0
  6
CENTER
 10
145.000000
 20
104.224777
 11
145.000000
 21
61.224762
  0
LINE
  8
0
 10
129.000000
 20
64.224762
 11
161.000000
 21
64.224762
  0
LINE
  8
0
  6
CENTER
 10
126.000000
 20
85.224762
 11
164.000000
 21
85.224762
  0
LINE
  8
0
 10
129.000000
 20
85.224762
 11
129.000000
 21
64.224762
  0
LINE
  8
0
 10
161.000000
 20
85.224762
 11
161.000000
 21
64.224762
  0
LINE
  8
0
 10
129.000000
 20
72.224762
 11
161.000000
 21
72.224762
  0
LINE
  8
0
  6
CENTER
 10
135.000000
 20
74.224762
 11
135.000000
 21
62.224762
  0
LINE
  8
0
  6
DASHED
 10
131.750000
 20
72.224762
 11
131.750000
 21
64.224762
  0
LINE
  8
0
  6
DASHED
 10
138.250000
 20
72.224762
 11
138.250000
 21
64.224762
  0
LINE
  8
0
  6
DASHED
 10
151.750000
 20
72.224762
 11
151.750000
 21
64.224762
  0
LINE
  8
0
  6
CENTER
 10
155.000000
 20
74.224762
 11
155.000000
 21
62.224762
  0
LINE
  8
0
  6
DASHED
 10
158.250000
 20
72.224762
 11
158.250000
 21
64.224762
  0
LINE
  8
0
  6
CENTER
 10
131.000000
 20
77.224762
 11
143.000000
 21
77.224762
  0
LINE
  8
0
  6
CENTER
 10
137.000000
 20
83.224762
 11
137.000000
 21
71.224762
  0
LINE
  8
0
 10
135.000061
 20
76.070084
 11
137.000046
 21
74.915390
  0
LINE
  8
0
 10
137.000031
 20
74.915359
 11
139.000046
 21
76.070068
  0
LINE
  8
0
 10
139.000000
 20
76.070068
 11
139.000000
 21
78.379471
  0
LINE
  8
0
 10
139.000046
 20
78.379532
 11
137.000031
 21
79.534241
  0
LINE
  8
0
 10
137.000031
 20
79.534103
 11
135.000046
 21
78.379410
  0
LINE
  8
0
 10
135.000000
 20
78.379440
 11
135.000000
 21
76.070053
  0
LINE
  8
0
 10
137.000000
 20
82.224762
 11
129.000000
 21
82.224762
  0
LINE
  8
0
 10
142.000000
 20
77.224762
 11
142.000000
 21
74.224762
  0
LINE
  8
0
 10
151.000092
 20
78.379524
 11
153.000092
 21
79.534218
  0
LINE
  8
0
 10
151.000000
 20
76.070068
 11
151.000000
 21
78.379471
  0
LINE
  8
0
 10
152.999893
 20
74.915123
 11
150.999924
 21
76.069809
  0
LINE
  8
0
 10
155.000000
 20
76.070015
 11
153.000015
 21
74.915321
  0
LINE
  8
0
 10
155.000000
 20
78.379440
 11
155.000000
 21
76.070053
  0
LINE
  8
0
 10
153.000107
 20
79.534332
 11
155.000092
 21
78.379639
  0
LINE
  8
0
  6
CENTER
 10
159.000000
 20
77.224762
 11
147.000000
 21
77.224762
  0
LINE
  8
0
  6
CENTER
 10
153.000000
 20
83.224762
 11
153.000000
 21
71.224762
  0
LINE
  8
0
 10
148.000000
 20
77.224762
 11
148.000000
 21
74.224762
  0
LINE
  8
0
 10
153.000000
 20
82.224762
 11
161.000000
 21
82.224762
  0
LINE
  8
0
 10
138.999985
 20
92.070084
 11
137.000000
 21
90.915382
  0
LINE
  8
0
 10
139.000000
 20
94.379456
 11
139.000000
 21
92.070053
  0
LINE
  8
0
 10
136.999939
 20
95.534096
 11
138.999939
 21
94.379410
  0
LINE
  8
0
 10
135.000015
 20
94.379486
 11
137.000000
 21
95.534180
  0
LINE
  8
0
 10
135.000000
 20
92.070084
 11
135.000000
 21
94.379471
  0
LINE
  8
0
 10
137.000061
 20
90.915451
 11
135.000076
 21
92.070145
  0
LINE
  8
0
  6
CENTER
 10
131.000000
 20
93.224762
 11
143.000000
 21
93.224762
  0
LINE
  8
0
  6
CENTER
 10
137.000000
 20
87.224762
 11
137.000000
 21
99.224777
  0
LINE
  8
0
 10
142.000000
 20
93.224762
 11
142.000000
 21
100.940994
  0
LINE
  8
0
 10
137.000000
 20
88.224762
 11
129.283752
 21
88.224762
  0
LINE
  8
0
 10
150.999908
 20
92.069809
 11
152.999924
 21
90.915100
  0
LINE
  8
0
 10
151.000000
 20
94.379456
 11
151.000000
 21
92.070053
  0
LINE
  8
0
 10
153.000031
 20
95.534172
 11
151.000031
 21
94.379486
  0
LINE
  8
0
 10
154.999924
 20
94.379318
 11
152.999939
 21
95.534012
  0
LINE
  8
0
 10
155.000000
 20
92.070084
 11
155.000000
 21
94.379471
  0
LINE
  8
0
 10
153.000046
 20
90.915367
 11
155.000031
 21
92.070068
  0
LINE
  8
0
  6
CENTER
 10
159.000000
 20
93.224762
 11
147.000000
 21
93.224762
  0
LINE
  8
0
  6
CENTER
 10
153.000000
 20
87.224762
 11
153.000000
 21
99.224777
  0
LINE
  8
0
 10
148.000000
 20
93.224762
 11
148.000000
 21
100.940994
  0
LINE
  8
0
 10
153.000000
 20
88.224762
 11
160.716248
 21
88.224762
  0
LINE
  8
0
 10
151.473724
 20
88.463409
 11
151.473724
 21
81.986115
  0
LINE
  8
0
 10
141.761353
 20
91.698486
 11
148.238647
 21
91.698486
  0
LINE
  8
0
 10
138.526276
 20
81.986115
 11
138.526276
 21
88.463409
  0
LINE
  8
0
  6
CENTER
 10
213.440369
 20
85.224792
 11
227.440369
 21
85.224792
  0
LINE
  8
0
 10
224.440369
 20
101.224777
 11
224.440369
 21
69.224792
  0
LINE
  8
0
 10
203.440369
 20
64.224792
 11
223.440369
 21
64.224792
  0
LINE
  8
0
 10
220.940369
 20
101.224777
 11
224.440369
 21
101.224777
  0
LINE
  8
0
 10
203.440369
 20
72.224792
 11
220.940369
 21
72.224792
  0
LINE
  8
0
 10
203.440369
 20
72.224792
 11
203.440369
 21
64.224792
  0
LINE
  8
0
 10
223.440369
 20
85.224792
 11
223.440369
 21
64.224792
  0
LINE
  8
0
 10
220.940369
 20
101.224777
 11
220.940369
 21
72.224792
  0
LINE
  8
0
 10
215.440369
 20
91.698517
 11
215.440369
 21
74.224792
  0
LINE
  8
0
 10
223.440369
 20
69.224792
 11
224.440369
 21
69.224792
  0
LINE
  8
0
 10
220.939789
 20
101.225143
 11
218.774704
 21
97.475128
  0
LINE
  8
0
  6
CENTER
 10
213.940369
 20
77.224792
 11
226.440369
 21
77.224792
  0
LINE
  8
0
 10
215.940369
 20
81.474792
 11
220.940369
 21
81.474792
  0
LINE
  8
0
 10
215.940369
 20
72.974792
 11
220.940369
 21
72.974792
  0
LINE
  8
0
 10
215.940369
 20
81.474792
 11
215.940369
 21
72.974792
  0
LINE
  8
0
 10
215.940369
 20
88.974792
 11
220.940369
 21
88.974792
  0
LINE
  8
0
 10
215.940369
 20
88.974792
 11
215.940369
 21
97.474777
  0
LINE
  8
0
  6
CENTER
 10
213.940369
 20
93.224792
 11
226.440369
 21
93.224792
  0
LINE
  8
0
 10
215.940369
 20
97.474777
 11
220.940369
 21
97.474777
  0
LINE
  8
0
 10
215.939774
 20
92.564888
 11
215.439774
 21
91.698860
  0
LINE
  8
0
 10
215.440369
 20
88.224792
 11
220.940369
 21
88.224792
  0
LINE
  8
0
 10
215.440369
 20
82.224792
 11
220.940369
 21
82.224792
  0
LINE
  8
0
  6
CENTER
 10
209.440369
 20
74.224792
 11
209.440369
 21
62.224792
  0
LINE
  8
0
  6
DASHED
 10
206.190369
 20
72.224792
 11
206.190369
 21
64.224792
  0
LINE
  8
0
  6
DASHED
 10
212.690369
 20
72.224792
 11
212.690369
 21
64.224792
  0
LINE
  8
0
 10
262.247223
 20
360.000092
 11
262.247223
 21
180.000046
  0
LINE
  8
0
 10
152.700058
 20
244.999786
 11
152.699875
 21
228.999786
  0
LINE
  8
0
 10
151.700195
 20
255.999771
 11
151.699936
 21
233.999756
  0
LINE
  8
0
 10
166.699844
 20
228.999619
 11
152.699844
 21
228.999786
  0
LINE
  8
0
 10
156.200195
 20
255.999771
 11
151.700211
 21
255.999771
  0
LINE
  8
0
 10
166.699921
 20
234.999634
 11
157.199936
 21
234.999741
  0
LINE
  8
0
 10
166.699936
 20
234.999603
 11
166.699860
 21
228.999603
  0
LINE
  8
0
 10
156.200195
 20
255.999756
 11
156.199951
 21
235.999756
  0
LINE
  8
0
 10
159.200027
 20
247.749680
 11
159.199951
 21
242.249680
  0
LINE
  8
0
 10
159.200027
 20
247.749695
 11
158.700089
 21
247.749695
  0
LINE
  8
0
 10
159.199936
 20
242.249695
 11
158.700027
 21
242.249695
  0
LINE
  8
0
 10
152.699905
 20
233.999786
 11
151.699905
 21
233.999771
  0
LINE
  8
0
  6
DASHED
 10
164.949936
 20
234.999619
 11
164.949860
 21
228.999619
  0
LINE
  8
0
  6
CENTER
 10
162.699966
 20
236.999649
 11
162.699860
 21
226.999649
  0
LINE
  8
0
  6
DASHED
 10
160.449936
 20
234.999680
 11
160.449860
 21
228.999680
  0
LINE
  8
0
  6
CENTER
 10
161.700043
 20
244.999680
 11
148.700027
 21
244.999832
  0
LINE
  8
0
  6
CENTER
 10
232.400238
 20
244.997589
 11
204.400238
 21
244.998230
  0
LINE
  8
0
  6
CENTER
 10
218.400558
 20
258.997894
 11
218.399780
 21
225.997894
  0
LINE
  8
0
 10
158.700104
 20
249.499680
 11
156.200134
 21
251.999649
  0
LINE
  8
0
 10
158.700119
 20
249.499695
 11
158.699951
 21
234.999725
  0
LINE
  8
0
 10
207.399994
 20
234.999619
 11
229.399994
 21
234.999619
  0
LINE
  8
0
 10
207.399857
 20
228.999603
 11
229.399857
 21
228.999603
  0
LINE
  8
0
 10
229.400238
 20
244.997665
 11
229.399857
 21
228.999603
  0
LINE
  8
0
 10
207.400238
 20
244.998169
 11
207.399857
 21
228.999603
  0
LINE
  8
0
 10
49.749893
 20
238.278366
 11
49.749893
 21
239.721741
  0
LINE
  8
0
 10
49.749969
 20
239.721588
 11
50.999969
 21
240.443268
  0
LINE
  8
0
 10
50.999855
 20
240.443359
 11
52.249855
 21
239.721680
  0
LINE
  8
0
 10
52.249893
 20
239.721741
 11
52.249893
 21
238.278366
  0
LINE
  8
0
 10
52.249947
 20
238.278183
 11
50.999950
 21
237.556488
  0
LINE
  8
0
 10
50.999836
 20
237.556641
 11
49.749851
 21
238.278320
  0
LINE
  8
0
 10
213.900238
 20
244.997910
 11
213.900238
 21
234.999619
  0
LINE
  8
0
 10
222.900238
 20
244.997910
 11
222.900238
 21
234.999619
  0
LINE
  8
0
 10
211.398483
 20
244.997910
 11
211.398483
 21
234.999619
  0
LINE
  8
0
 10
225.401993
 20
244.997910
 11
225.401993
 21
234.999619
  0
LINE
  8
0
  6
CENTER
 10
211.400040
 20
236.999619
 11
211.399811
 21
226.999603
  0
LINE
  8
0
  6
DASHED
 10
213.649994
 20
234.999634
 11
213.649857
 21
228.999619
  0
LINE
  8
0
  6
DASHED
 10
209.149994
 20
234.999634
 11
209.149857
 21
228.999619
  0
LINE
  8
0
  6
DASHED
 10
223.150009
 20
234.999405
 11
223.149872
 21
228.999390
  0
LINE
  8
0
  6
CENTER
 10
225.400055
 20
236.999283
 11
225.399811
 21
226.999268
  0
LINE
  8
0
  6
DASHED
 10
227.650009
 20
234.999191
 11
227.649872
 21
228.999176
  0
LINE
  8
0
 10
416.347198
 20
259.000061
 11
416.347198
 21
231.000061
  0
LINE
  8
0
  6
CENTER
 10
427.347198
 20
245.000061
 11
413.347198
 21
245.000061
  0
LINE
  8
0
 10
434.347198
 20
233.000061
 11
434.347198
 21
226.000061
  0
LINE
  8
0
 10
417.347198
 20
245.000061
 11
417.347198
 21
226.000061
  0
LINE
  8
0
 10
434.347198
 20
226.000061
 11
417.347198
 21
226.000061
  0
LINE
  8
0
 10
434.347198
 20
233.000061
 11
421.847198
 21
233.000061
  0
LINE
  8
0
 10
417.347198
 20
231.000061
 11
416.347198
 21
231.000061
  0
LINE
  8
0
 10
420.847198
 20
259.000061
 11
420.847198
 21
234.000061
  0
LINE
  8
0
 10
420.847198
 20
259.000061
 11
416.347198
 21
259.000061
  0
LINE
  8
0
  6
CENTER
 10
429.347198
 20
235.000061
 11
429.347198
 21
224.000061
  0
LINE
  8
0
  6
DASHED
 10
426.597198
 20
233.000061
 11
426.597198
 21
226.000061
  0
LINE
  8
0
  6
DASHED
 10
432.097198
 20
233.000061
 11
432.097198
 21
226.000061
  0
LINE
  8
0
 10
424.847198
 20
241.500061
 11
424.347198
 21
241.500061
  0
LINE
  8
0
 10
424.847198
 20
248.500061
 11
424.347198
 21
248.500061
  0
LINE
  8
0
 10
424.847198
 20
241.500061
 11
424.847198
 21
248.500061
  0
LINE
  8
0
 10
424.347198
 20
251.000061
 11
424.347198
 21
233.000061
  0
LINE
  8
0
 10
485.447327
 20
246.732101
 11
483.947327
 21
245.866074
  0
LINE
  8
0
 10
486.947266
 20
245.866257
 11
485.447266
 21
246.732300
  0
LINE
  8
0
 10
486.947174
 20
244.134048
 11
486.947174
 21
245.866104
  0
LINE
  8
0
 10
485.447205
 20
243.267975
 11
486.947266
 21
244.134033
  0
LINE
  8
0
 10
483.947296
 20
244.134262
 11
485.447296
 21
243.268219
  0
LINE
  8
0
 10
483.947174
 20
245.866089
 11
483.947174
 21
244.134033
  0
LINE
  8
0
 10
471.447174
 20
245.000061
 11
471.447174
 21
226.000061
  0
LINE
  8
0
 10
499.447144
 20
245.000061
 11
499.447144
 21
226.000061
  0
LINE
  8
0
 10
499.447144
 20
226.000061
 11
471.447174
 21
226.000061
  0
LINE
  8
0
 10
499.447144
 20
233.000061
 11
471.447174
 21
233.000061
  0
LINE
  8
0
  6
DASHED
 10
491.697174
 20
233.000061
 11
491.697174
 21
226.000061
  0
LINE
  8
0
  6
CENTER
 10
494.447174
 20
235.000061
 11
494.447174
 21
224.000061
  0
LINE
  8
0
  6
DASHED
 10
497.197144
 20
233.000061
 11
497.197144
 21
226.000061
  0
LINE
  8
0
  6
CENTER
 10
485.447174
 20
262.000061
 11
485.447174
 21
223.000061
  0
LINE
  8
0
  6
DASHED
 10
479.197174
 20
233.000061
 11
479.197174
 21
226.000061
  0
LINE
  8
0
  6
CENTER
 10
476.447174
 20
235.000061
 11
476.447174
 21
224.000061
  0
LINE
  8
0
  6
DASHED
 10
473.697174
 20
233.000061
 11
473.697174
 21
226.000061
  0
LINE
  8
0
  6
CENTER
 10
502.447144
 20
245.000061
 11
468.447174
 21
245.000061
  0
LINE
  8
0
 10
479.447174
 20
245.000061
 11
479.447174
 21
233.000061
  0
LINE
  8
0
 10
491.447174
 20
245.000061
 11
491.447174
 21
233.000061
  0
LINE
  8
0
 10
424.347290
 20
251.000153
 11
420.847290
 21
254.500168
  0
LINE
  8
0
 10
475.947144
 20
245.000061
 11
475.947144
 21
233.000061
  0
LINE
  8
0
 10
494.947205
 20
245.000061
 11
494.947205
 21
233.000061
  0
LINE
  8
0
  6
CENTER
 10
285.440369
 20
85.224792
 11
271.440369
 21
85.224792
  0
LINE
  8
0
 10
274.440369
 20
101.224777
 11
274.440369
 21
69.224792
  0
LINE
  8
0
 10
295.440369
 20
64.224792
 11
275.440369
 21
64.224792
  0
LINE
  8
0
 10
278.940369
 20
101.224777
 11
274.440369
 21
101.224777
  0
LINE
  8
0
 10
295.440369
 20
72.224792
 11
279.940369
 21
72.224792
  0
LINE
  8
0
 10
295.440369
 20
72.224792
 11
295.440369
 21
64.224792
  0
LINE
  8
0
 10
275.440369
 20
85.224792
 11
275.440369
 21
64.224792
  0
LINE
  8
0
 10
278.940369
 20
101.224777
 11
278.940369
 21
73.224792
  0
LINE
  8
0
 10
283.440369
 20
92.224762
 11
283.440369
 21
72.224792
  0
LINE
  8
0
 10
275.440369
 20
69.224792
 11
274.440369
 21
69.224792
  0
LINE
  8
0
 10
283.940369
 20
89.474792
 11
283.440369
 21
89.474792
  0
LINE
  8
0
 10
283.940369
 20
80.974792
 11
283.440369
 21
80.974792
  0
LINE
  8
0
 10
283.940369
 20
89.474792
 11
283.940369
 21
80.974792
  0
LINE
  8
0
  6
CENTER
 10
289.440369
 20
74.224792
 11
289.440369
 21
62.224792
  0
LINE
  8
0
  6
DASHED
 10
292.690369
 20
72.224792
 11
292.690369
 21
64.224792
  0
LINE
  8
0
  6
DASHED
 10
286.190369
 20
72.224792
 11
286.190369
 21
64.224792
  0
LINE
  8
0
 10
337.880737
 20
85.224762
 11
337.880737
 21
64.224762
  0
LINE
  8
0
 10
369.880737
 20
64.224762
 11
337.880737
 21
64.224762
  0
LINE
  8
0
 10
369.880737
 20
85.224762
 11
369.880737
 21
64.224762
  0
LINE
  8
0
 10
353.880554
 20
87.534332
 11
351.880585
 21
86.379631
  0
LINE
  8
0
 10
355.880615
 20
86.379509
 11
353.880615
 21
87.534210
  0
LINE
  8
0
 10
355.880737
 20
84.070068
 11
355.880737
 21
86.379471
  0
LINE
  8
0
 10
353.880829
 20
82.915100
 11
355.880768
 21
84.069794
  0
LINE
  8
0
 10
351.880707
 20
84.070015
 11
353.880737
 21
82.915314
  0
LINE
  8
0
 10
351.880737
 20
86.379440
 11
351.880737
 21
84.070053
  0
LINE
  8
0
 10
369.880737
 20
72.224762
 11
337.880737
 21
72.224762
  0
LINE
  8
0
  6
DASHED
 10
340.630737
 20
72.224762
 11
340.630737
 21
64.224762
  0
LINE
  8
0
  6
CENTER
 10
343.880737
 20
74.224762
 11
343.880737
 21
62.224762
  0
LINE
  8
0
  6
DASHED
 10
347.130737
 20
72.224762
 11
347.130737
 21
64.224762
  0
LINE
  8
0
  6
CENTER
 10
353.880737
 20
104.224777
 11
353.880737
 21
61.224762
  0
LINE
  8
0
  6
DASHED
 10
360.630737
 20
72.224762
 11
360.630737
 21
64.224762
  0
LINE
  8
0
  6
CENTER
 10
363.880737
 20
74.224762
 11
363.880737
 21
62.224762
  0
LINE
  8
0
  6
DASHED
 10
367.130737
 20
72.224762
 11
367.130737
 21
64.224762
  0
LINE
  8
0
  6
CENTER
 10
372.880737
 20
85.224762
 11
334.880737
 21
85.224762
  0
LINE
  8
0
 10
346.880737
 20
85.224762
 11
346.880737
 21
72.224762
  0
LINE
  8
0
 10
360.880737
 20
85.224762
 11
360.880737
 21
72.224762
  0
LINE
  8
0
 10
283.440369
 20
92.224747
 11
278.940338
 21
96.724754
  0
LINE
  8
0
 10
342.380737
 20
85.224762
 11
342.380737
 21
72.224762
  0
LINE
  8
0
 10
365.380737
 20
85.224762
 11
365.380737
 21
72.224762
  0
CIRCLE
  8
0
 10
44.999878
 20
245.000061
 40
3.250000
  0
ARC
  8
0
 10
40.499878
 20
237.000061
 40
2.000000
 50
270.000000
 51
0.000000
  0
ARC
  8
0
 10
49.499878
 20
237.000061
 40
2.000000
 50
180.000000
 51
270.000000
  0
ARC
  8
0
 10
50.999878
 20
239.000061
 40
3.500000
 50
90.000000
 51
180.000000
  0
ARC
  8
0
 10
38.999878
 20
251.000061
 40
3.500000
 50
270.000000
 51
0.000000
  0
ARC
  8
0
 10
50.999878
 20
251.000061
 40
3.500000
 50
180.000000
 51
270.000000
  0
ARC
  8
0
 10
38.999878
 20
239.000061
 40
3.500000
 50
0.000000
 51
90.000000
  0
ARC
  8
0
 10
44.999878
 20
245.000061
 40
11.000003
 50
151.555328
 51
180.000000
  0
ARC
  8
0
 10
38.999878
 20
251.000061
 40
3.750003
 50
78.297745
 51
191.702148
  0
ARC
  8
0
 10
50.999878
 20
251.000061
 40
3.749997
 50
348.297852
 51
101.702255
  0
ARC
  8
0
 10
44.999878
 20
245.000061
 40
11.000000
 50
0.000000
 51
28.444603
  0
CIRCLE
  8
0
 10
50.999878
 20
251.000061
 40
2.750000
  0
CIRCLE
  8
0
 10
38.999878
 20
251.000061
 40
2.750000
  0
CIRCLE
  8
0
 10
218.400238
 20
244.997910
 40
2.750000
  0
CIRCLE
  8
0
 10
38.999878
 20
239.000061
 40
2.750000
  0
ARC
  8
0
 10
44.999878
 20
245.000061
 40
11.000002
 50
61.555370
 51
118.444626
  0
ARC
  8
0
 10
102.699951
 20
237.000122
 40
2.000000
 50
269.999359
 51
359.999115
  0
CIRCLE
  8
0
 10
302.247223
 20
245.000061
 40
4.250000
  0
ARC
  8
0
 10
297.747223
 20
235.000061
 40
2.000000
 50
270.000000
 51
0.000000
  0
ARC
  8
0
 10
306.747223
 20
235.000061
 40
2.000000
 50
180.000000
 51
270.000000
  0
ARC
  8
0
 10
309.247223
 20
238.000061
 40
4.500000
 50
90.000000
 51
180.000000
  0
ARC
  8
0
 10
309.247223
 20
252.000061
 40
4.500000
 50
180.000000
 51
270.000000
  0
ARC
  8
0
 10
295.247223
 20
252.000061
 40
4.500000
 50
270.000000
 51
0.000000
  0
ARC
  8
0
 10
295.247223
 20
238.000061
 40
4.500000
 50
0.000000
 51
90.000000
  0
CIRCLE
  8
0
 10
309.247223
 20
252.000061
 40
3.500000
  0
CIRCLE
  8
0
 10
295.247223
 20
252.000061
 40
3.500000
  0
CIRCLE
  8
0
 10
309.247223
 20
238.000061
 40
3.500000
  0
CIRCLE
  8
0
 10
295.247223
 20
238.000061
 40
3.500000
  0
ARC
  8
0
 10
302.247223
 20
245.000061
 40
14.000000
 50
0.000000
 51
179.999939
  0
ARC
  8
0
 10
361.347198
 20
235.000061
 40
2.000000
 50
270.000000
 51
0.000000
  0
ARC
  8
0
 10
140.000000
 20
74.224762
 40
2.000000
 50
270.000000
 51
0.000000
  0
ARC
  8
0
 10
150.000000
 20
74.224762
 40
2.000000
 50
180.000000
 51
270.000000
  0
ARC
  8
0
 10
145.000000
 20
85.224762
 40
16.000000
 50
0.000000
 51
179.999969
  0
CIRCLE
  8
0
 10
145.000000
 20
85.224762
 40
5.250000
  0
CIRCLE
  8
0
 10
137.000000
 20
77.224762
 40
4.250000
  0
ARC
  8
0
 10
137.000000
 20
77.224762
 40
5.000000
 50
0.000000
 51
90.000000
  0
ARC
  8
0
 10
153.000000
 20
77.224762
 40
5.000000
 50
90.000000
 51
180.000000
  0
CIRCLE
  8
0
 10
153.000000
 20
77.224762
 40
4.250000
  0
ARC
  8
0
 10
137.000000
 20
93.224762
 40
5.000000
 50
270.000000
 51
359.999908
  0
CIRCLE
  8
0
 10
137.000000
 20
93.224762
 40
4.250000
  0
ARC
  8
0
 10
153.000000
 20
93.224762
 40
5.000000
 50
180.000000
 51
270.000000
  0
CIRCLE
  8
0
 10
153.000000
 20
93.224762
 40
4.250000
  0
ARC
  8
0
 10
213.440369
 20
74.224792
 40
2.000000
 50
270.000000
 51
0.000000
  0
ARC
  8
0
 10
157.199951
 20
235.999741
 40
1.000000
 50
179.999130
 51
269.999115
  0
ARC
  8
0
 10
218.400238
 20
244.997910
 40
11.000000
 50
0.000000
 51
179.998642
  0
CIRCLE
  8
0
 10
50.999878
 20
239.000061
 40
2.750000
  0
CIRCLE
  8
0
 10
218.400238
 20
244.997910
 40
3.250000
  0
ARC
  8
0
 10
218.400238
 20
244.997910
 40
4.500000
 50
0.000000
 51
179.998642
  0
ARC
  8
0
 10
218.400238
 20
244.997910
 40
7.001755
 50
0.000000
 51
179.998627
  0
CIRCLE
  8
0
 10
485.447174
 20
245.000061
 40
3.500000
  0
ARC
  8
0
 10
485.447174
 20
245.000061
 40
14.000000
 50
0.000000
 51
179.999939
  0
CIRCLE
  8
0
 10
485.447174
 20
245.000061
 40
4.000000
  0
ARC
  8
0
 10
485.447174
 20
245.000061
 40
6.000000
 50
0.000000
 51
180.000000
  0
ARC
  8
0
 10
421.847198
 20
234.000061
 40
1.000000
 50
180.000000
 51
270.000000
  0
ARC
  8
0
 10
485.447174
 20
245.000061
 40
9.500031
 50
0.000000
 51
180.000000
  0
ARC
  8
0
 10
353.880737
 20
85.224762
 40
16.000000
 50
0.000000
 51
179.999969
  0
CIRCLE
  8
0
 10
353.880737
 20
85.224762
 40
4.250000
  0
ARC
  8
0
 10
279.940369
 20
73.224792
 40
1.000000
 50
180.000000
 51
270.000000
  0
CIRCLE
  8
0
 10
353.880737
 20
85.224762
 40
4.750000
  0
ARC
  8
0
 10
353.880737
 20
85.224762
 40
7.000000
 50
0.000000
 51
179.999939
  0
ARC
  8
0
 10
353.880737
 20
85.224762
 40
11.500000
 50
0.000000
 51
179.999969
  0
TEXT
  8
0
 10
422.460297
 20
345.487762
 40
6.000000
  1
DATE : JAN ,1992
 50
0.000000
 41
1.052631
 51
0.000000
  7
STANDARD
  0
TEXT
  8
0
 10
10.750001
 20
319.475342
 40
7.000000
  1
BORE : 16
 50
0.000000
 41
1.052632
 51
0.000000
  7
STANDARD
  0
TEXT
  8
0
 10
272.997223
 20
319.475342
 40
7.000000
  1
BORE : 20
 50
0.000000
 41
1.052632
 51
0.000000
  7
STANDARD
  0
TEXT
  8
0
 10
10.750001
 20
159.700043
 40
7.000000
  1
BORE : 25
 50
0.000000
 41
1.052632
 51
0.000000
  7
STANDARD
  0
TEXT
  8
0
 10
2.977783
 20
344.587769
 40
7.000000
  1
TWIN PORT FOOT MOUNT,-1B
 50
0.000000
 41
0.634115
 51
0.000000
  7
STANDARD
  0
TEXT
  8
0
 10
427.811859
 20
4.812350
 40
7.000000
  1
KOGANEI,CORP
 50
0.000000
 41
1.052632
 51
0.000000
  7
STANDARD
  0
ENDSEC
  0
EOF
