  0
SECTION
  2
HEADER
  0
ENDSEC
  0
SECTION
  2
TABLES
  0
TABLE
  2
LTYPE
 70
     4
  0
LTYPE
  2
CONTINUOUS
 70
    64
  3
Solid line
 72
    65
 73
     0
 40
0.000000
  0
LTYPE
  2
DASHED
 70
    64
  3
__ __ __ __ __ __ __ __ __ __ __ __ __ __ __
 72
    65
 73
     2
 40
3.500000
 49
2.000000
 49
-1.500000
  0
LTYPE
  2
CENTER
 70
    64
  3
____ _ ____ _ ____ _ ____ _ ____ _ ____ _ ____
 72
    65
 73
     4
 40
17.500000
 49
13.000000
 49
-1.500000
 49
1.500000
 49
-1.500000
  0
LTYPE
  2
PHANTOM
 70
    64
  3
_____ _ _ _____ _ _ _____ _ _ _____ _ _ ____  
 72
    65
 73
     6
 40
15.500000
 49
8.000000
 49
-1.500000
 49
1.500000
 49
-1.500000
 49
1.500000
 49
-1.500000
  0
LTYPE
  2
DASHED1
 70
    64
  3
__ __ __ __ __ __ __ __ __ __ __ __ __ __ __
 72
    65
 73
     2
 40
1.500000
 49
1.000000
 49
-0.500000
  0
LTYPE
  2
DASHED2
 70
    64
  3
__ __ __ __ __ __ __ __ __ __ __ __ __ __ __
 72
    65
 73
     2
 40
3.500000
 49
2.500000
 49
-1.000000
  0
LTYPE
  2
DASHED3
 70
    64
  3
__ __ __ __ __ __ __ __ __ __ __ __ __ __ __
 72
    65
 73
     2
 40
6.000000
 49
4.000000
 49
-2.000000
  0
LTYPE
  2
DASHED4
 70
    64
  3
__ __ __ __ __ __ __ __ __ __ __ __ __ __ __
 72
    65
 73
     2
 40
12.000000
 49
10.000000
 49
-2.000000
  0
LTYPE
  2
DASHED5
 70
    64
  3
__ __ __ __ __ __ __ __ __ __ __ __ __ __ __
 72
    65
 73
     2
 40
17.000000
 49
15.000000
 49
-2.000000
  0
LTYPE
  2
DASHED6
 70
    64
  3
__ __ __ __ __ __ __ __ __ __ __ __ __ __ __
 72
    65
 73
     2
 40
29.000000
 49
27.000000
 49
-2.000000
  0
LTYPE
  2
PHANTOM1
 70
    64
  3
_____ _ _ _____ _ _ _____ _ _ _____ _ _ ____  
 72
    65
 73
     6
 40
31.000000
 49
25.000000
 49
-1.500000
 49
1.000000
 49
-1.000000
 49
1.000000
 49
-1.500000
  0
LTYPE
  2
PHANTOM2
 70
    64
  3
_____ _ _ _____ _ _ _____ _ _ _____ _ _ ____  
 72
    65
 73
     6
 40
36.000000
 49
27.000000
 49
-1.500000
 49
2.500000
 49
-1.000000
 49
2.500000
 49
-1.500000
  0
LTYPE
  2
PHANTOM3
 70
    64
  3
_____ _ _ _____ _ _ _____ _ _ _____ _ _ ____  
 72
    65
 73
     6
 40
78.000000
 49
64.000000
 49
-2.000000
 49
4.000000
 49
-2.000000
 49
4.000000
 49
-2.000000
  0
LTYPE
  2
CENTER1
 70
    64
  3
____ _ ____ _ ____ _ ____ _ ____ _ ____ _ ____
 72
    65
 73
     4
 40
19.000000
 49
14.000000
 49
-1.000000
 49
3.000000
 49
-1.000000
  0
LTYPE
  2
CENTER2
 70
    64
  3
____ _ ____ _ ____ _ ____ _ ____ _ ____ _ ____
 72
    65
 73
     4
 40
28.500000
 49
25.000000
 49
-1.000000
 49
1.500000
 49
-1.000000
  0
LTYPE
  2
CENTER3
 70
    64
  3
____ _ ____ _ ____ _ ____ _ ____ _ ____ _ ____
 72
    65
 73
     4
 40
31.500000
 49
27.000000
 49
-1.000000
 49
2.500000
 49
-1.000000
  0
LTYPE
  2
CENTER4
 70
    64
  3
____ _ ____ _ ____ _ ____ _ ____ _ ____ _ ____
 72
    65
 73
     4
 40
50.000000
 49
45.000000
 49
-1.000000
 49
3.000000
 49
-1.000000
  0
LTYPE
  2
CENTER5
 70
    64
  3
____ _ ____ _ ____ _ ____ _ ____ _ ____ _ ____
 72
    65
 73
     4
 40
100.000000
 49
92.000000
 49
-2.000000
 49
4.000000
 49
-2.000000
  0
LTYPE
  2
SBK1
 70
    64
  3
______ _ _ _ ______ _ _ _ ______ _ _ _ _____  
 72
    65
 73
     8
 40
60.500000
 49
45.000000
 49
-2.000000
 49
2.500000
 49
-2.000000
 49
2.500000
 49
-2.000000
 49
2.500000
 49
-2.000000
  0
LTYPE
  2
SBK2
 70
    64
  3
______ _ _ _ ______ _ _ _ ______ _ _ _ _____  
 72
    65
 73
     8
 40
84.000000
 49
64.000000
 49
-2.000000
 49
4.000000
 49
-2.000000
 49
4.000000
 49
-2.000000
 49
4.000000
 49
-2.000000
  0
LTYPE
  2
STCH
 70
    64
  3
__ __ __ __ __ __ __ __ __ __ __ __ __ __ __
 72
    65
 73
     2
 40
3.000000
 49
1.000000
 49
-2.000000
  0
LTYPE
  2
MTCH
 70
    64
  3
_____ _ _ _____ _ _ _____ _ _ _____ _ _ ____  
 72
    65
 73
     6
 40
80.000000
 49
66.000000
 49
-2.000000
 49
4.000000
 49
-2.000000
 49
4.000000
 49
-2.000000
  0
ENDTAB
  0
TABLE
  2
LAYER
 70
     1
  0
LAYER
  2
0
 70
     0
 62
     7
  6
CONTINUOUS
  0
ENDTAB
  0
TABLE
  2
STYLE
 70
     1
  0
STYLE
  2
STANDARD
 70
     0
 40
0.000000
 41
1.000000
 50
0.000000
 71
     0
 42
0.200000
  3
txt
  4
BIGFONT
  0
ENDTAB
  0
TABLE
  2
VIEW
 70
     0
  0
ENDTAB
  0
ENDSEC
  0
SECTION
  2
BLOCKS
  0
ENDSEC
  0
SECTION
  2
ENTITIES
  0
POINT
  8
0
 10
52.436783
 20
122.279236
  0
POINT
  8
0
 10
63.436783
 20
122.279236
  0
POINT
  8
0
 10
162.436783
 20
122.279236
  0
POINT
  8
0
 10
228.436783
 20
122.279236
  0
POINT
  8
0
 10
287.436798
 20
122.279236
  0
POINT
  8
0
 10
298.436798
 20
122.279236
  0
LINE
  8
0
 62
     3
 10
0.000000
 20
0.000000
 11
0.000000
 21
254.558472
  0
LINE
  8
0
 62
     3
 10
370.873566
 20
254.558472
 11
370.873566
 21
0.000000
  0
LINE
  8
0
 62
     3
 10
0.000000
 20
0.000000
 11
370.873566
 21
0.000000
  0
LINE
  8
0
 62
     3
 10
0.000000
 20
254.558472
 11
370.873566
 21
254.558472
  0
LINE
  8
0
 62
     3
 10
0.000000
 20
240.257431
 11
76.272194
 21
240.257431
  0
LINE
  8
0
 62
     3
 10
76.272194
 20
240.257431
 11
76.272194
 21
254.558472
  0
LINE
  8
0
 62
     3
 10
294.601379
 20
14.301025
 11
370.873566
 21
14.301025
  0
LINE
  8
0
 62
     3
 10
294.601379
 20
240.257431
 11
370.873566
 21
240.257431
  0
LINE
  8
0
 62
     3
 10
294.601379
 20
254.558472
 11
294.601379
 21
240.257431
  0
LINE
  8
0
 62
     3
 10
294.601379
 20
14.301025
 11
294.601379
 21
0.000000
  0
LINE
  8
0
 10
162.436783
 20
133.279236
 11
162.436783
 21
111.279236
  0
LINE
  8
0
 10
228.436783
 20
131.779236
 11
228.436783
 21
112.779236
  0
LINE
  8
0
 10
136.436783
 20
124.279236
 11
136.436783
 21
120.279236
  0
LINE
  8
0
 10
162.436783
 20
133.279236
 11
170.436783
 21
133.279236
  0
LINE
  8
0
 10
162.436783
 20
111.279236
 11
170.436783
 21
111.279236
  0
LINE
  8
0
 10
170.436783
 20
133.279236
 11
170.436783
 21
111.279236
  0
LINE
  8
0
 10
222.436783
 20
131.779236
 11
222.436783
 21
112.779236
  0
LINE
  8
0
 10
161.436783
 20
126.279236
 11
161.436783
 21
118.279236
  0
LINE
  8
0
 10
161.436783
 20
126.279236
 11
162.436783
 21
126.279236
  0
LINE
  8
0
 10
161.436783
 20
118.279236
 11
162.436783
 21
118.279236
  0
LINE
  8
0
 10
137.436783
 20
125.279236
 11
141.660095
 21
125.279236
  0
LINE
  8
0
 10
137.436783
 20
119.279236
 11
141.660095
 21
119.279236
  0
LINE
  8
0
 10
151.436783
 20
125.279236
 11
151.436783
 21
119.279236
  0
LINE
  8
0
 10
136.936783
 20
119.779236
 11
141.660095
 21
119.779236
  0
LINE
  8
0
 10
136.936783
 20
124.779236
 11
141.660095
 21
124.779236
  0
LINE
  8
0
 10
151.436783
 20
124.779266
 11
152.302811
 21
125.279266
  0
LINE
  8
0
 10
151.436783
 20
119.779236
 11
152.302811
 21
119.279236
  0
LINE
  8
0
 10
137.436768
 20
119.279236
 11
136.436768
 21
120.279236
  0
LINE
  8
0
 10
137.436829
 20
125.279160
 11
136.436829
 21
124.279160
  0
LINE
  8
0
 10
137.436768
 20
119.279236
 11
137.436768
 21
125.279236
  0
LINE
  8
0
 10
170.436783
 20
112.779236
 11
228.436783
 21
112.779236
  0
LINE
  8
0
 10
170.436783
 20
131.779236
 11
228.436783
 21
131.779236
  0
LINE
  8
0
 10
142.106674
 20
128.052734
 11
146.213501
 21
128.052734
  0
LINE
  8
0
 10
141.660095
 20
127.279236
 11
141.660095
 21
117.279251
  0
LINE
  8
0
 10
146.660095
 20
127.279236
 11
146.660095
 21
117.279251
  0
LINE
  8
0
 10
146.660095
 20
124.779236
 11
151.436783
 21
124.779236
  0
LINE
  8
0
 10
146.660095
 20
125.279236
 11
161.436783
 21
125.279236
  0
LINE
  8
0
 10
146.660095
 20
119.779236
 11
151.436783
 21
119.779236
  0
LINE
  8
0
 10
146.660095
 20
119.279236
 11
161.436783
 21
119.279236
  0
LINE
  8
0
 10
141.660095
 20
127.279221
 11
142.106674
 21
128.052719
  0
LINE
  8
0
 10
146.660126
 20
127.279251
 11
146.213547
 21
128.052750
  0
LINE
  8
0
 10
142.106674
 20
125.165955
 11
146.213516
 21
125.165955
  0
LINE
  8
0
 10
142.106659
 20
119.392517
 11
146.213501
 21
119.392517
  0
LINE
  8
0
 10
146.660080
 20
117.279251
 11
146.213501
 21
116.505768
  0
LINE
  8
0
 10
142.106674
 20
116.505737
 11
146.213501
 21
116.505737
  0
LINE
  8
0
 10
141.660126
 20
117.279259
 11
142.106705
 21
116.505760
  0
LINE
  8
0
  6
CENTER
 10
133.436783
 20
122.279236
 11
231.436783
 21
122.279236
  0
LINE
  8
0
 10
47.436794
 20
119.392448
 11
52.436779
 21
116.505707
  0
LINE
  8
0
 10
52.436707
 20
116.505898
 11
57.436703
 21
119.392647
  0
LINE
  8
0
 10
57.436783
 20
119.392487
 11
57.436783
 21
125.165985
  0
LINE
  8
0
 10
57.436790
 20
125.165977
 11
52.436810
 21
128.052719
  0
LINE
  8
0
 10
52.436794
 20
128.052673
 11
47.436810
 21
125.165932
  0
LINE
  8
0
 10
47.436783
 20
125.165985
 11
47.436783
 21
119.392502
  0
LINE
  8
0
  6
CENTER
 10
38.436783
 20
122.279236
 11
66.436783
 21
122.279236
  0
LINE
  8
0
  6
CENTER
 10
52.436783
 20
136.279236
 11
52.436783
 21
108.279236
  0
LINE
  8
0
  6
CENTER
 10
43.936783
 20
128.279236
 11
48.936783
 21
128.279236
  0
LINE
  8
0
  6
CENTER
 10
46.436783
 20
130.779236
 11
46.436783
 21
125.779236
  0
LINE
  8
0
  6
CENTER
 10
46.436783
 20
118.779236
 11
46.436783
 21
113.779236
  0
LINE
  8
0
  6
CENTER
 10
43.936783
 20
116.279236
 11
48.936783
 21
116.279236
  0
LINE
  8
0
  6
CENTER
 10
55.936783
 20
116.279236
 11
60.936783
 21
116.279236
  0
LINE
  8
0
  6
CENTER
 10
58.436783
 20
118.779236
 11
58.436783
 21
113.779236
  0
LINE
  8
0
  6
CENTER
 10
58.436783
 20
130.779236
 11
58.436783
 21
125.779236
  0
LINE
  8
0
  6
CENTER
 10
55.936783
 20
128.279236
 11
60.936783
 21
128.279236
  0
LINE
  8
0
  6
CENTER
 10
281.936798
 20
124.779236
 11
281.936798
 21
119.779236
  0
LINE
  8
0
  6
CENTER
 10
273.436798
 20
122.279236
 11
301.436798
 21
122.279236
  0
LINE
  8
0
  6
CENTER
 10
283.936798
 20
127.779236
 11
290.936798
 21
127.779236
  0
LINE
  8
0
  6
CENTER
 10
287.436798
 20
136.279236
 11
287.436798
 21
108.279236
  0
LINE
  8
0
  6
CENTER
 10
292.936798
 20
124.779236
 11
292.936798
 21
119.779236
  0
LINE
  8
0
  6
CENTER
 10
283.936798
 20
116.779236
 11
290.936798
 21
116.779236
  0
LINE
  8
0
 10
139.548431
 20
119.279243
 11
132.042877
 21
106.279243
  0
LINE
  8
0
 10
137.427124
 20
117.157936
 11
139.548447
 21
119.279251
  0
LINE
  8
0
 10
138.771973
 20
116.381470
 11
139.548431
 21
119.279251
  0
LINE
  8
0
 10
115.891800
 20
106.279243
 11
132.042877
 21
106.279243
  0
LINE
  8
0
 10
59.186752
 20
129.578278
 11
69.983749
 21
148.279221
  0
LINE
  8
0
 10
59.186756
 20
129.578278
 11
61.308079
 21
131.699600
  0
LINE
  8
0
 10
59.186752
 20
129.578278
 11
59.963207
 21
132.476044
  0
LINE
  8
0
 10
69.983749
 20
148.279221
 11
99.983749
 21
148.279221
  0
LINE
  8
0
 10
288.686737
 20
129.944275
 11
302.159180
 21
153.279221
  0
LINE
  8
0
 10
293.686737
 20
123.578323
 11
302.174316
 21
138.279266
  0
LINE
  8
0
 10
293.686768
 20
123.578262
 11
295.808105
 21
125.699585
  0
LINE
  8
0
 10
288.686768
 20
129.944229
 11
290.808075
 21
132.065552
  0
LINE
  8
0
 10
293.686768
 20
123.578285
 11
294.463226
 21
126.476059
  0
LINE
  8
0
 10
288.686737
 20
129.944260
 11
289.463196
 21
132.842026
  0
LINE
  8
0
 10
302.159180
 20
153.279221
 11
332.159180
 21
153.279221
  0
LINE
  8
0
 10
302.174377
 20
138.279236
 11
332.174377
 21
138.279236
  0
ARC
  8
0
 10
144.104248
 20
126.609360
 40
2.555845
 50
325.616119
 51
34.384075
  0
ARC
  8
0
 10
151.213562
 20
122.279236
 40
9.553455
 50
162.412369
 51
197.587753
  0
ARC
  8
0
 10
144.215942
 20
117.949112
 40
2.555832
 50
145.615921
 51
214.383881
  0
ARC
  8
0
 10
144.104248
 20
117.949112
 40
2.555836
 50
325.615784
 51
34.383881
  0
ARC
  8
0
 10
137.106628
 20
122.279236
 40
9.553467
 50
342.412140
 51
17.587673
  0
ARC
  8
0
 10
144.215942
 20
126.609360
 40
2.555832
 50
145.615921
 51
214.383881
  0
CIRCLE
  8
0
 10
52.436783
 20
122.279236
 40
11.000000
  0
CIRCLE
  8
0
 10
52.436783
 20
122.279236
 40
5.000000
  0
CIRCLE
  8
0
 10
58.436783
 20
128.279236
 40
1.250000
  0
CIRCLE
  8
0
 10
46.436783
 20
128.279236
 40
1.250000
  0
CIRCLE
  8
0
 10
46.436783
 20
116.279236
 40
1.250000
  0
CIRCLE
  8
0
 10
58.436783
 20
116.279236
 40
1.250000
  0
CIRCLE
  8
0
 10
58.436783
 20
116.279236
 40
1.500000
  0
CIRCLE
  8
0
 10
58.436783
 20
128.279236
 40
1.500000
  0
CIRCLE
  8
0
 10
46.436783
 20
116.279236
 40
1.500000
  0
CIRCLE
  8
0
 10
46.436783
 20
128.279236
 40
1.500000
  0
CIRCLE
  8
0
 10
52.436783
 20
122.279236
 40
2.500000
  0
CIRCLE
  8
0
 10
52.436783
 20
122.279236
 40
3.000000
  0
CIRCLE
  8
0
 10
287.436798
 20
122.279236
 40
11.000000
  0
CIRCLE
  8
0
 10
287.436798
 20
122.279236
 40
9.500000
  0
CIRCLE
  8
0
 10
287.436798
 20
127.779236
 40
2.100000
  0
CIRCLE
  8
0
 10
287.436798
 20
116.779236
 40
2.100000
  0
CIRCLE
  8
0
 10
287.436798
 20
116.779236
 40
2.500000
  0
CIRCLE
  8
0
 10
287.436798
 20
127.779236
 40
2.500000
  0
CIRCLE
  8
0
 10
281.936798
 20
122.279236
 40
1.250000
  0
CIRCLE
  8
0
 10
292.936798
 20
122.279236
 40
1.250000
  0
CIRCLE
  8
0
 10
292.936798
 20
122.279236
 40
1.500000
  0
CIRCLE
  8
0
 10
281.936798
 20
122.279236
 40
1.500000
  0
TEXT
  8
0
 10
298.797760
 20
244.589584
 40
4.242641
  1
DATE : JAN ,1992
 50
0.000000
 41
1.052631
 51
0.000000
  7
STANDARD
  0
TEXT
  8
0
 10
2.257077
 20
243.907959
 40
5.000000
  1
TWIN PORT CYLINDER
 50
0.000000
 41
0.831919
 51
0.000000
  7
STANDARD
  0
TEXT
  8
0
 10
12.035715
 20
221.757431
 40
5.000000
  1
MODEL : TWDA 16xSt-HA(15)
 50
0.000000
 41
1.052632
 51
0.000000
  7
STANDARD
  0
TEXT
  8
0
 10
117.042877
 20
106.629242
 40
3.500000
  1
M6x1
 50
0.000000
 41
1.052632
 51
0.000000
  7
STANDARD
  0
TEXT
  8
0
 10
70.483749
 20
148.629242
 40
3.500000
  1
4-M3x0.5
 50
0.000000
 41
1.052632
 51
0.000000
  7
STANDARD
  0
TEXT
  8
0
 10
302.659210
 20
153.629242
 40
3.500000
  1
2-M5x0.8
 50
0.000000
 41
1.052632
 51
0.000000
  7
STANDARD
  0
TEXT
  8
0
 10
303.174347
 20
138.629272
 40
3.500000
  1
2-M3x0.5
 50
0.000000
 41
1.052632
 51
0.000000
  7
STANDARD
  0
TEXT
  8
0
 10
302.273193
 20
3.650512
 40
5.000000
  1
KOGANEI,CORP
 50
0.000000
 41
1.052632
 51
0.000000
  7
STANDARD
  0
ENDSEC
  0
EOF
