  0
SECTION
  2
HEADER
  0
ENDSEC
  0
SECTION
  2
TABLES
  0
TABLE
  2
LTYPE
 70
     4
  0
LTYPE
  2
CONTINUOUS
 70
    64
  3
Solid line
 72
    65
 73
     0
 40
0.000000
  0
LTYPE
  2
DASHED
 70
    64
  3
__ __ __ __ __ __ __ __ __ __ __ __ __ __ __
 72
    65
 73
     2
 40
3.500000
 49
2.000000
 49
-1.500000
  0
LTYPE
  2
CENTER
 70
    64
  3
____ _ ____ _ ____ _ ____ _ ____ _ ____ _ ____
 72
    65
 73
     4
 40
17.500000
 49
13.000000
 49
-1.500000
 49
1.500000
 49
-1.500000
  0
LTYPE
  2
PHANTOM
 70
    64
  3
_____ _ _ _____ _ _ _____ _ _ _____ _ _ ____  
 72
    65
 73
     6
 40
15.500000
 49
8.000000
 49
-1.500000
 49
1.500000
 49
-1.500000
 49
1.500000
 49
-1.500000
  0
LTYPE
  2
DASHED1
 70
    64
  3
__ __ __ __ __ __ __ __ __ __ __ __ __ __ __
 72
    65
 73
     2
 40
1.500000
 49
1.000000
 49
-0.500000
  0
LTYPE
  2
DASHED2
 70
    64
  3
__ __ __ __ __ __ __ __ __ __ __ __ __ __ __
 72
    65
 73
     2
 40
3.500000
 49
2.500000
 49
-1.000000
  0
LTYPE
  2
DASHED3
 70
    64
  3
__ __ __ __ __ __ __ __ __ __ __ __ __ __ __
 72
    65
 73
     2
 40
6.000000
 49
4.000000
 49
-2.000000
  0
LTYPE
  2
DASHED4
 70
    64
  3
__ __ __ __ __ __ __ __ __ __ __ __ __ __ __
 72
    65
 73
     2
 40
12.000000
 49
10.000000
 49
-2.000000
  0
LTYPE
  2
DASHED5
 70
    64
  3
__ __ __ __ __ __ __ __ __ __ __ __ __ __ __
 72
    65
 73
     2
 40
17.000000
 49
15.000000
 49
-2.000000
  0
LTYPE
  2
DASHED6
 70
    64
  3
__ __ __ __ __ __ __ __ __ __ __ __ __ __ __
 72
    65
 73
     2
 40
29.000000
 49
27.000000
 49
-2.000000
  0
LTYPE
  2
PHANTOM1
 70
    64
  3
_____ _ _ _____ _ _ _____ _ _ _____ _ _ ____  
 72
    65
 73
     6
 40
31.000000
 49
25.000000
 49
-1.500000
 49
1.000000
 49
-1.000000
 49
1.000000
 49
-1.500000
  0
LTYPE
  2
PHANTOM2
 70
    64
  3
_____ _ _ _____ _ _ _____ _ _ _____ _ _ ____  
 72
    65
 73
     6
 40
36.000000
 49
27.000000
 49
-1.500000
 49
2.500000
 49
-1.000000
 49
2.500000
 49
-1.500000
  0
LTYPE
  2
PHANTOM3
 70
    64
  3
_____ _ _ _____ _ _ _____ _ _ _____ _ _ ____  
 72
    65
 73
     6
 40
78.000000
 49
64.000000
 49
-2.000000
 49
4.000000
 49
-2.000000
 49
4.000000
 49
-2.000000
  0
LTYPE
  2
CENTER1
 70
    64
  3
____ _ ____ _ ____ _ ____ _ ____ _ ____ _ ____
 72
    65
 73
     4
 40
19.000000
 49
14.000000
 49
-1.000000
 49
3.000000
 49
-1.000000
  0
LTYPE
  2
CENTER2
 70
    64
  3
____ _ ____ _ ____ _ ____ _ ____ _ ____ _ ____
 72
    65
 73
     4
 40
28.500000
 49
25.000000
 49
-1.000000
 49
1.500000
 49
-1.000000
  0
LTYPE
  2
CENTER3
 70
    64
  3
____ _ ____ _ ____ _ ____ _ ____ _ ____ _ ____
 72
    65
 73
     4
 40
31.500000
 49
27.000000
 49
-1.000000
 49
2.500000
 49
-1.000000
  0
LTYPE
  2
CENTER4
 70
    64
  3
____ _ ____ _ ____ _ ____ _ ____ _ ____ _ ____
 72
    65
 73
     4
 40
50.000000
 49
45.000000
 49
-1.000000
 49
3.000000
 49
-1.000000
  0
LTYPE
  2
CENTER5
 70
    64
  3
____ _ ____ _ ____ _ ____ _ ____ _ ____ _ ____
 72
    65
 73
     4
 40
100.000000
 49
92.000000
 49
-2.000000
 49
4.000000
 49
-2.000000
  0
LTYPE
  2
SBK1
 70
    64
  3
______ _ _ _ ______ _ _ _ ______ _ _ _ _____  
 72
    65
 73
     8
 40
60.500000
 49
45.000000
 49
-2.000000
 49
2.500000
 49
-2.000000
 49
2.500000
 49
-2.000000
 49
2.500000
 49
-2.000000
  0
LTYPE
  2
SBK2
 70
    64
  3
______ _ _ _ ______ _ _ _ ______ _ _ _ _____  
 72
    65
 73
     8
 40
84.000000
 49
64.000000
 49
-2.000000
 49
4.000000
 49
-2.000000
 49
4.000000
 49
-2.000000
 49
4.000000
 49
-2.000000
  0
LTYPE
  2
STCH
 70
    64
  3
__ __ __ __ __ __ __ __ __ __ __ __ __ __ __
 72
    65
 73
     2
 40
3.000000
 49
1.000000
 49
-2.000000
  0
LTYPE
  2
MTCH
 70
    64
  3
_____ _ _ _____ _ _ _____ _ _ _____ _ _ ____  
 72
    65
 73
     6
 40
80.000000
 49
66.000000
 49
-2.000000
 49
4.000000
 49
-2.000000
 49
4.000000
 49
-2.000000
  0
ENDTAB
  0
TABLE
  2
LAYER
 70
     1
  0
LAYER
  2
0
 70
     0
 62
     7
  6
CONTINUOUS
  0
ENDTAB
  0
TABLE
  2
STYLE
 70
     1
  0
STYLE
  2
STANDARD
 70
     0
 40
0.000000
 41
1.000000
 50
0.000000
 71
     0
 42
0.200000
  3
txt
  4
BIGFONT
  0
ENDTAB
  0
TABLE
  2
VIEW
 70
     0
  0
ENDTAB
  0
ENDSEC
  0
SECTION
  2
BLOCKS
  0
ENDSEC
  0
SECTION
  2
ENTITIES
  0
POINT
  8
0
 10
50.436798
 20
122.279251
  0
POINT
  8
0
 10
61.936798
 20
122.279251
  0
POINT
  8
0
 10
155.436783
 20
122.279236
  0
POINT
  8
0
 10
231.436783
 20
122.279236
  0
POINT
  8
0
 10
295.436768
 20
122.279236
  0
POINT
  8
0
 10
306.936768
 20
122.279236
  0
LINE
  8
0
 62
     3
 10
0.000000
 20
0.000000
 11
0.000000
 21
254.558472
  0
LINE
  8
0
 62
     3
 10
370.873566
 20
254.558472
 11
370.873566
 21
0.000000
  0
LINE
  8
0
 62
     3
 10
0.000000
 20
0.000000
 11
370.873566
 21
0.000000
  0
LINE
  8
0
 62
     3
 10
0.000000
 20
254.558472
 11
370.873566
 21
254.558472
  0
LINE
  8
0
 62
     3
 10
0.000000
 20
240.257431
 11
76.272194
 21
240.257431
  0
LINE
  8
0
 62
     3
 10
76.272194
 20
240.257431
 11
76.272194
 21
254.558472
  0
LINE
  8
0
 62
     3
 10
294.601379
 20
14.301025
 11
370.873566
 21
14.301025
  0
LINE
  8
0
 62
     3
 10
294.601379
 20
240.257431
 11
370.873566
 21
240.257431
  0
LINE
  8
0
 62
     3
 10
294.601379
 20
254.558472
 11
294.601379
 21
240.257431
  0
LINE
  8
0
 62
     3
 10
294.601379
 20
14.301025
 11
294.601379
 21
0.000000
  0
LINE
  8
0
 10
134.934616
 20
125.279236
 11
134.934616
 21
119.279236
  0
LINE
  8
0
 10
129.436783
 20
124.279243
 11
129.436783
 21
120.279236
  0
LINE
  8
0
 10
231.436783
 20
131.779236
 11
231.436783
 21
112.779236
  0
LINE
  8
0
  6
CENTER
 10
126.436783
 20
122.279236
 11
234.436783
 21
122.279236
  0
LINE
  8
0
 10
165.436783
 20
133.779236
 11
165.436783
 21
110.779236
  0
LINE
  8
0
 10
173.436783
 20
133.779236
 11
173.436783
 21
110.779236
  0
LINE
  8
0
 10
165.436783
 20
133.779236
 11
173.436783
 21
133.779236
  0
LINE
  8
0
 10
165.436783
 20
110.779236
 11
173.436783
 21
110.779236
  0
LINE
  8
0
 10
155.436783
 20
133.279236
 11
165.436783
 21
133.279236
  0
LINE
  8
0
 10
155.436783
 20
111.279236
 11
165.436783
 21
111.279236
  0
LINE
  8
0
 10
225.436783
 20
131.779236
 11
225.436783
 21
112.779236
  0
LINE
  8
0
 10
173.436783
 20
112.779236
 11
231.436783
 21
112.779236
  0
LINE
  8
0
 10
173.436783
 20
131.779236
 11
231.436783
 21
131.779236
  0
LINE
  8
0
 10
154.436783
 20
126.279236
 11
154.436783
 21
118.279236
  0
LINE
  8
0
 10
154.436783
 20
126.279236
 11
155.436783
 21
126.279236
  0
LINE
  8
0
 10
154.436783
 20
118.279236
 11
155.436783
 21
118.279236
  0
LINE
  8
0
 10
130.436783
 20
125.279236
 11
134.934616
 21
125.279236
  0
LINE
  8
0
 10
130.436783
 20
119.279236
 11
134.934616
 21
119.279236
  0
LINE
  8
0
 10
129.936783
 20
119.779236
 11
134.934616
 21
119.779236
  0
LINE
  8
0
 10
129.936783
 20
124.779236
 11
134.934616
 21
124.779236
  0
LINE
  8
0
 10
130.436859
 20
125.279160
 11
129.436844
 21
124.279160
  0
LINE
  8
0
 10
130.436783
 20
119.279228
 11
129.436783
 21
120.279228
  0
LINE
  8
0
 10
130.436783
 20
125.279236
 11
130.436783
 21
119.279236
  0
LINE
  8
0
 10
144.436783
 20
125.279236
 11
144.436783
 21
119.279236
  0
LINE
  8
0
 10
144.436783
 20
119.779236
 11
145.302811
 21
119.279236
  0
LINE
  8
0
 10
144.436783
 20
124.779213
 11
145.302795
 21
125.279213
  0
LINE
  8
0
 10
134.934616
 20
127.279236
 11
134.934616
 21
117.279266
  0
LINE
  8
0
 10
139.934616
 20
119.779236
 11
144.436783
 21
119.779236
  0
LINE
  8
0
 10
139.934616
 20
119.279236
 11
154.436783
 21
119.279236
  0
LINE
  8
0
 10
139.934616
 20
124.779236
 11
144.436783
 21
124.779236
  0
LINE
  8
0
 10
139.934616
 20
125.279236
 11
154.436783
 21
125.279236
  0
LINE
  8
0
 10
135.381195
 20
128.052734
 11
139.488052
 21
128.052734
  0
LINE
  8
0
 10
134.934631
 20
127.279221
 11
135.381210
 21
128.052704
  0
LINE
  8
0
 10
135.381195
 20
125.165985
 11
139.488037
 21
125.165985
  0
LINE
  8
0
 10
139.934616
 20
127.279236
 11
139.934616
 21
117.279228
  0
LINE
  8
0
 10
139.934616
 20
127.279251
 11
139.488052
 21
128.052734
  0
LINE
  8
0
 10
135.381195
 20
119.392487
 11
139.488037
 21
119.392487
  0
LINE
  8
0
 10
134.934662
 20
117.279243
 11
135.381226
 21
116.505753
  0
LINE
  8
0
 10
135.381195
 20
116.505745
 11
139.488037
 21
116.505745
  0
LINE
  8
0
 10
139.934631
 20
117.279236
 11
139.488052
 21
116.505737
  0
LINE
  8
0
 10
155.436783
 20
133.279236
 11
155.436783
 21
111.279236
  0
LINE
  8
0
  6
CENTER
 10
165.936783
 20
127.779236
 11
172.936783
 21
127.779236
  0
LINE
  8
0
  6
CENTER
 10
169.436783
 20
131.279236
 11
169.436783
 21
124.279236
  0
LINE
  8
0
  6
CENTER
 10
169.436783
 20
120.279236
 11
169.436783
 21
113.279236
  0
LINE
  8
0
  6
CENTER
 10
165.936783
 20
116.779236
 11
172.936783
 21
116.779236
  0
LINE
  8
0
 10
61.936798
 20
133.779251
 11
61.936798
 21
110.779251
  0
LINE
  8
0
 10
50.436798
 20
133.779251
 11
61.936798
 21
133.779251
  0
LINE
  8
0
 10
50.436798
 20
110.779251
 11
61.936798
 21
110.779251
  0
LINE
  8
0
 10
45.436718
 20
119.392418
 11
50.436718
 21
116.505646
  0
LINE
  8
0
 10
50.436764
 20
116.505814
 11
55.436768
 21
119.392563
  0
LINE
  8
0
 10
55.436798
 20
119.392487
 11
55.436798
 21
125.165993
  0
LINE
  8
0
 10
55.436768
 20
125.165939
 11
50.436756
 21
128.052704
  0
LINE
  8
0
 10
50.436882
 20
128.052643
 11
45.436871
 21
125.165894
  0
LINE
  8
0
 10
45.436737
 20
125.166016
 11
45.436737
 21
119.392502
  0
LINE
  8
0
  6
CENTER
 10
35.936798
 20
122.279251
 11
64.936798
 21
122.279251
  0
LINE
  8
0
  6
CENTER
 10
50.436798
 20
136.779251
 11
50.436798
 21
107.779251
  0
LINE
  8
0
  6
CENTER
 10
41.936798
 20
128.279251
 11
46.936798
 21
128.279251
  0
LINE
  8
0
  6
CENTER
 10
44.436798
 20
130.779251
 11
44.436798
 21
125.779243
  0
LINE
  8
0
  6
CENTER
 10
44.436798
 20
118.779243
 11
44.436798
 21
113.779243
  0
LINE
  8
0
  6
CENTER
 10
41.936798
 20
116.279251
 11
46.936798
 21
116.279251
  0
LINE
  8
0
  6
CENTER
 10
53.936798
 20
116.279251
 11
58.936798
 21
116.279251
  0
LINE
  8
0
  6
CENTER
 10
56.436798
 20
118.779251
 11
56.436798
 21
113.779251
  0
LINE
  8
0
  6
CENTER
 10
56.436798
 20
130.779251
 11
56.436798
 21
125.779251
  0
LINE
  8
0
  6
CENTER
 10
53.936798
 20
128.279251
 11
58.936798
 21
128.279251
  0
LINE
  8
0
 10
283.936768
 20
133.779236
 11
283.936768
 21
110.779236
  0
LINE
  8
0
 10
283.936768
 20
133.779236
 11
295.436768
 21
133.779236
  0
LINE
  8
0
 10
283.936768
 20
110.779236
 11
295.436768
 21
110.779236
  0
LINE
  8
0
  6
CENTER
 10
295.436768
 20
136.779236
 11
295.436768
 21
107.779236
  0
LINE
  8
0
  6
CENTER
 10
280.936768
 20
122.279236
 11
309.936768
 21
122.279236
  0
LINE
  8
0
 10
132.685699
 20
119.279228
 11
124.891487
 21
105.779243
  0
LINE
  8
0
 10
170.686783
 20
129.944305
 11
181.561142
 21
148.779236
  0
LINE
  8
0
 10
170.686783
 20
129.944290
 11
171.463242
 21
132.842072
  0
LINE
  8
0
 10
170.686783
 20
129.944305
 11
172.808105
 21
132.065628
  0
LINE
  8
0
 10
130.564392
 20
117.157928
 11
132.685715
 21
119.279243
  0
LINE
  8
0
 10
131.909256
 20
116.381462
 11
132.685699
 21
119.279236
  0
LINE
  8
0
 10
108.734787
 20
105.779236
 11
124.891479
 21
105.779236
  0
LINE
  8
0
 10
181.561142
 20
148.779236
 11
211.561142
 21
148.779236
  0
LINE
  8
0
 10
57.186813
 20
129.578278
 11
68.272491
 21
148.779236
  0
LINE
  8
0
 10
57.186813
 20
129.578262
 11
57.963272
 21
132.476044
  0
LINE
  8
0
 10
57.186806
 20
129.578278
 11
59.308125
 21
131.699600
  0
LINE
  8
0
 10
68.272484
 20
148.779221
 11
97.475800
 21
148.779221
  0
LINE
  8
0
 10
296.186829
 20
123.578255
 11
310.736603
 21
148.779221
  0
LINE
  8
0
 10
296.186859
 20
123.578255
 11
298.308197
 21
125.699570
  0
LINE
  8
0
 10
296.186768
 20
123.578270
 11
296.963226
 21
126.476044
  0
LINE
  8
0
 10
310.736603
 20
148.779236
 11
333.207489
 21
148.779236
  0
CIRCLE
  8
0
 10
169.436783
 20
127.779236
 40
2.500000
  0
ARC
  8
0
 10
137.378769
 20
117.949120
 40
2.555845
 50
325.616119
 51
34.383739
  0
ARC
  8
0
 10
137.490463
 20
117.949120
 40
2.555845
 50
145.616119
 51
214.383743
  0
ARC
  8
0
 10
137.378769
 20
126.609360
 40
2.555840
 50
325.616272
 51
34.383881
  0
ARC
  8
0
 10
130.381073
 20
122.279236
 40
9.553552
 50
342.412354
 51
17.587683
  0
ARC
  8
0
 10
144.488159
 20
122.279236
 40
9.553554
 50
162.412323
 51
197.587631
  0
ARC
  8
0
 10
137.490463
 20
126.609360
 40
2.555845
 50
145.616119
 51
214.383743
  0
CIRCLE
  8
0
 10
169.436783
 20
127.779236
 40
2.100000
  0
CIRCLE
  8
0
 10
169.436783
 20
116.779236
 40
2.100000
  0
CIRCLE
  8
0
 10
169.436783
 20
116.779236
 40
2.500000
  0
ARC
  8
0
 10
50.436798
 20
122.279251
 40
11.500000
 50
89.999985
 51
270.000000
  0
CIRCLE
  8
0
 10
50.436798
 20
122.279251
 40
11.000000
  0
CIRCLE
  8
0
 10
56.436798
 20
116.279251
 40
1.250000
  0
CIRCLE
  8
0
 10
44.436798
 20
116.279243
 40
1.250000
  0
CIRCLE
  8
0
 10
44.436798
 20
128.279251
 40
1.250000
  0
CIRCLE
  8
0
 10
56.436798
 20
128.279251
 40
1.250000
  0
CIRCLE
  8
0
 10
56.436798
 20
128.279251
 40
1.500000
  0
CIRCLE
  8
0
 10
56.436798
 20
116.279251
 40
1.500000
  0
CIRCLE
  8
0
 10
44.436798
 20
116.279243
 40
1.500000
  0
CIRCLE
  8
0
 10
44.436798
 20
128.279251
 40
1.500000
  0
CIRCLE
  8
0
 10
50.436798
 20
122.279251
 40
2.500000
  0
CIRCLE
  8
0
 10
50.436798
 20
122.279251
 40
3.000000
  0
CIRCLE
  8
0
 10
50.436798
 20
122.279251
 40
5.000000
  0
CIRCLE
  8
0
 10
295.436768
 20
122.279236
 40
9.500000
  0
ARC
  8
0
 10
295.436768
 20
122.279236
 40
11.500000
 50
0.000000
 51
90.000000
  0
ARC
  8
0
 10
295.436768
 20
122.279236
 40
11.500000
 50
270.000000
 51
0.000000
  0
CIRCLE
  8
0
 10
295.436768
 20
122.279236
 40
1.250000
  0
CIRCLE
  8
0
 10
295.436768
 20
122.279236
 40
1.500000
  0
TEXT
  8
0
 10
298.797760
 20
244.589584
 40
4.242641
  1
DATE : JAN ,1992
 50
0.000000
 41
1.052631
 51
0.000000
  7
STANDARD
  0
TEXT
  8
0
 10
2.257077
 20
243.907959
 40
5.000000
  1
TWIN PORT CYLINDER
 50
0.000000
 41
0.831919
 51
0.000000
  7
STANDARD
  0
TEXT
  8
0
 10
12.035715
 20
221.757431
 40
5.000000
  1
MODEL : TWDA 16xSt-RA(15)
 50
0.000000
 41
1.052632
 51
0.000000
  7
STANDARD
  0
TEXT
  8
0
 10
109.891479
 20
106.129234
 40
3.500000
  1
M6x1
 50
0.000000
 41
1.052632
 51
0.000000
  7
STANDARD
  0
TEXT
  8
0
 10
182.561142
 20
149.129242
 40
3.500000
  1
2-M5x0.8
 50
0.000000
 41
1.052632
 51
0.000000
  7
STANDARD
  0
TEXT
  8
0
 10
68.772476
 20
149.129242
 40
3.500000
  1
4-M3x0.5
 50
0.000000
 41
1.052632
 51
0.000000
  7
STANDARD
  0
TEXT
  8
0
 10
311.236603
 20
149.129242
 40
3.500000
  1
M3x0.5
 50
0.000000
 41
1.052632
 51
0.000000
  7
STANDARD
  0
TEXT
  8
0
 10
302.273193
 20
3.650512
 40
5.000000
  1
KOGANEI,CORP
 50
0.000000
 41
1.052632
 51
0.000000
  7
STANDARD
  0
ENDSEC
  0
EOF
