  0
SECTION
  2
HEADER
  0
ENDSEC
  0
SECTION
  2
TABLES
  0
TABLE
  2
LTYPE
 70
     4
  0
LTYPE
  2
CONTINUOUS
 70
    64
  3
Solid line
 72
    65
 73
     0
 40
0.000000
  0
LTYPE
  2
DASHED
 70
    64
  3
__ __ __ __ __ __ __ __ __ __ __ __ __ __ __
 72
    65
 73
     2
 40
3.500000
 49
2.000000
 49
-1.500000
  0
LTYPE
  2
CENTER
 70
    64
  3
____ _ ____ _ ____ _ ____ _ ____ _ ____ _ ____
 72
    65
 73
     4
 40
17.500000
 49
13.000000
 49
-1.500000
 49
1.500000
 49
-1.500000
  0
LTYPE
  2
PHANTOM
 70
    64
  3
_____ _ _ _____ _ _ _____ _ _ _____ _ _ ____  
 72
    65
 73
     6
 40
15.500000
 49
8.000000
 49
-1.500000
 49
1.500000
 49
-1.500000
 49
1.500000
 49
-1.500000
  0
LTYPE
  2
DASHED1
 70
    64
  3
__ __ __ __ __ __ __ __ __ __ __ __ __ __ __
 72
    65
 73
     2
 40
1.500000
 49
1.000000
 49
-0.500000
  0
LTYPE
  2
DASHED2
 70
    64
  3
__ __ __ __ __ __ __ __ __ __ __ __ __ __ __
 72
    65
 73
     2
 40
3.500000
 49
2.500000
 49
-1.000000
  0
LTYPE
  2
DASHED3
 70
    64
  3
__ __ __ __ __ __ __ __ __ __ __ __ __ __ __
 72
    65
 73
     2
 40
6.000000
 49
4.000000
 49
-2.000000
  0
LTYPE
  2
DASHED4
 70
    64
  3
__ __ __ __ __ __ __ __ __ __ __ __ __ __ __
 72
    65
 73
     2
 40
12.000000
 49
10.000000
 49
-2.000000
  0
LTYPE
  2
DASHED5
 70
    64
  3
__ __ __ __ __ __ __ __ __ __ __ __ __ __ __
 72
    65
 73
     2
 40
17.000000
 49
15.000000
 49
-2.000000
  0
LTYPE
  2
DASHED6
 70
    64
  3
__ __ __ __ __ __ __ __ __ __ __ __ __ __ __
 72
    65
 73
     2
 40
29.000000
 49
27.000000
 49
-2.000000
  0
LTYPE
  2
PHANTOM1
 70
    64
  3
_____ _ _ _____ _ _ _____ _ _ _____ _ _ ____  
 72
    65
 73
     6
 40
31.000000
 49
25.000000
 49
-1.500000
 49
1.000000
 49
-1.000000
 49
1.000000
 49
-1.500000
  0
LTYPE
  2
PHANTOM2
 70
    64
  3
_____ _ _ _____ _ _ _____ _ _ _____ _ _ ____  
 72
    65
 73
     6
 40
36.000000
 49
27.000000
 49
-1.500000
 49
2.500000
 49
-1.000000
 49
2.500000
 49
-1.500000
  0
LTYPE
  2
PHANTOM3
 70
    64
  3
_____ _ _ _____ _ _ _____ _ _ _____ _ _ ____  
 72
    65
 73
     6
 40
78.000000
 49
64.000000
 49
-2.000000
 49
4.000000
 49
-2.000000
 49
4.000000
 49
-2.000000
  0
LTYPE
  2
CENTER1
 70
    64
  3
____ _ ____ _ ____ _ ____ _ ____ _ ____ _ ____
 72
    65
 73
     4
 40
19.000000
 49
14.000000
 49
-1.000000
 49
3.000000
 49
-1.000000
  0
LTYPE
  2
CENTER2
 70
    64
  3
____ _ ____ _ ____ _ ____ _ ____ _ ____ _ ____
 72
    65
 73
     4
 40
28.500000
 49
25.000000
 49
-1.000000
 49
1.500000
 49
-1.000000
  0
LTYPE
  2
CENTER3
 70
    64
  3
____ _ ____ _ ____ _ ____ _ ____ _ ____ _ ____
 72
    65
 73
     4
 40
31.500000
 49
27.000000
 49
-1.000000
 49
2.500000
 49
-1.000000
  0
LTYPE
  2
CENTER4
 70
    64
  3
____ _ ____ _ ____ _ ____ _ ____ _ ____ _ ____
 72
    65
 73
     4
 40
50.000000
 49
45.000000
 49
-1.000000
 49
3.000000
 49
-1.000000
  0
LTYPE
  2
CENTER5
 70
    64
  3
____ _ ____ _ ____ _ ____ _ ____ _ ____ _ ____
 72
    65
 73
     4
 40
100.000000
 49
92.000000
 49
-2.000000
 49
4.000000
 49
-2.000000
  0
LTYPE
  2
SBK1
 70
    64
  3
______ _ _ _ ______ _ _ _ ______ _ _ _ _____  
 72
    65
 73
     8
 40
60.500000
 49
45.000000
 49
-2.000000
 49
2.500000
 49
-2.000000
 49
2.500000
 49
-2.000000
 49
2.500000
 49
-2.000000
  0
LTYPE
  2
SBK2
 70
    64
  3
______ _ _ _ ______ _ _ _ ______ _ _ _ _____  
 72
    65
 73
     8
 40
84.000000
 49
64.000000
 49
-2.000000
 49
4.000000
 49
-2.000000
 49
4.000000
 49
-2.000000
 49
4.000000
 49
-2.000000
  0
LTYPE
  2
STCH
 70
    64
  3
__ __ __ __ __ __ __ __ __ __ __ __ __ __ __
 72
    65
 73
     2
 40
3.000000
 49
1.000000
 49
-2.000000
  0
LTYPE
  2
MTCH
 70
    64
  3
_____ _ _ _____ _ _ _____ _ _ _____ _ _ ____  
 72
    65
 73
     6
 40
80.000000
 49
66.000000
 49
-2.000000
 49
4.000000
 49
-2.000000
 49
4.000000
 49
-2.000000
  0
ENDTAB
  0
TABLE
  2
LAYER
 70
     1
  0
LAYER
  2
0
 70
     0
 62
     7
  6
CONTINUOUS
  0
ENDTAB
  0
TABLE
  2
STYLE
 70
     1
  0
STYLE
  2
STANDARD
 70
     0
 40
0.000000
 41
1.000000
 50
0.000000
 71
     0
 42
0.200000
  3
txt
  4
BIGFONT
  0
ENDTAB
  0
TABLE
  2
VIEW
 70
     0
  0
ENDTAB
  0
ENDSEC
  0
SECTION
  2
BLOCKS
  0
ENDSEC
  0
SECTION
  2
ENTITIES
  0
POINT
  8
0
 10
45.436768
 20
122.279243
  0
POINT
  8
0
 10
59.936768
 20
122.279243
  0
POINT
  8
0
 10
155.436798
 20
122.279236
  0
POINT
  8
0
 10
238.436798
 20
122.279236
  0
POINT
  8
0
 10
300.436798
 20
122.279243
  0
POINT
  8
0
 10
314.936798
 20
122.279243
  0
LINE
  8
0
 62
     3
 10
0.000000
 20
0.000000
 11
0.000000
 21
254.558472
  0
LINE
  8
0
 62
     3
 10
370.873566
 20
254.558472
 11
370.873566
 21
0.000000
  0
LINE
  8
0
 62
     3
 10
0.000000
 20
0.000000
 11
370.873566
 21
0.000000
  0
LINE
  8
0
 62
     3
 10
0.000000
 20
254.558472
 11
370.873566
 21
254.558472
  0
LINE
  8
0
 62
     3
 10
0.000000
 20
240.257431
 11
76.272194
 21
240.257431
  0
LINE
  8
0
 62
     3
 10
76.272194
 20
240.257431
 11
76.272194
 21
254.558472
  0
LINE
  8
0
 62
     3
 10
294.601379
 20
14.301025
 11
370.873566
 21
14.301025
  0
LINE
  8
0
 62
     3
 10
294.601379
 20
240.257431
 11
370.873566
 21
240.257431
  0
LINE
  8
0
 62
     3
 10
294.601379
 20
254.558472
 11
294.601379
 21
240.257431
  0
LINE
  8
0
 62
     3
 10
294.601379
 20
14.301025
 11
294.601379
 21
0.000000
  0
LINE
  8
0
 10
155.436798
 20
136.279236
 11
155.436798
 21
108.279236
  0
LINE
  8
0
 10
124.436790
 20
125.279236
 11
124.436790
 21
119.279236
  0
LINE
  8
0
 10
238.436798
 20
134.079239
 11
238.436798
 21
110.479240
  0
LINE
  8
0
 10
155.436798
 20
136.279236
 11
167.436798
 21
136.279236
  0
LINE
  8
0
 10
155.436798
 20
108.279236
 11
167.436798
 21
108.279236
  0
LINE
  8
0
 10
167.436798
 20
136.779236
 11
167.436798
 21
107.779236
  0
LINE
  8
0
 10
175.436798
 20
136.779236
 11
175.436798
 21
107.779236
  0
LINE
  8
0
 10
167.436798
 20
136.779236
 11
175.436798
 21
136.779236
  0
LINE
  8
0
 10
167.436798
 20
107.779236
 11
175.436798
 21
107.779236
  0
LINE
  8
0
 10
175.436798
 20
110.479240
 11
238.436798
 21
110.479240
  0
LINE
  8
0
 10
175.436798
 20
134.079239
 11
238.436798
 21
134.079239
  0
LINE
  8
0
 10
154.436798
 20
127.279236
 11
154.436798
 21
117.279236
  0
LINE
  8
0
 10
139.436798
 20
126.279236
 11
139.436798
 21
118.279236
  0
LINE
  8
0
 10
154.436798
 20
127.279236
 11
155.436798
 21
127.279236
  0
LINE
  8
0
 10
154.436798
 20
117.279236
 11
155.436798
 21
117.279236
  0
LINE
  8
0
 10
125.436790
 20
126.279236
 11
129.804474
 21
126.279236
  0
LINE
  8
0
 10
125.436790
 20
118.279236
 11
129.804474
 21
118.279236
  0
LINE
  8
0
 10
124.936798
 20
118.779236
 11
129.804474
 21
118.779236
  0
LINE
  8
0
 10
124.936790
 20
125.779236
 11
129.804474
 21
125.779236
  0
LINE
  8
0
 10
125.436813
 20
126.279213
 11
124.436806
 21
125.279213
  0
LINE
  8
0
 10
125.436806
 20
118.279236
 11
124.436806
 21
119.279236
  0
LINE
  8
0
 10
125.436790
 20
126.279236
 11
125.436790
 21
118.279236
  0
LINE
  8
0
 10
139.436798
 20
125.779198
 11
140.302826
 21
126.279205
  0
LINE
  8
0
 10
139.436783
 20
118.779236
 11
140.302811
 21
118.279236
  0
LINE
  8
0
 10
129.804474
 20
128.279236
 11
129.804474
 21
116.279289
  0
LINE
  8
0
 10
134.804474
 20
118.279236
 11
140.436798
 21
118.279236
  0
LINE
  8
0
 10
134.804474
 20
118.779236
 11
139.436798
 21
118.779236
  0
LINE
  8
0
 10
134.804474
 20
125.779236
 11
139.436798
 21
125.779236
  0
LINE
  8
0
 10
134.804474
 20
126.279236
 11
140.436798
 21
126.279236
  0
LINE
  8
0
 10
129.804443
 20
128.279236
 11
130.340347
 21
129.207443
  0
LINE
  8
0
 10
134.268585
 20
125.743340
 11
130.340363
 21
125.743340
  0
LINE
  8
0
 10
134.804474
 20
128.279236
 11
134.804474
 21
116.279152
  0
LINE
  8
0
 10
134.804489
 20
128.279251
 11
134.268600
 21
129.207443
  0
LINE
  8
0
 10
134.268585
 20
129.207443
 11
130.340347
 21
129.207443
  0
LINE
  8
0
 10
129.804504
 20
116.279259
 11
130.340408
 21
115.351051
  0
LINE
  8
0
 10
134.268585
 20
118.815132
 11
130.340363
 21
118.815132
  0
LINE
  8
0
 10
134.804535
 20
116.279198
 11
134.268631
 21
115.350983
  0
LINE
  8
0
 10
134.268585
 20
115.351036
 11
130.340393
 21
115.351036
  0
LINE
  8
0
 10
231.436798
 20
110.479240
 11
231.436798
 21
134.079239
  0
LINE
  8
0
 10
141.436798
 20
125.279236
 11
146.436798
 21
125.279236
  0
LINE
  8
0
 10
141.436798
 20
119.279236
 11
146.436798
 21
119.279236
  0
LINE
  8
0
 10
147.436798
 20
126.279236
 11
154.436798
 21
126.279236
  0
LINE
  8
0
 10
147.436798
 20
118.279236
 11
154.436798
 21
118.279236
  0
LINE
  8
0
 10
140.436783
 20
126.279236
 11
141.436783
 21
125.279236
  0
LINE
  8
0
 10
146.436783
 20
125.279213
 11
147.436783
 21
126.279213
  0
LINE
  8
0
 10
146.436798
 20
119.279243
 11
147.436798
 21
118.279243
  0
LINE
  8
0
 10
141.436783
 20
119.279236
 11
140.436783
 21
118.279236
  0
LINE
  8
0
  6
CENTER
 10
121.436790
 20
122.279236
 11
241.436798
 21
122.279236
  0
LINE
  8
0
  6
CENTER
 10
171.436798
 20
132.279236
 11
171.436798
 21
125.279236
  0
LINE
  8
0
  6
CENTER
 10
167.936798
 20
128.779236
 11
174.936798
 21
128.779236
  0
LINE
  8
0
  6
CENTER
 10
171.436798
 20
119.279236
 11
171.436798
 21
112.279236
  0
LINE
  8
0
  6
CENTER
 10
167.936798
 20
115.779236
 11
174.936798
 21
115.779236
  0
LINE
  8
0
 10
127.620628
 20
118.279228
 11
118.671700
 21
102.779228
  0
LINE
  8
0
 10
172.686783
 20
130.944305
 11
184.715851
 21
151.779251
  0
LINE
  8
0
 10
172.686783
 20
130.944290
 11
173.463242
 21
133.842072
  0
LINE
  8
0
 10
172.686783
 20
130.944305
 11
174.808105
 21
133.065628
  0
LINE
  8
0
 10
125.499306
 20
116.157921
 11
127.620621
 21
118.279243
  0
LINE
  8
0
 10
126.844170
 20
115.381454
 11
127.620621
 21
118.279236
  0
LINE
  8
0
 10
102.445984
 20
102.779228
 11
118.671692
 21
102.779228
  0
LINE
  8
0
 10
184.715836
 20
151.779236
 11
214.715851
 21
151.779236
  0
LINE
  8
0
 10
59.936768
 20
136.779236
 11
59.936768
 21
107.779243
  0
LINE
  8
0
 10
45.436768
 20
136.779236
 11
59.936768
 21
136.779236
  0
LINE
  8
0
 10
45.436768
 20
107.779243
 11
59.936768
 21
107.779243
  0
LINE
  8
0
 10
39.436733
 20
118.815170
 11
45.436752
 21
115.351059
  0
LINE
  8
0
 10
45.436749
 20
115.351036
 11
51.436752
 21
118.815132
  0
LINE
  8
0
 10
51.436768
 20
118.815125
 11
51.436768
 21
125.743347
  0
LINE
  8
0
 10
51.436764
 20
125.743347
 11
45.436745
 21
129.207458
  0
LINE
  8
0
 10
45.436810
 20
129.207443
 11
39.436794
 21
125.743324
  0
LINE
  8
0
 10
39.436768
 20
125.743362
 11
39.436768
 21
118.815140
  0
LINE
  8
0
  6
CENTER
 10
28.436768
 20
122.279243
 11
62.436768
 21
122.279243
  0
LINE
  8
0
  6
CENTER
 10
45.436768
 20
139.279236
 11
45.436768
 21
105.279243
  0
LINE
  8
0
  6
CENTER
 10
35.436768
 20
115.279243
 11
41.436768
 21
115.279243
  0
LINE
  8
0
  6
CENTER
 10
38.436768
 20
118.279243
 11
38.436768
 21
112.279243
  0
LINE
  8
0
  6
CENTER
 10
35.436768
 20
129.279236
 11
41.436768
 21
129.279236
  0
LINE
  8
0
  6
CENTER
 10
38.436768
 20
132.279236
 11
38.436768
 21
126.279243
  0
LINE
  8
0
  6
CENTER
 10
52.436768
 20
132.279236
 11
52.436768
 21
126.279243
  0
LINE
  8
0
  6
CENTER
 10
49.436768
 20
129.279236
 11
55.436768
 21
129.279236
  0
LINE
  8
0
  6
CENTER
 10
52.436768
 20
118.279243
 11
52.436768
 21
112.279243
  0
LINE
  8
0
  6
CENTER
 10
49.436768
 20
115.279243
 11
55.436768
 21
115.279243
  0
LINE
  8
0
 10
53.436810
 20
131.011307
 11
65.427185
 21
151.779251
  0
LINE
  8
0
 10
53.436840
 20
131.011261
 11
54.213299
 21
133.909042
  0
LINE
  8
0
 10
53.436825
 20
131.011276
 11
55.558144
 21
133.132599
  0
LINE
  8
0
 10
65.427208
 20
151.779221
 11
95.427208
 21
151.779221
  0
LINE
  8
0
 10
285.936798
 20
136.779236
 11
285.936798
 21
107.779243
  0
LINE
  8
0
 10
285.936798
 20
136.779236
 11
300.436798
 21
136.779236
  0
LINE
  8
0
 10
285.936798
 20
107.779243
 11
300.436798
 21
107.779243
  0
LINE
  8
0
  6
CENTER
 10
283.436798
 20
122.279243
 11
317.436798
 21
122.279243
  0
LINE
  8
0
  6
CENTER
 10
300.436798
 20
139.279236
 11
300.436798
 21
105.279243
  0
LINE
  8
0
 10
301.436859
 20
124.011276
 11
317.468689
 21
151.779221
  0
LINE
  8
0
 10
301.436859
 20
124.011276
 11
302.213318
 21
126.909050
  0
LINE
  8
0
 10
301.436890
 20
124.011284
 11
303.558197
 21
126.132607
  0
LINE
  8
0
 10
317.468689
 20
151.779236
 11
340.568878
 21
151.779236
  0
CIRCLE
  8
0
 10
171.436798
 20
128.779236
 40
2.500000
  0
CIRCLE
  8
0
 10
171.436798
 20
115.779236
 40
2.500000
  0
ARC
  8
0
 10
131.737488
 20
117.083084
 40
3.066993
 50
325.615875
 51
34.384113
  0
ARC
  8
0
 10
132.871460
 20
117.083084
 40
3.066993
 50
145.615891
 51
214.384109
  0
ARC
  8
0
 10
131.737488
 20
127.475388
 40
3.066993
 50
325.615875
 51
34.384232
  0
ARC
  8
0
 10
123.340324
 20
122.279236
 40
11.464157
 50
342.412109
 51
17.587841
  0
ARC
  8
0
 10
141.268616
 20
122.279236
 40
11.464149
 50
162.412109
 51
197.587845
  0
ARC
  8
0
 10
132.871460
 20
127.475388
 40
3.066997
 50
145.615768
 51
214.384109
  0
CIRCLE
  8
0
 10
171.436798
 20
128.779236
 40
2.100000
  0
CIRCLE
  8
0
 10
171.436798
 20
115.779236
 40
2.100000
  0
ARC
  8
0
 10
45.436768
 20
122.279243
 40
14.499992
 50
89.999985
 51
270.000000
  0
CIRCLE
  8
0
 10
45.436768
 20
122.279243
 40
14.000000
  0
CIRCLE
  8
0
 10
38.436768
 20
129.279236
 40
1.650000
  0
CIRCLE
  8
0
 10
38.436768
 20
115.279243
 40
1.650000
  0
CIRCLE
  8
0
 10
52.436768
 20
115.279243
 40
1.650000
  0
CIRCLE
  8
0
 10
52.436768
 20
129.279236
 40
1.650000
  0
CIRCLE
  8
0
 10
52.436768
 20
129.279236
 40
2.000000
  0
CIRCLE
  8
0
 10
52.436768
 20
115.279243
 40
2.000000
  0
CIRCLE
  8
0
 10
38.436768
 20
115.279243
 40
2.000000
  0
CIRCLE
  8
0
 10
38.436768
 20
129.279236
 40
2.000000
  0
CIRCLE
  8
0
 10
45.436768
 20
122.279243
 40
3.500000
  0
CIRCLE
  8
0
 10
45.436768
 20
122.279243
 40
4.000000
  0
CIRCLE
  8
0
 10
45.436768
 20
122.279243
 40
6.000000
  0
ARC
  8
0
 10
300.436798
 20
122.279243
 40
14.500000
 50
0.000000
 51
90.000000
  0
CIRCLE
  8
0
 10
300.436798
 20
122.279243
 40
11.800000
  0
CIRCLE
  8
0
 10
300.436798
 20
122.279243
 40
1.650000
  0
CIRCLE
  8
0
 10
300.436798
 20
122.279243
 40
2.000000
  0
ARC
  8
0
 10
300.436798
 20
122.279243
 40
14.500000
 50
270.000000
 51
0.000000
  0
TEXT
  8
0
 10
298.797760
 20
244.589584
 40
4.242641
  1
DATE : JAN ,1992
 50
0.000000
 41
1.052631
 51
0.000000
  7
STANDARD
  0
TEXT
  8
0
 10
2.257077
 20
243.907959
 40
5.000000
  1
TWIN PORT CYLINDER
 50
0.000000
 41
0.831919
 51
0.000000
  7
STANDARD
  0
TEXT
  8
0
 10
12.035715
 20
221.757431
 40
5.000000
  1
MODEL : TWDA 20xSt-RA(15)
 50
0.000000
 41
1.052632
 51
0.000000
  7
STANDARD
  0
TEXT
  8
0
 10
185.715836
 20
152.129242
 40
3.500000
  1
2-M5x0.8
 50
0.000000
 41
1.052632
 51
0.000000
  7
STANDARD
  0
TEXT
  8
0
 10
103.671692
 20
103.129227
 40
3.500000
  1
M8x1
 50
0.000000
 41
1.052632
 51
0.000000
  7
STANDARD
  0
TEXT
  8
0
 10
65.927208
 20
152.129227
 40
3.500000
  1
4-M4x0.7
 50
0.000000
 41
1.052632
 51
0.000000
  7
STANDARD
  0
TEXT
  8
0
 10
318.468689
 20
152.129242
 40
3.500000
  1
M4x0.7
 50
0.000000
 41
1.052632
 51
0.000000
  7
STANDARD
  0
TEXT
  8
0
 10
302.273193
 20
3.650512
 40
5.000000
  1
KOGANEI,CORP
 50
0.000000
 41
1.052632
 51
0.000000
  7
STANDARD
  0
ENDSEC
  0
EOF
