  0
SECTION
  2
HEADER
  0
ENDSEC
  0
SECTION
  2
TABLES
  0
TABLE
  2
LTYPE
 70
     4
  0
LTYPE
  2
CONTINUOUS
 70
    64
  3
Solid line
 72
    65
 73
     0
 40
0.000000
  0
LTYPE
  2
DASHED
 70
    64
  3
__ __ __ __ __ __ __ __ __ __ __ __ __ __ __
 72
    65
 73
     2
 40
3.500000
 49
2.000000
 49
-1.500000
  0
LTYPE
  2
CENTER
 70
    64
  3
____ _ ____ _ ____ _ ____ _ ____ _ ____ _ ____
 72
    65
 73
     4
 40
17.500000
 49
13.000000
 49
-1.500000
 49
1.500000
 49
-1.500000
  0
LTYPE
  2
PHANTOM
 70
    64
  3
_____ _ _ _____ _ _ _____ _ _ _____ _ _ ____  
 72
    65
 73
     6
 40
15.500000
 49
8.000000
 49
-1.500000
 49
1.500000
 49
-1.500000
 49
1.500000
 49
-1.500000
  0
LTYPE
  2
DASHED1
 70
    64
  3
__ __ __ __ __ __ __ __ __ __ __ __ __ __ __
 72
    65
 73
     2
 40
1.500000
 49
1.000000
 49
-0.500000
  0
LTYPE
  2
DASHED2
 70
    64
  3
__ __ __ __ __ __ __ __ __ __ __ __ __ __ __
 72
    65
 73
     2
 40
3.500000
 49
2.500000
 49
-1.000000
  0
LTYPE
  2
DASHED3
 70
    64
  3
__ __ __ __ __ __ __ __ __ __ __ __ __ __ __
 72
    65
 73
     2
 40
6.000000
 49
4.000000
 49
-2.000000
  0
LTYPE
  2
DASHED4
 70
    64
  3
__ __ __ __ __ __ __ __ __ __ __ __ __ __ __
 72
    65
 73
     2
 40
12.000000
 49
10.000000
 49
-2.000000
  0
LTYPE
  2
DASHED5
 70
    64
  3
__ __ __ __ __ __ __ __ __ __ __ __ __ __ __
 72
    65
 73
     2
 40
17.000000
 49
15.000000
 49
-2.000000
  0
LTYPE
  2
DASHED6
 70
    64
  3
__ __ __ __ __ __ __ __ __ __ __ __ __ __ __
 72
    65
 73
     2
 40
29.000000
 49
27.000000
 49
-2.000000
  0
LTYPE
  2
PHANTOM1
 70
    64
  3
_____ _ _ _____ _ _ _____ _ _ _____ _ _ ____  
 72
    65
 73
     6
 40
31.000000
 49
25.000000
 49
-1.500000
 49
1.000000
 49
-1.000000
 49
1.000000
 49
-1.500000
  0
LTYPE
  2
PHANTOM2
 70
    64
  3
_____ _ _ _____ _ _ _____ _ _ _____ _ _ ____  
 72
    65
 73
     6
 40
36.000000
 49
27.000000
 49
-1.500000
 49
2.500000
 49
-1.000000
 49
2.500000
 49
-1.500000
  0
LTYPE
  2
PHANTOM3
 70
    64
  3
_____ _ _ _____ _ _ _____ _ _ _____ _ _ ____  
 72
    65
 73
     6
 40
78.000000
 49
64.000000
 49
-2.000000
 49
4.000000
 49
-2.000000
 49
4.000000
 49
-2.000000
  0
LTYPE
  2
CENTER1
 70
    64
  3
____ _ ____ _ ____ _ ____ _ ____ _ ____ _ ____
 72
    65
 73
     4
 40
19.000000
 49
14.000000
 49
-1.000000
 49
3.000000
 49
-1.000000
  0
LTYPE
  2
CENTER2
 70
    64
  3
____ _ ____ _ ____ _ ____ _ ____ _ ____ _ ____
 72
    65
 73
     4
 40
28.500000
 49
25.000000
 49
-1.000000
 49
1.500000
 49
-1.000000
  0
LTYPE
  2
CENTER3
 70
    64
  3
____ _ ____ _ ____ _ ____ _ ____ _ ____ _ ____
 72
    65
 73
     4
 40
31.500000
 49
27.000000
 49
-1.000000
 49
2.500000
 49
-1.000000
  0
LTYPE
  2
CENTER4
 70
    64
  3
____ _ ____ _ ____ _ ____ _ ____ _ ____ _ ____
 72
    65
 73
     4
 40
50.000000
 49
45.000000
 49
-1.000000
 49
3.000000
 49
-1.000000
  0
LTYPE
  2
CENTER5
 70
    64
  3
____ _ ____ _ ____ _ ____ _ ____ _ ____ _ ____
 72
    65
 73
     4
 40
100.000000
 49
92.000000
 49
-2.000000
 49
4.000000
 49
-2.000000
  0
LTYPE
  2
SBK1
 70
    64
  3
______ _ _ _ ______ _ _ _ ______ _ _ _ _____  
 72
    65
 73
     8
 40
60.500000
 49
45.000000
 49
-2.000000
 49
2.500000
 49
-2.000000
 49
2.500000
 49
-2.000000
 49
2.500000
 49
-2.000000
  0
LTYPE
  2
SBK2
 70
    64
  3
______ _ _ _ ______ _ _ _ ______ _ _ _ _____  
 72
    65
 73
     8
 40
84.000000
 49
64.000000
 49
-2.000000
 49
4.000000
 49
-2.000000
 49
4.000000
 49
-2.000000
 49
4.000000
 49
-2.000000
  0
LTYPE
  2
STCH
 70
    64
  3
__ __ __ __ __ __ __ __ __ __ __ __ __ __ __
 72
    65
 73
     2
 40
3.000000
 49
1.000000
 49
-2.000000
  0
LTYPE
  2
MTCH
 70
    64
  3
_____ _ _ _____ _ _ _____ _ _ _____ _ _ ____  
 72
    65
 73
     6
 40
80.000000
 49
66.000000
 49
-2.000000
 49
4.000000
 49
-2.000000
 49
4.000000
 49
-2.000000
  0
ENDTAB
  0
TABLE
  2
LAYER
 70
     1
  0
LAYER
  2
0
 70
     0
 62
     7
  6
CONTINUOUS
  0
ENDTAB
  0
TABLE
  2
STYLE
 70
     1
  0
STYLE
  2
STANDARD
 70
     0
 40
0.000000
 41
1.000000
 50
0.000000
 71
     0
 42
0.200000
  3
txt
  4
BIGFONT
  0
ENDTAB
  0
TABLE
  2
VIEW
 70
     0
  0
ENDTAB
  0
ENDSEC
  0
SECTION
  2
BLOCKS
  0
ENDSEC
  0
SECTION
  2
ENTITIES
  0
POINT
  8
0
 10
45.436737
 20
122.279221
  0
POINT
  8
0
 10
59.436737
 20
122.279221
  0
POINT
  8
0
 10
155.436783
 20
122.279236
  0
POINT
  8
0
 10
242.436798
 20
122.279236
  0
POINT
  8
0
 10
310.436829
 20
122.279243
  0
POINT
  8
0
 10
324.436829
 20
122.279243
  0
LINE
  8
0
 62
     3
 10
0.000000
 20
0.000000
 11
0.000000
 21
254.558472
  0
LINE
  8
0
 62
     3
 10
370.873566
 20
254.558472
 11
370.873566
 21
0.000000
  0
LINE
  8
0
 62
     3
 10
0.000000
 20
0.000000
 11
370.873566
 21
0.000000
  0
LINE
  8
0
 62
     3
 10
0.000000
 20
254.558472
 11
370.873566
 21
254.558472
  0
LINE
  8
0
 62
     3
 10
0.000000
 20
240.257431
 11
76.272194
 21
240.257431
  0
LINE
  8
0
 62
     3
 10
76.272194
 20
240.257431
 11
76.272194
 21
254.558472
  0
LINE
  8
0
 62
     3
 10
294.601379
 20
14.301025
 11
370.873566
 21
14.301025
  0
LINE
  8
0
 62
     3
 10
294.601379
 20
240.257431
 11
370.873566
 21
240.257431
  0
LINE
  8
0
 62
     3
 10
294.601379
 20
254.558472
 11
294.601379
 21
240.257431
  0
LINE
  8
0
 62
     3
 10
294.601379
 20
14.301025
 11
294.601379
 21
0.000000
  0
LINE
  8
0
 10
155.436783
 20
141.279236
 11
155.436783
 21
103.279236
  0
LINE
  8
0
 10
128.436798
 20
125.279236
 11
128.436798
 21
119.279236
  0
LINE
  8
0
 10
242.436798
 20
134.079239
 11
242.436798
 21
110.479233
  0
LINE
  8
0
 10
155.436783
 20
141.279236
 11
179.436783
 21
141.279236
  0
LINE
  8
0
 10
155.436783
 20
103.279236
 11
179.436783
 21
103.279236
  0
LINE
  8
0
 10
179.436783
 20
141.279236
 11
179.436783
 21
103.279236
  0
LINE
  8
0
 10
155.436783
 20
104.665321
 11
179.436783
 21
104.665321
  0
LINE
  8
0
 10
155.436783
 20
139.893143
 11
179.436783
 21
139.893143
  0
LINE
  8
0
 10
154.436783
 20
127.279236
 11
154.436783
 21
117.279236
  0
LINE
  8
0
 10
154.436783
 20
127.279236
 11
155.436783
 21
127.279236
  0
LINE
  8
0
 10
154.436783
 20
117.279236
 11
155.436783
 21
117.279236
  0
LINE
  8
0
 10
129.436798
 20
126.279236
 11
134.200455
 21
126.279236
  0
LINE
  8
0
 10
129.436798
 20
118.279236
 11
134.200455
 21
118.279236
  0
LINE
  8
0
 10
129.436783
 20
126.279228
 11
128.436783
 21
125.279228
  0
LINE
  8
0
 10
129.436798
 20
118.279236
 11
128.436798
 21
119.279236
  0
LINE
  8
0
 10
143.436798
 20
126.279236
 11
143.436798
 21
118.279236
  0
LINE
  8
0
 10
143.436798
 20
125.779190
 11
144.302811
 21
126.279190
  0
LINE
  8
0
 10
143.436798
 20
118.779228
 11
144.302811
 21
118.279228
  0
LINE
  8
0
 10
129.436798
 20
126.279236
 11
129.436798
 21
118.279236
  0
LINE
  8
0
 10
134.200455
 20
128.279236
 11
134.200455
 21
116.279228
  0
LINE
  8
0
 10
139.200455
 20
118.279236
 11
144.436798
 21
118.279236
  0
LINE
  8
0
 10
139.200455
 20
126.279236
 11
144.436798
 21
126.279236
  0
LINE
  8
0
 10
134.200439
 20
128.279251
 11
134.736343
 21
129.207443
  0
LINE
  8
0
 10
138.664551
 20
125.743332
 11
134.736359
 21
125.743332
  0
LINE
  8
0
 10
143.436798
 20
125.779236
 11
139.200455
 21
125.779236
  0
LINE
  8
0
 10
139.200455
 20
128.279236
 11
139.200455
 21
116.279228
  0
LINE
  8
0
 10
139.200455
 20
128.279236
 11
138.664551
 21
129.207443
  0
LINE
  8
0
 10
138.664551
 20
129.207428
 11
134.736359
 21
129.207428
  0
LINE
  8
0
 10
128.936798
 20
118.779236
 11
134.200455
 21
118.779236
  0
LINE
  8
0
 10
134.200455
 20
116.279228
 11
134.736359
 21
115.351028
  0
LINE
  8
0
 10
138.664551
 20
118.815140
 11
134.736359
 21
118.815140
  0
LINE
  8
0
 10
143.436798
 20
118.779236
 11
139.200455
 21
118.779236
  0
LINE
  8
0
 10
139.200455
 20
116.279213
 11
138.664551
 21
115.351013
  0
LINE
  8
0
 10
138.664551
 20
115.351036
 11
134.736359
 21
115.351036
  0
LINE
  8
0
 10
128.936798
 20
125.779236
 11
134.200455
 21
125.779236
  0
LINE
  8
0
 10
179.436783
 20
110.479233
 11
242.436798
 21
110.479233
  0
LINE
  8
0
 10
179.436783
 20
134.079239
 11
242.436798
 21
134.079239
  0
LINE
  8
0
 10
235.436798
 20
110.479233
 11
235.436798
 21
134.079239
  0
LINE
  8
0
 10
145.436798
 20
119.279236
 11
150.436798
 21
119.279236
  0
LINE
  8
0
 10
145.436798
 20
125.279236
 11
150.436798
 21
125.279236
  0
LINE
  8
0
 10
151.436798
 20
126.279236
 11
154.436783
 21
126.279236
  0
LINE
  8
0
 10
151.436798
 20
118.279236
 11
154.436783
 21
118.279236
  0
LINE
  8
0
 10
144.436783
 20
118.279236
 11
145.436783
 21
119.279236
  0
LINE
  8
0
 10
151.436798
 20
126.279236
 11
150.436798
 21
125.279236
  0
LINE
  8
0
 10
151.436783
 20
118.279221
 11
150.436783
 21
119.279221
  0
LINE
  8
0
 10
144.436783
 20
126.279221
 11
145.436783
 21
125.279221
  0
LINE
  8
0
  6
CENTER
 10
125.436790
 20
122.279236
 11
245.436798
 21
122.279236
  0
LINE
  8
0
  6
CENTER
 10
168.436783
 20
128.779236
 11
178.436783
 21
128.779236
  0
LINE
  8
0
  6
CENTER
 10
173.436783
 20
133.779236
 11
173.436783
 21
123.779236
  0
LINE
  8
0
  6
CENTER
 10
173.436783
 20
120.779236
 11
173.436783
 21
110.779236
  0
LINE
  8
0
  6
CENTER
 10
168.436783
 20
115.779236
 11
178.436783
 21
115.779236
  0
LINE
  8
0
  6
CENTER
 10
162.436783
 20
117.779236
 11
162.436783
 21
104.779236
  0
LINE
  8
0
  6
CENTER
 10
155.936783
 20
111.279236
 11
168.936783
 21
111.279236
  0
LINE
  8
0
  6
CENTER
 10
162.436783
 20
139.779236
 11
162.436783
 21
126.779236
  0
LINE
  8
0
  6
CENTER
 10
155.936783
 20
133.279236
 11
168.936783
 21
133.279236
  0
LINE
  8
0
 10
174.686783
 20
130.944305
 11
189.313919
 21
156.279236
  0
LINE
  8
0
 10
131.818619
 20
118.279243
 11
120.271614
 21
98.279243
  0
LINE
  8
0
 10
129.697311
 20
116.157928
 11
131.818634
 21
118.279251
  0
LINE
  8
0
 10
174.686783
 20
130.944305
 11
176.808105
 21
133.065628
  0
LINE
  8
0
 10
174.686783
 20
130.944290
 11
175.463242
 21
133.842072
  0
LINE
  8
0
 10
131.042175
 20
115.381447
 11
131.818634
 21
118.279228
  0
LINE
  8
0
 10
104.170174
 20
98.279236
 11
120.271622
 21
98.279236
  0
LINE
  8
0
 10
189.313919
 20
156.279236
 11
219.313919
 21
156.279236
  0
LINE
  8
0
  6
CENTER
 10
28.436737
 20
122.279221
 11
62.436737
 21
122.279221
  0
LINE
  8
0
  6
CENTER
 10
45.436737
 20
144.279221
 11
45.436737
 21
100.279221
  0
LINE
  8
0
 10
39.436729
 20
118.815056
 11
45.436726
 21
115.350945
  0
LINE
  8
0
 10
45.436741
 20
115.351028
 11
51.436726
 21
118.815117
  0
LINE
  8
0
 10
51.436737
 20
118.815109
 11
51.436737
 21
125.743317
  0
LINE
  8
0
 10
51.436710
 20
125.743263
 11
45.436714
 21
129.207367
  0
LINE
  8
0
 10
45.436714
 20
129.207458
 11
39.436703
 21
125.743347
  0
LINE
  8
0
 10
39.436707
 20
125.743309
 11
39.436707
 21
118.815094
  0
LINE
  8
0
  6
DASHED
 10
31.436737
 20
138.779221
 11
37.936737
 21
138.779221
  0
LINE
  8
0
  6
DASHED
 10
31.436737
 20
127.779221
 11
37.936737
 21
127.779221
  0
LINE
  8
0
  6
DASHED
 10
37.936737
 20
136.579224
 11
52.936737
 21
136.579224
  0
LINE
  8
0
  6
DASHED
 10
37.936737
 20
129.979218
 11
52.936737
 21
129.979218
  0
LINE
  8
0
  6
DASHED
 10
37.936737
 20
138.779221
 11
37.936737
 21
127.779221
  0
LINE
  8
0
  6
DASHED
 10
52.936737
 20
138.779221
 11
52.936737
 21
127.779221
  0
LINE
  8
0
  6
DASHED
 10
52.936737
 20
138.779221
 11
59.436737
 21
138.779221
  0
LINE
  8
0
  6
DASHED
 10
52.936737
 20
127.779221
 11
59.436737
 21
127.779221
  0
LINE
  8
0
  6
CENTER
 10
29.436737
 20
133.279221
 11
61.436737
 21
133.279221
  0
LINE
  8
0
  6
CENTER
 10
29.436737
 20
111.279221
 11
61.436737
 21
111.279221
  0
LINE
  8
0
  6
DASHED
 10
37.936737
 20
116.779221
 11
37.936737
 21
105.779221
  0
LINE
  8
0
  6
DASHED
 10
31.436737
 20
116.779221
 11
37.936737
 21
116.779221
  0
LINE
  8
0
  6
DASHED
 10
31.436737
 20
105.779221
 11
37.936737
 21
105.779221
  0
LINE
  8
0
  6
DASHED
 10
37.936737
 20
107.979218
 11
52.936737
 21
107.979218
  0
LINE
  8
0
  6
DASHED
 10
37.936737
 20
114.579216
 11
52.936737
 21
114.579216
  0
LINE
  8
0
  6
DASHED
 10
52.936737
 20
116.779221
 11
52.936737
 21
105.779221
  0
LINE
  8
0
  6
DASHED
 10
52.936737
 20
116.779221
 11
59.436737
 21
116.779221
  0
LINE
  8
0
  6
DASHED
 10
52.936737
 20
105.779221
 11
59.436737
 21
105.779221
  0
LINE
  8
0
 10
31.436737
 20
139.893127
 11
31.436737
 21
104.665298
  0
LINE
  8
0
 10
33.384766
 20
103.279221
 11
57.488708
 21
103.279221
  0
LINE
  8
0
 10
59.436737
 20
139.893127
 11
59.436737
 21
104.665298
  0
LINE
  8
0
 10
33.384766
 20
141.279221
 11
57.488708
 21
141.279221
  0
LINE
  8
0
  6
CENTER
 10
293.436829
 20
122.279243
 11
327.436829
 21
122.279243
  0
LINE
  8
0
  6
CENTER
 10
310.436829
 20
144.279236
 11
310.436829
 21
100.279243
  0
LINE
  8
0
 10
296.436829
 20
139.893158
 11
296.436829
 21
104.665329
  0
LINE
  8
0
 10
324.436829
 20
139.893158
 11
324.436829
 21
104.665329
  0
LINE
  8
0
 10
298.384857
 20
141.279236
 11
322.488831
 21
141.279236
  0
LINE
  8
0
 10
298.384857
 20
103.279243
 11
322.488831
 21
103.279243
  0
LINE
  8
0
  6
CENTER
 10
294.972809
 20
128.779251
 11
304.590179
 21
128.779251
  0
LINE
  8
0
  6
DASHED
 10
296.436829
 20
124.579247
 11
298.236847
 21
124.579247
  0
LINE
  8
0
  6
DASHED
 10
298.236847
 20
132.979248
 11
298.236847
 21
124.579247
  0
LINE
  8
0
  6
DASHED
 10
298.236847
 20
126.279243
 11
302.236847
 21
126.279243
  0
LINE
  8
0
  6
DASHED
 10
298.236847
 20
126.679245
 11
303.396942
 21
126.679245
  0
LINE
  8
0
  6
DASHED
 10
302.236847
 20
131.279251
 11
302.236847
 21
126.279243
  0
LINE
  8
0
  6
DASHED
 10
298.236847
 20
130.879242
 11
303.420807
 21
130.879242
  0
LINE
  8
0
  6
DASHED
 10
298.236847
 20
131.279251
 11
302.236847
 21
131.279251
  0
LINE
  8
0
  6
DASHED
 10
296.436829
 20
132.979248
 11
298.236847
 21
132.979248
  0
LINE
  8
0
  6
DASHED
 10
321.136841
 20
103.279243
 11
321.136841
 21
105.079247
  0
LINE
  8
0
  6
DASHED
 10
319.436829
 20
105.079247
 11
319.436829
 21
109.079247
  0
LINE
  8
0
  6
DASHED
 10
319.036865
 20
105.079247
 11
319.036865
 21
110.239357
  0
LINE
  8
0
  6
DASHED
 10
312.736847
 20
105.079247
 11
321.136841
 21
105.079247
  0
LINE
  8
0
  6
DASHED
 10
314.436829
 20
109.079247
 11
319.436829
 21
109.079247
  0
LINE
  8
0
  6
DASHED
 10
314.836853
 20
105.079247
 11
314.836853
 21
110.263222
  0
LINE
  8
0
  6
DASHED
 10
314.436829
 20
105.079247
 11
314.436829
 21
109.079247
  0
LINE
  8
0
  6
DASHED
 10
312.736847
 20
103.279243
 11
312.736847
 21
105.079247
  0
LINE
  8
0
  6
CENTER
 10
316.936829
 20
101.815224
 11
316.936829
 21
111.432579
  0
LINE
  8
0
  6
DASHED
 10
296.436829
 20
111.579247
 11
298.236847
 21
111.579247
  0
LINE
  8
0
  6
DASHED
 10
298.236847
 20
113.279243
 11
302.236847
 21
113.279243
  0
LINE
  8
0
  6
DASHED
 10
298.236847
 20
113.679245
 11
303.396942
 21
113.679245
  0
LINE
  8
0
  6
CENTER
 10
294.972809
 20
115.779243
 11
304.590179
 21
115.779243
  0
LINE
  8
0
  6
DASHED
 10
298.236847
 20
119.979248
 11
298.236847
 21
111.579247
  0
LINE
  8
0
  6
DASHED
 10
298.236847
 20
117.879242
 11
303.420807
 21
117.879242
  0
LINE
  8
0
  6
DASHED
 10
298.236847
 20
118.279243
 11
302.236847
 21
118.279243
  0
LINE
  8
0
  6
DASHED
 10
296.436829
 20
119.979248
 11
298.236847
 21
119.979248
  0
LINE
  8
0
  6
DASHED
 10
302.236847
 20
118.279243
 11
302.236847
 21
113.279243
  0
LINE
  8
0
  6
DASHED
 10
299.736847
 20
103.279243
 11
299.736847
 21
105.079247
  0
LINE
  8
0
  6
DASHED
 10
301.436829
 20
105.079247
 11
301.436829
 21
109.079247
  0
LINE
  8
0
  6
DASHED
 10
301.836823
 20
105.079247
 11
301.836823
 21
110.263222
  0
LINE
  8
0
  6
DASHED
 10
299.736847
 20
105.079247
 11
308.136841
 21
105.079247
  0
LINE
  8
0
  6
CENTER
 10
303.936829
 20
101.815224
 11
303.936829
 21
111.432579
  0
LINE
  8
0
  6
DASHED
 10
306.036835
 20
105.079247
 11
306.036835
 21
110.239357
  0
LINE
  8
0
  6
DASHED
 10
306.436829
 20
105.079247
 11
306.436829
 21
109.079247
  0
LINE
  8
0
  6
DASHED
 10
308.136841
 20
103.279243
 11
308.136841
 21
105.079247
  0
LINE
  8
0
  6
DASHED
 10
301.436829
 20
109.079247
 11
306.436829
 21
109.079247
  0
ARC
  8
0
 10
127.736389
 20
122.279228
 40
11.464072
 50
342.412079
 51
17.587931
  0
ARC
  8
0
 10
136.133484
 20
127.475380
 40
3.066984
 50
325.615601
 51
34.384277
  0
CIRCLE
  8
0
 10
173.436783
 20
115.779236
 40
2.100000
  0
CIRCLE
  8
0
 10
173.436783
 20
128.779236
 40
2.100000
  0
CIRCLE
  8
0
 10
173.436783
 20
128.779236
 40
2.500000
  0
CIRCLE
  8
0
 10
173.436783
 20
115.779236
 40
2.500000
  0
CIRCLE
  8
0
 10
173.436783
 20
115.779236
 40
4.200000
  0
CIRCLE
  8
0
 10
173.436783
 20
128.779236
 40
4.200000
  0
CIRCLE
  8
0
 10
162.436783
 20
133.279236
 40
5.500000
  0
CIRCLE
  8
0
 10
162.436783
 20
111.279236
 40
5.500000
  0
CIRCLE
  8
0
 10
162.436783
 20
111.279236
 40
3.300000
  0
CIRCLE
  8
0
 10
162.436783
 20
133.279236
 40
3.300000
  0
ARC
  8
0
 10
136.133484
 20
117.083084
 40
3.066980
 50
325.615723
 51
34.384277
  0
ARC
  8
0
 10
137.267441
 20
117.083084
 40
3.066984
 50
145.615601
 51
214.384277
  0
ARC
  8
0
 10
145.664520
 20
122.279228
 40
11.464060
 50
162.412003
 51
197.587891
  0
ARC
  8
0
 10
137.267441
 20
127.475380
 40
3.066980
 50
145.615723
 51
214.384277
  0
ARC
  8
0
 10
45.436737
 20
122.279221
 40
22.500006
 50
51.521416
 51
57.612461
  0
ARC
  8
0
 10
45.436737
 20
122.279221
 40
22.500004
 50
122.387558
 51
128.478622
  0
CIRCLE
  8
0
 10
45.436737
 20
122.279221
 40
6.000000
  0
CIRCLE
  8
0
 10
45.436737
 20
122.279221
 40
4.000000
  0
CIRCLE
  8
0
 10
45.436737
 20
122.279221
 40
3.500000
  0
ARC
  8
0
 10
45.436737
 20
122.279221
 40
22.499998
 50
231.521378
 51
237.612427
  0
ARC
  8
0
 10
45.436737
 20
122.279221
 40
22.500000
 50
302.387543
 51
308.478607
  0
ARC
  8
0
 10
310.436829
 20
122.279243
 40
22.500000
 50
302.387543
 51
308.478607
  0
CIRCLE
  8
0
 10
310.436829
 20
122.279243
 40
11.800000
  0
ARC
  8
0
 10
310.436829
 20
122.279243
 40
22.500000
 50
51.521404
 51
57.612469
  0
ARC
  8
0
 10
310.436829
 20
122.279243
 40
22.499994
 50
231.521393
 51
237.612457
  0
ARC
  8
0
 10
310.436829
 20
122.279243
 40
22.499994
 50
122.387550
 51
128.478592
  0
TEXT
  8
0
 10
298.797760
 20
244.589584
 40
4.242641
  1
DATE : JAN ,1992
 50
0.000000
 41
1.052631
 51
0.000000
  7
STANDARD
  0
TEXT
  8
0
 10
2.257077
 20
243.907959
 40
5.000000
  1
TWIN PORT CYLINDER
 50
0.000000
 41
0.831919
 51
0.000000
  7
STANDARD
  0
TEXT
  8
0
 10
12.035715
 20
221.757431
 40
5.000000
  1
MODEL : TWDA 20xSt-RB(15)
 50
0.000000
 41
1.052632
 51
0.000000
  7
STANDARD
  0
TEXT
  8
0
 10
105.271622
 20
98.629234
 40
3.500000
  1
M8x1
 50
0.000000
 41
1.052632
 51
0.000000
  7
STANDARD
  0
TEXT
  8
0
 10
190.313919
 20
156.629242
 40
3.500000
  1
4-M5x0.8
 50
0.000000
 41
1.052632
 51
0.000000
  7
STANDARD
  0
TEXT
  8
0
 10
302.273193
 20
3.650512
 40
5.000000
  1
KOGANEI,COPR
 50
0.000000
 41
1.052632
 51
0.000000
  7
STANDARD
  0
ENDSEC
  0
EOF
