  0
SECTION
  2
HEADER
  0
ENDSEC
  0
SECTION
  2
TABLES
  0
TABLE
  2
LTYPE
 70
     4
  0
LTYPE
  2
CONTINUOUS
 70
    64
  3
Solid line
 72
    65
 73
     0
 40
0.000000
  0
LTYPE
  2
DASHED
 70
    64
  3
__ __ __ __ __ __ __ __ __ __ __ __ __ __ __
 72
    65
 73
     2
 40
3.500000
 49
2.000000
 49
-1.500000
  0
LTYPE
  2
CENTER
 70
    64
  3
____ _ ____ _ ____ _ ____ _ ____ _ ____ _ ____
 72
    65
 73
     4
 40
17.500000
 49
13.000000
 49
-1.500000
 49
1.500000
 49
-1.500000
  0
LTYPE
  2
PHANTOM
 70
    64
  3
_____ _ _ _____ _ _ _____ _ _ _____ _ _ ____  
 72
    65
 73
     6
 40
15.500000
 49
8.000000
 49
-1.500000
 49
1.500000
 49
-1.500000
 49
1.500000
 49
-1.500000
  0
LTYPE
  2
DASHED1
 70
    64
  3
__ __ __ __ __ __ __ __ __ __ __ __ __ __ __
 72
    65
 73
     2
 40
1.500000
 49
1.000000
 49
-0.500000
  0
LTYPE
  2
DASHED2
 70
    64
  3
__ __ __ __ __ __ __ __ __ __ __ __ __ __ __
 72
    65
 73
     2
 40
3.500000
 49
2.500000
 49
-1.000000
  0
LTYPE
  2
DASHED3
 70
    64
  3
__ __ __ __ __ __ __ __ __ __ __ __ __ __ __
 72
    65
 73
     2
 40
6.000000
 49
4.000000
 49
-2.000000
  0
LTYPE
  2
DASHED4
 70
    64
  3
__ __ __ __ __ __ __ __ __ __ __ __ __ __ __
 72
    65
 73
     2
 40
12.000000
 49
10.000000
 49
-2.000000
  0
LTYPE
  2
DASHED5
 70
    64
  3
__ __ __ __ __ __ __ __ __ __ __ __ __ __ __
 72
    65
 73
     2
 40
17.000000
 49
15.000000
 49
-2.000000
  0
LTYPE
  2
DASHED6
 70
    64
  3
__ __ __ __ __ __ __ __ __ __ __ __ __ __ __
 72
    65
 73
     2
 40
29.000000
 49
27.000000
 49
-2.000000
  0
LTYPE
  2
PHANTOM1
 70
    64
  3
_____ _ _ _____ _ _ _____ _ _ _____ _ _ ____  
 72
    65
 73
     6
 40
31.000000
 49
25.000000
 49
-1.500000
 49
1.000000
 49
-1.000000
 49
1.000000
 49
-1.500000
  0
LTYPE
  2
PHANTOM2
 70
    64
  3
_____ _ _ _____ _ _ _____ _ _ _____ _ _ ____  
 72
    65
 73
     6
 40
36.000000
 49
27.000000
 49
-1.500000
 49
2.500000
 49
-1.000000
 49
2.500000
 49
-1.500000
  0
LTYPE
  2
PHANTOM3
 70
    64
  3
_____ _ _ _____ _ _ _____ _ _ _____ _ _ ____  
 72
    65
 73
     6
 40
78.000000
 49
64.000000
 49
-2.000000
 49
4.000000
 49
-2.000000
 49
4.000000
 49
-2.000000
  0
LTYPE
  2
CENTER1
 70
    64
  3
____ _ ____ _ ____ _ ____ _ ____ _ ____ _ ____
 72
    65
 73
     4
 40
19.000000
 49
14.000000
 49
-1.000000
 49
3.000000
 49
-1.000000
  0
LTYPE
  2
CENTER2
 70
    64
  3
____ _ ____ _ ____ _ ____ _ ____ _ ____ _ ____
 72
    65
 73
     4
 40
28.500000
 49
25.000000
 49
-1.000000
 49
1.500000
 49
-1.000000
  0
LTYPE
  2
CENTER3
 70
    64
  3
____ _ ____ _ ____ _ ____ _ ____ _ ____ _ ____
 72
    65
 73
     4
 40
31.500000
 49
27.000000
 49
-1.000000
 49
2.500000
 49
-1.000000
  0
LTYPE
  2
CENTER4
 70
    64
  3
____ _ ____ _ ____ _ ____ _ ____ _ ____ _ ____
 72
    65
 73
     4
 40
50.000000
 49
45.000000
 49
-1.000000
 49
3.000000
 49
-1.000000
  0
LTYPE
  2
CENTER5
 70
    64
  3
____ _ ____ _ ____ _ ____ _ ____ _ ____ _ ____
 72
    65
 73
     4
 40
100.000000
 49
92.000000
 49
-2.000000
 49
4.000000
 49
-2.000000
  0
LTYPE
  2
SBK1
 70
    64
  3
______ _ _ _ ______ _ _ _ ______ _ _ _ _____  
 72
    65
 73
     8
 40
60.500000
 49
45.000000
 49
-2.000000
 49
2.500000
 49
-2.000000
 49
2.500000
 49
-2.000000
 49
2.500000
 49
-2.000000
  0
LTYPE
  2
SBK2
 70
    64
  3
______ _ _ _ ______ _ _ _ ______ _ _ _ _____  
 72
    65
 73
     8
 40
84.000000
 49
64.000000
 49
-2.000000
 49
4.000000
 49
-2.000000
 49
4.000000
 49
-2.000000
 49
4.000000
 49
-2.000000
  0
LTYPE
  2
STCH
 70
    64
  3
__ __ __ __ __ __ __ __ __ __ __ __ __ __ __
 72
    65
 73
     2
 40
3.000000
 49
1.000000
 49
-2.000000
  0
LTYPE
  2
MTCH
 70
    64
  3
_____ _ _ _____ _ _ _____ _ _ _____ _ _ ____  
 72
    65
 73
     6
 40
80.000000
 49
66.000000
 49
-2.000000
 49
4.000000
 49
-2.000000
 49
4.000000
 49
-2.000000
  0
ENDTAB
  0
TABLE
  2
LAYER
 70
     1
  0
LAYER
  2
0
 70
     0
 62
     7
  6
CONTINUOUS
  0
ENDTAB
  0
TABLE
  2
STYLE
 70
     1
  0
STYLE
  2
STANDARD
 70
     0
 40
0.000000
 41
1.000000
 50
0.000000
 71
     0
 42
0.200000
  3
txt
  4
BIGFONT
  0
ENDTAB
  0
TABLE
  2
VIEW
 70
     0
  0
ENDTAB
  0
ENDSEC
  0
SECTION
  2
BLOCKS
  0
ENDSEC
  0
SECTION
  2
ENTITIES
  0
POINT
  8
0
 10
45.436813
 20
127.279228
  0
POINT
  8
0
 10
65.436813
 20
127.279228
  0
POINT
  8
0
 10
155.436783
 20
127.279236
  0
POINT
  8
0
 10
238.436783
 20
127.279236
  0
POINT
  8
0
 10
320.436768
 20
127.279236
  0
POINT
  8
0
 10
340.436768
 20
127.279236
  0
LINE
  8
0
 62
     3
 10
0.000000
 20
0.000000
 11
0.000000
 21
254.558472
  0
LINE
  8
0
 62
     3
 10
370.873566
 20
254.558472
 11
370.873566
 21
0.000000
  0
LINE
  8
0
 62
     3
 10
0.000000
 20
0.000000
 11
370.873566
 21
0.000000
  0
LINE
  8
0
 62
     3
 10
0.000000
 20
254.558472
 11
370.873566
 21
254.558472
  0
LINE
  8
0
 62
     3
 10
0.000000
 20
240.257431
 11
76.272194
 21
240.257431
  0
LINE
  8
0
 62
     3
 10
76.272194
 20
240.257431
 11
76.272194
 21
254.558472
  0
LINE
  8
0
 62
     3
 10
294.601379
 20
14.301025
 11
370.873566
 21
14.301025
  0
LINE
  8
0
 62
     3
 10
294.601379
 20
240.257431
 11
370.873566
 21
240.257431
  0
LINE
  8
0
 62
     3
 10
294.601379
 20
254.558472
 11
294.601379
 21
240.257431
  0
LINE
  8
0
 62
     3
 10
294.601379
 20
14.301025
 11
294.601379
 21
0.000000
  0
LINE
  8
0
 10
155.436783
 20
147.279236
 11
155.436783
 21
107.279236
  0
LINE
  8
0
 10
165.436783
 20
147.279236
 11
165.436783
 21
107.279236
  0
LINE
  8
0
 10
154.436783
 20
134.779236
 11
154.436783
 21
119.779236
  0
LINE
  8
0
 10
230.436783
 20
145.479233
 11
230.436783
 21
109.079239
  0
LINE
  8
0
 10
117.436783
 20
132.279236
 11
125.268402
 21
132.279236
  0
LINE
  8
0
 10
117.436783
 20
122.279236
 11
125.268402
 21
122.279236
  0
LINE
  8
0
 10
116.811783
 20
122.904236
 11
125.268402
 21
122.904236
  0
LINE
  8
0
 10
116.811790
 20
131.654236
 11
125.268402
 21
131.654236
  0
LINE
  8
0
 10
139.436783
 20
132.279236
 11
139.436783
 21
122.279236
  0
LINE
  8
0
 10
117.436790
 20
132.279190
 11
116.436783
 21
131.279190
  0
LINE
  8
0
 10
117.436783
 20
122.279236
 11
116.436775
 21
123.279236
  0
LINE
  8
0
 10
139.436783
 20
122.904243
 11
140.519318
 21
122.279243
  0
LINE
  8
0
 10
139.436844
 20
131.654114
 11
140.519363
 21
132.279114
  0
LINE
  8
0
 10
131.268402
 20
122.904236
 11
139.436783
 21
122.904236
  0
LINE
  8
0
 10
131.268402
 20
122.279236
 11
146.436783
 21
122.279236
  0
LINE
  8
0
 10
131.268402
 20
131.654236
 11
139.436783
 21
131.654236
  0
LINE
  8
0
 10
131.268402
 20
132.279236
 11
146.436783
 21
132.279236
  0
LINE
  8
0
 10
125.268593
 20
134.279099
 11
125.893814
 21
135.362000
  0
LINE
  8
0
 10
130.643188
 20
131.320679
 11
125.893623
 21
131.320679
  0
LINE
  8
0
 10
131.268463
 20
134.279251
 11
130.643234
 21
135.362152
  0
LINE
  8
0
 10
130.643188
 20
135.362137
 11
125.893784
 21
135.362137
  0
LINE
  8
0
 10
125.268402
 20
120.279236
 11
125.268402
 21
134.278961
  0
LINE
  8
0
 10
125.268501
 20
120.279289
 11
125.893723
 21
119.196388
  0
LINE
  8
0
 10
130.643188
 20
123.237785
 11
125.893623
 21
123.237785
  0
LINE
  8
0
 10
131.268402
 20
120.279236
 11
131.268402
 21
134.279282
  0
LINE
  8
0
 10
131.268372
 20
120.279259
 11
130.643158
 21
119.196358
  0
LINE
  8
0
 10
130.643188
 20
119.196335
 11
125.893684
 21
119.196335
  0
LINE
  8
0
 10
165.436783
 20
145.479233
 11
238.436783
 21
145.479233
  0
LINE
  8
0
 10
165.436783
 20
109.079239
 11
238.436783
 21
109.079239
  0
LINE
  8
0
 10
155.436783
 20
147.279236
 11
165.436783
 21
147.279236
  0
LINE
  8
0
 10
155.436783
 20
107.279236
 11
165.436783
 21
107.279236
  0
LINE
  8
0
 10
154.436783
 20
119.779236
 11
155.436783
 21
119.779236
  0
LINE
  8
0
 10
154.436783
 20
134.779236
 11
155.436783
 21
134.779236
  0
LINE
  8
0
 10
147.436783
 20
121.279236
 11
154.436783
 21
121.279236
  0
LINE
  8
0
 10
147.436783
 20
133.279236
 11
154.436783
 21
133.279236
  0
LINE
  8
0
 10
116.436783
 20
131.279236
 11
116.436783
 21
123.279236
  0
LINE
  8
0
 10
117.436783
 20
132.279236
 11
117.436783
 21
122.279236
  0
LINE
  8
0
 10
141.436783
 20
132.279236
 11
141.436783
 21
122.279236
  0
LINE
  8
0
 10
238.436783
 20
145.479233
 11
238.436783
 21
109.079239
  0
LINE
  8
0
 10
146.436768
 20
122.279228
 11
147.436768
 21
121.279228
  0
LINE
  8
0
 10
146.436783
 20
132.279236
 11
147.436783
 21
133.279236
  0
LINE
  8
0
 10
142.436783
 20
132.279236
 11
142.436783
 21
122.279236
  0
LINE
  8
0
  6
CENTER
 10
113.436783
 20
127.279236
 11
241.436783
 21
127.279236
  0
LINE
  8
0
 10
121.352600
 20
122.279236
 11
109.805595
 21
102.279236
  0
LINE
  8
0
 10
119.231277
 20
120.157928
 11
121.352600
 21
122.279251
  0
LINE
  8
0
 10
120.576141
 20
119.381462
 11
121.352600
 21
122.279236
  0
LINE
  8
0
 10
109.805588
 20
102.279243
 11
143.554611
 21
102.279243
  0
LINE
  8
0
 10
38.436787
 20
123.237770
 11
45.436798
 21
119.196312
  0
LINE
  8
0
 10
45.436821
 20
119.196350
 11
52.436817
 21
123.237801
  0
LINE
  8
0
 10
52.436813
 20
123.237778
 11
52.436813
 21
131.320679
  0
LINE
  8
0
 10
52.436806
 20
131.320648
 11
45.436768
 21
135.362122
  0
LINE
  8
0
 10
45.436852
 20
135.362122
 11
38.436844
 21
131.320663
  0
LINE
  8
0
 10
38.436813
 20
131.320679
 11
38.436813
 21
123.237778
  0
LINE
  8
0
  6
CENTER
 10
31.436813
 20
137.279236
 11
39.436813
 21
137.279236
  0
LINE
  8
0
  6
CENTER
 10
35.436813
 20
141.279236
 11
35.436813
 21
133.279236
  0
LINE
  8
0
  6
CENTER
 10
22.436813
 20
127.279228
 11
68.436813
 21
127.279228
  0
LINE
  8
0
  6
CENTER
 10
35.436813
 20
121.279228
 11
35.436813
 21
113.279228
  0
LINE
  8
0
  6
CENTER
 10
31.436813
 20
117.279228
 11
39.436813
 21
117.279228
  0
LINE
  8
0
  6
CENTER
 10
45.436813
 20
150.279236
 11
45.436813
 21
104.279228
  0
LINE
  8
0
  6
CENTER
 10
51.436813
 20
117.279228
 11
59.436813
 21
117.279228
  0
LINE
  8
0
  6
CENTER
 10
55.436813
 20
121.279228
 11
55.436813
 21
113.279228
  0
LINE
  8
0
  6
CENTER
 10
55.436813
 20
141.279236
 11
55.436813
 21
133.279236
  0
LINE
  8
0
  6
CENTER
 10
51.436813
 20
137.279236
 11
59.436813
 21
137.279236
  0
LINE
  8
0
 10
56.686810
 20
139.444305
 11
69.870567
 21
162.279236
  0
LINE
  8
0
 10
56.686775
 20
139.444321
 11
58.808094
 21
141.565643
  0
LINE
  8
0
 10
56.686790
 20
139.444305
 11
57.463249
 21
142.342072
  0
LINE
  8
0
 10
69.870560
 20
162.279221
 11
99.870560
 21
162.279221
  0
LINE
  8
0
  6
CENTER
 10
310.436768
 20
131.779236
 11
310.436768
 21
122.779236
  0
LINE
  8
0
  6
CENTER
 10
320.436768
 20
150.279236
 11
320.436768
 21
104.279236
  0
LINE
  8
0
  6
CENTER
 10
297.436768
 20
127.279236
 11
343.436768
 21
127.279236
  0
LINE
  8
0
  6
CENTER
 10
330.436768
 20
131.779236
 11
330.436768
 21
122.779236
  0
LINE
  8
0
  6
CENTER
 10
313.436768
 20
137.279236
 11
327.436768
 21
137.279236
  0
LINE
  8
0
  6
CENTER
 10
313.436768
 20
117.279236
 11
327.436768
 21
117.279236
  0
LINE
  8
0
 10
317.936737
 20
112.949097
 11
306.002991
 21
92.279236
  0
LINE
  8
0
 10
331.686798
 20
129.444305
 11
350.644043
 21
162.279251
  0
LINE
  8
0
 10
315.815521
 20
110.827759
 11
317.936829
 21
112.949074
  0
LINE
  8
0
 10
331.686798
 20
129.444275
 11
333.808105
 21
131.565598
  0
LINE
  8
0
 10
331.686798
 20
129.444321
 11
332.463257
 21
132.342102
  0
LINE
  8
0
 10
317.160339
 20
110.051308
 11
317.936798
 21
112.949089
  0
LINE
  8
0
 10
279.577454
 20
92.279236
 11
306.003052
 21
92.279236
  0
LINE
  8
0
 10
320.644043
 20
162.279236
 11
350.644043
 21
162.279236
  0
ARC
  8
0
 10
138.643127
 20
127.279236
 40
13.374720
 50
162.412003
 51
197.587967
  0
ARC
  8
0
 10
128.846542
 20
121.217056
 40
3.578139
 50
145.615555
 51
214.384277
  0
ARC
  8
0
 10
127.690262
 20
121.217056
 40
3.578145
 50
325.615631
 51
34.384281
  0
ARC
  8
0
 10
117.893677
 20
127.279236
 40
13.374729
 50
342.411987
 51
17.587994
  0
ARC
  8
0
 10
127.690262
 20
133.341415
 40
3.578141
 50
325.615723
 51
34.384281
  0
ARC
  8
0
 10
128.846542
 20
133.341415
 40
3.578141
 50
145.615723
 51
214.384277
  0
CIRCLE
  8
0
 10
45.436813
 20
127.279228
 40
7.000000
  0
CIRCLE
  8
0
 10
45.436813
 20
127.279228
 40
5.000000
  0
CIRCLE
  8
0
 10
45.436813
 20
127.279228
 40
20.000000
  0
CIRCLE
  8
0
 10
55.436813
 20
117.279228
 40
2.100000
  0
CIRCLE
  8
0
 10
55.436813
 20
137.279236
 40
2.100000
  0
CIRCLE
  8
0
 10
35.436813
 20
137.279236
 40
2.100000
  0
CIRCLE
  8
0
 10
35.436813
 20
117.279228
 40
2.100000
  0
CIRCLE
  8
0
 10
55.436813
 20
117.279228
 40
2.500000
  0
CIRCLE
  8
0
 10
55.436813
 20
137.279236
 40
2.500000
  0
CIRCLE
  8
0
 10
35.436813
 20
137.279236
 40
2.500000
  0
CIRCLE
  8
0
 10
35.436813
 20
117.279228
 40
2.500000
  0
CIRCLE
  8
0
 10
45.436813
 20
127.279228
 40
4.375000
  0
CIRCLE
  8
0
 10
320.436768
 20
117.279236
 40
5.000000
  0
CIRCLE
  8
0
 10
320.436768
 20
137.279236
 40
5.000000
  0
CIRCLE
  8
0
 10
310.436768
 20
127.279236
 40
2.100000
  0
CIRCLE
  8
0
 10
330.436768
 20
127.279236
 40
2.100000
  0
CIRCLE
  8
0
 10
330.436768
 20
127.279236
 40
2.500000
  0
CIRCLE
  8
0
 10
320.436768
 20
127.279236
 40
20.000000
  0
CIRCLE
  8
0
 10
320.436768
 20
127.279236
 40
18.200001
  0
CIRCLE
  8
0
 10
320.436768
 20
137.279236
 40
4.250000
  0
CIRCLE
  8
0
 10
320.436768
 20
117.279236
 40
4.250000
  0
CIRCLE
  8
0
 10
310.436768
 20
127.279236
 40
2.500000
  0
TEXT
  8
0
 10
298.797760
 20
244.589584
 40
4.242641
  1
DATE : JAN ,1992
 50
0.000000
 41
1.052631
 51
0.000000
  7
STANDARD
  0
TEXT
  8
0
 10
2.257077
 20
243.907959
 40
5.000000
  1
TWIN PORT CYLINDER
 50
0.000000
 41
0.831919
 51
0.000000
  7
STANDARD
  0
TEXT
  8
0
 10
12.035715
 20
221.757431
 40
5.000000
  1
MODEL : TWDA 32xSt-HA(15)
 50
0.000000
 41
1.052632
 51
0.000000
  7
STANDARD
  0
TEXT
  8
0
 10
113.805595
 20
103.129234
 40
3.500000
  1
M10x1.25
 50
0.000000
 41
1.052632
 51
0.000000
  7
STANDARD
  0
TEXT
  8
0
 10
70.870537
 20
162.629242
 40
3.500000
  1
4-M5x0.8
 50
0.000000
 41
1.052632
 51
0.000000
  7
STANDARD
  0
TEXT
  8
0
 10
321.644043
 20
162.629242
 40
3.500000
  1
2-M5x0.8
 50
0.000000
 41
1.052632
 51
0.000000
  7
STANDARD
  0
TEXT
  8
0
 10
280.003052
 20
92.629234
 40
3.500000
  1
2-Rc1/8
 50
0.000000
 41
1.052632
 51
0.000000
  7
STANDARD
  0
TEXT
  8
0
 10
302.273193
 20
3.650512
 40
5.000000
  1
KOGANEI,CORP
 50
0.000000
 41
1.052632
 51
0.000000
  7
STANDARD
  0
ENDSEC
  0
EOF
