  0
SECTION
  2
HEADER
  9
$ACADVER
  1
AC1006
  9
$INSBASE
 10
0.0
 20
0.0
 30
0.0
  9
$EXTMIN
 10
0.0
 20
0.0
  9
$EXTMAX
 10
370.873566
 20
254.558472
  9
$LIMMIN
 10
0.0
 20
0.0
  9
$LIMMAX
 10
12.0
 20
9.0
  9
$ORTHOMODE
 70
     0
  9
$REGENMODE
 70
     1
  9
$FILLMODE
 70
     1
  9
$QTEXTMODE
 70
     0
  9
$MIRRTEXT
 70
     1
  9
$DRAGMODE
 70
     2
  9
$LTSCALE
 40
1.0
  9
$OSMODE
 70
     0
  9
$ATTMODE
 70
     1
  9
$TEXTSIZE
 40
0.2
  9
$TRACEWID
 40
0.05
  9
$TEXTSTYLE
  7
STANDARD
  9
$CLAYER
  8
0
  9
$CELTYPE
  6
BYLAYER
  9
$CECOLOR
 62
   256
  9
$DIMSCALE
 40
1.0
  9
$DIMASZ
 40
0.18
  9
$DIMEXO
 40
0.0625
  9
$DIMDLI
 40
0.38
  9
$DIMRND
 40
0.0
  9
$DIMDLE
 40
0.0
  9
$DIMEXE
 40
0.18
  9
$DIMTP
 40
0.0
  9
$DIMTM
 40
0.0
  9
$DIMTXT
 40
0.18
  9
$DIMCEN
 40
0.09
  9
$DIMTSZ
 40
0.0
  9
$DIMTOL
 70
     0
  9
$DIMLIM
 70
     0
  9
$DIMTIH
 70
     1
  9
$DIMTOH
 70
     1
  9
$DIMSE1
 70
     0
  9
$DIMSE2
 70
     0
  9
$DIMTAD
 70
     0
  9
$DIMZIN
 70
     0
  9
$DIMBLK
  1

  9
$DIMASO
 70
     1
  9
$DIMSHO
 70
     0
  9
$DIMPOST
  1

  9
$DIMAPOST
  1

  9
$DIMALT
 70
     0
  9
$DIMALTD
 70
     2
  9
$DIMALTF
 40
25.4
  9
$DIMLFAC
 40
1.0
  9
$DIMTOFL
 70
     0
  9
$DIMTVP
 40
0.0
  9
$DIMTIX
 70
     0
  9
$DIMSOXD
 70
     0
  9
$DIMSAH
 70
     0
  9
$DIMBLK1
  1

  9
$DIMBLK2
  1

  9
$LUNITS
 70
     2
  9
$LUPREC
 70
     4
  9
$AXISMODE
 70
     0
  9
$AXISUNIT
 10
0.0
 20
0.0
  9
$SKETCHINC
 40
0.1
  9
$FILLETRAD
 40
0.0
  9
$AUNITS
 70
     0
  9
$AUPREC
 70
     0
  9
$MENU
  1
acad
  9
$ELEVATION
 40
0.0
  9
$THICKNESS
 40
0.0
  9
$LIMCHECK
 70
     0
  9
$BLIPMODE
 70
     1
  9
$CHAMFERA
 40
0.0
  9
$CHAMFERB
 40
0.0
  9
$SKPOLY
 70
     0
  9
$TDCREATE
 40
2448820.5943402778
  9
$TDUPDATE
 40
2448820.5943402778
  9
$TDINDWG
 40
0.0000000000
  9
$TDUSRTIMER
 40
0.0000000000
  9
$USRTIMER
 70
     1
  9
$ANGBASE
 50
0.0
  9
$ANGDIR
 70
     0
  9
$PDMODE
 70
     0
  9
$PDSIZE
 40
0.0
  9
$PLINEWID
 40
0.0
  9
$COORDS
 70
     0
  9
$SPLFRAME
 70
     0
  9
$SPLINETYPE
 70
     6
  9
$SPLINESEGS
 70
     8
  9
$ATTDIA
 70
     0
  9
$ATTREQ
 70
     1
  9
$HANDLING
 70
     0
  9
$HANDSEED
  5
0
  9
$SURFTAB1
 70
     6
  9
$SURFTAB2
 70
     6
  9
$SURFTYPE
 70
     6
  9
$SURFU
 70
     6
  9
$SURFV
 70
     6
  9
$FLATLAND
 70
     0
  9
$UCSNAME
  2

  9
$UCSORG
 10
0.0
 20
0.0
 30
0.0
  9
$UCSXDIR
 10
1.0
 20
0.0
 30
0.0
  9
$UCSYDIR
 10
0.0
 20
1.0
 30
0.0
  9
$USERI1
 70
     0
  9
$USERI2
 70
     0
  9
$USERI3
 70
     0
  9
$USERI4
 70
     0
  9
$USERI5
 70
     0
  9
$USERR1
 40
0.0
  9
$USERR2
 40
0.0
  9
$USERR3
 40
0.0
  9
$USERR4
 40
0.0
  9
$USERR5
 40
0.0
  9
$WORLDVIEW
 70
     1
  0
ENDSEC
  0
SECTION
  2
TABLES
  0
TABLE
  2
VPORT
 70
     3
  0
VPORT
  2
*ACTIVE
 70
     0
 10
0.0
 20
0.0
 11
1.0
 21
1.0
 12
207.983153
 22
127.279236
 13
0.0
 23
0.0
 14
1.0
 24
1.0
 15
0.0
 25
0.0
 16
0.0
 26
0.0
 36
1.0
 17
0.0
 27
0.0
 37
0.0
 40
254.558472
 41
1.63407
 42
50.0
 43
0.0
 44
0.0
 50
0.0
 51
0.0
 71
     0
 72
   100
 73
     1
 74
     1
 75
     0
 76
     0
 77
     0
 78
     0
  0
ENDTAB
  0
TABLE
  2
LTYPE
 70
    22
  0
LTYPE
  2
CONTINUOUS
 70
    64
  3
Solid line
 72
    65
 73
     0
 40
0.0
  0
LTYPE
  2
DASHED
 70
    64
  3
__ __ __ __ __ __ __ __ __ __ __ __ __ __ __
 72
    65
 73
     2
 40
3.5
 49
2.0
 49
-1.5
  0
LTYPE
  2
CENTER
 70
    64
  3
____ _ ____ _ ____ _ ____ _ ____ _ ____ _ ____
 72
    65
 73
     4
 40
17.5
 49
13.0
 49
-1.5
 49
1.5
 49
-1.5
  0
LTYPE
  2
PHANTOM
 70
    64
  3
_____ _ _ _____ _ _ _____ _ _ _____ _ _ ____  
 72
    65
 73
     6
 40
15.5
 49
8.0
 49
-1.5
 49
1.5
 49
-1.5
 49
1.5
 49
-1.5
  0
LTYPE
  2
DASHED1
 70
    64
  3
__ __ __ __ __ __ __ __ __ __ __ __ __ __ __
 72
    65
 73
     2
 40
1.5
 49
1.0
 49
-0.5
  0
LTYPE
  2
DASHED2
 70
    64
  3
__ __ __ __ __ __ __ __ __ __ __ __ __ __ __
 72
    65
 73
     2
 40
3.5
 49
2.5
 49
-1.0
  0
LTYPE
  2
DASHED3
 70
    64
  3
__ __ __ __ __ __ __ __ __ __ __ __ __ __ __
 72
    65
 73
     2
 40
6.0
 49
4.0
 49
-2.0
  0
LTYPE
  2
DASHED4
 70
    64
  3
__ __ __ __ __ __ __ __ __ __ __ __ __ __ __
 72
    65
 73
     2
 40
12.0
 49
10.0
 49
-2.0
  0
LTYPE
  2
DASHED5
 70
    64
  3
__ __ __ __ __ __ __ __ __ __ __ __ __ __ __
 72
    65
 73
     2
 40
17.0
 49
15.0
 49
-2.0
  0
LTYPE
  2
DASHED6
 70
    64
  3
__ __ __ __ __ __ __ __ __ __ __ __ __ __ __
 72
    65
 73
     2
 40
29.0
 49
27.0
 49
-2.0
  0
LTYPE
  2
PHANTOM1
 70
    64
  3
_____ _ _ _____ _ _ _____ _ _ _____ _ _ ____  
 72
    65
 73
     6
 40
31.0
 49
25.0
 49
-1.5
 49
1.0
 49
-1.0
 49
1.0
 49
-1.5
  0
LTYPE
  2
PHANTOM2
 70
    64
  3
_____ _ _ _____ _ _ _____ _ _ _____ _ _ ____  
 72
    65
 73
     6
 40
36.0
 49
27.0
 49
-1.5
 49
2.5
 49
-1.0
 49
2.5
 49
-1.5
  0
LTYPE
  2
PHANTOM3
 70
    64
  3
_____ _ _ _____ _ _ _____ _ _ _____ _ _ ____  
 72
    65
 73
     6
 40
78.0
 49
64.0
 49
-2.0
 49
4.0
 49
-2.0
 49
4.0
 49
-2.0
  0
LTYPE
  2
CENTER1
 70
    64
  3
____ _ ____ _ ____ _ ____ _ ____ _ ____ _ ____
 72
    65
 73
     4
 40
19.0
 49
14.0
 49
-1.0
 49
3.0
 49
-1.0
  0
LTYPE
  2
CENTER2
 70
    64
  3
____ _ ____ _ ____ _ ____ _ ____ _ ____ _ ____
 72
    65
 73
     4
 40
28.5
 49
25.0
 49
-1.0
 49
1.5
 49
-1.0
  0
LTYPE
  2
CENTER3
 70
    64
  3
____ _ ____ _ ____ _ ____ _ ____ _ ____ _ ____
 72
    65
 73
     4
 40
31.5
 49
27.0
 49
-1.0
 49
2.5
 49
-1.0
  0
LTYPE
  2
CENTER4
 70
    64
  3
____ _ ____ _ ____ _ ____ _ ____ _ ____ _ ____
 72
    65
 73
     4
 40
50.0
 49
45.0
 49
-1.0
 49
3.0
 49
-1.0
  0
LTYPE
  2
CENTER5
 70
    64
  3
____ _ ____ _ ____ _ ____ _ ____ _ ____ _ ____
 72
    65
 73
     4
 40
100.0
 49
92.0
 49
-2.0
 49
4.0
 49
-2.0
  0
LTYPE
  2
SBK1
 70
    64
  3
______ _ _ _ ______ _ _ _ ______ _ _ _ _____  
 72
    65
 73
     8
 40
60.5
 49
45.0
 49
-2.0
 49
2.5
 49
-2.0
 49
2.5
 49
-2.0
 49
2.5
 49
-2.0
  0
LTYPE
  2
SBK2
 70
    64
  3
______ _ _ _ ______ _ _ _ ______ _ _ _ _____  
 72
    65
 73
     8
 40
84.0
 49
64.0
 49
-2.0
 49
4.0
 49
-2.0
 49
4.0
 49
-2.0
 49
4.0
 49
-2.0
  0
LTYPE
  2
STCH
 70
    64
  3
__ __ __ __ __ __ __ __ __ __ __ __ __ __ __
 72
    65
 73
     2
 40
3.0
 49
1.0
 49
-2.0
  0
LTYPE
  2
MTCH
 70
    64
  3
_____ _ _ _____ _ _ _____ _ _ _____ _ _ ____  
 72
    65
 73
     6
 40
80.0
 49
66.0
 49
-2.0
 49
4.0
 49
-2.0
 49
4.0
 49
-2.0
  0
ENDTAB
  0
TABLE
  2
LAYER
 70
     1
  0
LAYER
  2
0
 70
     0
 62
     7
  6
CONTINUOUS
  0
ENDTAB
  0
TABLE
  2
STYLE
 70
     1
  0
STYLE
  2
STANDARD
 70
     0
 40
0.0
 41
1.0
 50
0.0
 71
     0
 42
0.2
  3
txt
  4
BIGFONT
  0
ENDTAB
  0
TABLE
  2
VIEW
 70
     0
  0
ENDTAB
  0
TABLE
  2
UCS
 70
     0
  0
ENDTAB
  0
TABLE
  2
DWGMGR
 70
     0
  0
ENDTAB
  0
ENDSEC
  0
SECTION
  2
BLOCKS
  0
ENDSEC
  0
SECTION
  2
ENTITIES
  0
POINT
  8
0
 10
41.436752
 20
127.279213
 30
0.0
  0
POINT
  8
0
 10
61.936752
 20
127.279213
 30
0.0
  0
POINT
  8
0
 10
150.436783
 20
127.279236
 30
0.0
  0
POINT
  8
0
 10
253.436783
 20
127.279236
 30
0.0
  0
POINT
  8
0
 10
321.436829
 20
127.279236
 30
0.0
  0
POINT
  8
0
 10
341.936829
 20
127.279236
 30
0.0
  0
LINE
  8
0
 62
     3
 10
0.0
 20
0.0
 30
0.0
 11
0.0
 21
254.558472
 31
0.0
  0
LINE
  8
0
 62
     3
 10
370.873566
 20
254.558472
 30
0.0
 11
370.873566
 21
0.0
 31
0.0
  0
LINE
  8
0
 62
     3
 10
0.0
 20
0.0
 30
0.0
 11
370.873566
 21
0.0
 31
0.0
  0
LINE
  8
0
 62
     3
 10
0.0
 20
254.558472
 30
0.0
 11
370.873566
 21
254.558472
 31
0.0
  0
LINE
  8
0
 62
     3
 10
0.0
 20
240.257431
 30
0.0
 11
76.272194
 21
240.257431
 31
0.0
  0
LINE
  8
0
 62
     3
 10
76.272194
 20
240.257431
 30
0.0
 11
76.272194
 21
254.558472
 31
0.0
  0
LINE
  8
0
 62
     3
 10
294.601379
 20
14.301025
 30
0.0
 11
370.873566
 21
14.301025
 31
0.0
  0
LINE
  8
0
 62
     3
 10
294.601379
 20
240.257431
 30
0.0
 11
370.873566
 21
240.257431
 31
0.0
  0
LINE
  8
0
 62
     3
 10
294.601379
 20
254.558472
 30
0.0
 11
294.601379
 21
240.257431
 31
0.0
  0
LINE
  8
0
 62
     3
 10
294.601379
 20
14.301025
 30
0.0
 11
294.601379
 21
0.0
 31
0.0
  0
LINE
  8
0
 10
141.436783
 20
132.279236
 30
0.0
 11
142.436783
 21
133.279236
 31
0.0
  0
LINE
  8
0
 10
141.436783
 20
122.279236
 30
0.0
 11
142.436783
 21
121.279236
 31
0.0
  0
LINE
  8
0
 10
111.436783
 20
131.279236
 30
0.0
 11
111.436783
 21
123.279236
 31
0.0
  0
LINE
  8
0
 10
253.436783
 20
145.479233
 30
0.0
 11
253.436783
 21
109.079239
 31
0.0
  0
LINE
  8
0
 10
150.436783
 20
147.279236
 30
0.0
 11
150.436783
 21
107.279236
 31
0.0
  0
LINE
  8
0
 10
166.436783
 20
147.779236
 30
0.0
 11
166.436783
 21
106.779236
 31
0.0
  0
LINE
  8
0
 10
180.436783
 20
147.779236
 30
0.0
 11
180.436783
 21
106.779236
 31
0.0
  0
LINE
  8
0
 10
166.436783
 20
147.779236
 30
0.0
 11
180.436783
 21
147.779236
 31
0.0
  0
LINE
  8
0
 10
166.436783
 20
106.779236
 30
0.0
 11
180.436783
 21
106.779236
 31
0.0
  0
LINE
  8
0
 10
150.436783
 20
147.279236
 30
0.0
 11
166.436783
 21
147.279236
 31
0.0
  0
LINE
  8
0
 10
150.436783
 20
107.279236
 30
0.0
 11
166.436783
 21
107.279236
 31
0.0
  0
LINE
  8
0
 10
245.436783
 20
145.479233
 30
0.0
 11
245.436783
 21
109.079239
 31
0.0
  0
LINE
  8
0
 10
180.436783
 20
109.079239
 30
0.0
 11
253.436783
 21
109.079239
 31
0.0
  0
LINE
  8
0
 10
180.436783
 20
145.479233
 30
0.0
 11
253.436783
 21
145.479233
 31
0.0
  0
LINE
  8
0
 10
149.436783
 20
134.779236
 30
0.0
 11
149.436783
 21
119.779236
 31
0.0
  0
LINE
  8
0
 10
149.436783
 20
134.779236
 30
0.0
 11
150.436783
 21
134.779236
 31
0.0
  0
LINE
  8
0
 10
149.436783
 20
119.779236
 30
0.0
 11
150.436783
 21
119.779236
 31
0.0
  0
LINE
  8
0
 10
126.43679
 20
120.279236
 30
0.0
 11
125.811569
 21
119.19632
 31
0.0
  0
LINE
  8
0
 10
125.811562
 20
119.196327
 30
0.0
 11
121.062012
 21
119.196327
 31
0.0
  0
LINE
  8
0
 10
112.436783
 20
132.279236
 30
0.0
 11
120.436783
 21
132.279236
 31
0.0
  0
LINE
  8
0
 10
112.436783
 20
122.279236
 30
0.0
 11
120.436783
 21
122.279236
 31
0.0
  0
LINE
  8
0
 10
142.436783
 20
133.279236
 30
0.0
 11
149.436783
 21
133.279236
 31
0.0
  0
LINE
  8
0
 10
142.436783
 20
121.279236
 30
0.0
 11
149.436783
 21
121.279236
 31
0.0
  0
LINE
  8
0
 10
134.436783
 20
132.279236
 30
0.0
 11
134.436783
 21
122.279236
 31
0.0
  0
LINE
  8
0
 10
136.436783
 20
132.279236
 30
0.0
 11
136.436783
 21
122.279236
 31
0.0
  0
LINE
  8
0
 10
137.436783
 20
132.279236
 30
0.0
 11
137.436783
 21
122.279236
 31
0.0
  0
LINE
  8
0
 10
112.436775
 20
122.279228
 30
0.0
 11
111.436775
 21
123.279236
 31
0.0
  0
LINE
  8
0
 10
112.436783
 20
132.279221
 30
0.0
 11
111.436783
 21
131.279221
 31
0.0
  0
LINE
  8
0
 10
112.436783
 20
132.279236
 30
0.0
 11
112.436783
 21
122.279236
 31
0.0
  0
LINE
  8
0
 10
111.811783
 20
131.654236
 30
0.0
 11
120.436783
 21
131.654236
 31
0.0
  0
LINE
  8
0
 10
111.811783
 20
122.904236
 30
0.0
 11
120.436783
 21
122.904236
 31
0.0
  0
LINE
  8
0
 10
134.436783
 20
131.654297
 30
0.0
 11
135.519302
 21
132.279297
 31
0.0
  0
LINE
  8
0
 10
134.436783
 20
122.904228
 30
0.0
 11
135.519318
 21
122.279236
 31
0.0
  0
LINE
  8
0
 10
120.436783
 20
134.279236
 30
0.0
 11
120.436783
 21
120.279251
 31
0.0
  0
LINE
  8
0
 10
126.436783
 20
122.904236
 30
0.0
 11
134.436783
 21
122.904236
 31
0.0
  0
LINE
  8
0
 10
126.436783
 20
122.279236
 30
0.0
 11
141.436783
 21
122.279236
 31
0.0
  0
LINE
  8
0
 10
126.436783
 20
132.279236
 30
0.0
 11
141.436783
 21
132.279236
 31
0.0
  0
LINE
  8
0
 10
126.436783
 20
131.654236
 30
0.0
 11
134.436783
 21
131.654236
 31
0.0
  0
LINE
  8
0
 10
120.436768
 20
134.279236
 30
0.0
 11
121.061996
 21
135.362152
 31
0.0
  0
LINE
  8
0
 10
126.436783
 20
134.279236
 30
0.0
 11
126.436783
 21
120.279221
 31
0.0
  0
LINE
  8
0
 10
125.811562
 20
131.320694
 30
0.0
 11
121.062004
 21
131.320694
 31
0.0
  0
LINE
  8
0
 10
126.436783
 20
134.279251
 30
0.0
 11
125.811562
 21
135.362152
 31
0.0
  0
LINE
  8
0
 10
125.811562
 20
135.362152
 30
0.0
 11
121.061996
 21
135.362152
 31
0.0
  0
LINE
  8
0
 10
120.436775
 20
120.279236
 30
0.0
 11
121.061996
 21
119.196335
 31
0.0
  0
LINE
  8
0
 10
125.811562
 20
123.237778
 30
0.0
 11
121.062004
 21
123.237778
 31
0.0
  0
LINE
  8
0
  6
CENTER
 10
108.436783
 20
127.279236
 30
0.0
 11
256.436768
 21
127.279236
 31
0.0
  0
LINE
  8
0
  6
CENTER
 10
166.936783
 20
137.279236
 30
0.0
 11
179.936783
 21
137.279236
 31
0.0
  0
LINE
  8
0
  6
CENTER
 10
173.436783
 20
143.779236
 30
0.0
 11
173.436783
 21
130.779236
 31
0.0
  0
LINE
  8
0
  6
CENTER
 10
173.436783
 20
123.779236
 30
0.0
 11
173.436783
 21
110.779236
 31
0.0
  0
LINE
  8
0
  6
CENTER
 10
166.936783
 20
117.279236
 30
0.0
 11
179.936783
 21
117.279236
 31
0.0
  0
LINE
  8
0
 10
175.936783
 20
141.609344
 30
0.0
 11
188.15921
 21
162.779221
 31
0.0
  0
LINE
  8
0
 10
116.436768
 20
122.279213
 30
0.0
 11
104.601089
 21
101.779213
 31
0.0
  0
LINE
  8
0
 10
114.315475
 20
120.157928
 30
0.0
 11
116.43679
 21
122.279251
 31
0.0
  0
LINE
  8
0
 10
175.936798
 20
141.609375
 30
0.0
 11
178.058105
 21
143.730698
 31
0.0
  0
LINE
  8
0
 10
175.936783
 20
141.60936
 30
0.0
 11
176.713242
 21
144.507141
 31
0.0
  0
LINE
  8
0
 10
115.660324
 20
119.381462
 30
0.0
 11
116.436783
 21
122.279236
 31
0.0
  0
LINE
  8
0
 10
104.601097
 20
101.779236
 30
0.0
 11
138.523788
 21
101.779236
 31
0.0
  0
LINE
  8
0
 10
188.15921
 20
162.779236
 30
0.0
 11
215.323792
 21
162.779236
 31
0.0
  0
LINE
  8
0
 10
34.436722
 20
131.320679
 30
0.0
 11
34.436722
 21
123.23777
 31
0.0
  0
LINE
  8
0
 10
41.436729
 20
135.362228
 30
0.0
 11
34.436729
 21
131.320786
 31
0.0
  0
LINE
  8
0
 10
61.936752
 20
147.779221
 30
0.0
 11
61.936752
 21
106.779213
 31
0.0
  0
LINE
  8
0
 10
41.436752
 20
147.779221
 30
0.0
 11
61.936752
 21
147.779221
 31
0.0
  0
LINE
  8
0
 10
41.436752
 20
106.779213
 30
0.0
 11
61.936752
 21
106.779213
 31
0.0
  0
LINE
  8
0
 10
34.436749
 20
123.23774
 30
0.0
 11
41.436729
 21
119.196297
 31
0.0
  0
LINE
  8
0
 10
41.436749
 20
119.196342
 30
0.0
 11
48.43676
 21
123.237801
 31
0.0
  0
LINE
  8
0
 10
48.436752
 20
123.237762
 30
0.0
 11
48.436752
 21
131.320663
 31
0.0
  0
LINE
  8
0
 10
48.436733
 20
131.320648
 30
0.0
 11
41.436752
 21
135.362091
 31
0.0
  0
LINE
  8
0
  6
CENTER
 10
17.936752
 20
127.279213
 30
0.0
 11
64.936752
 21
127.279213
 31
0.0
  0
LINE
  8
0
  6
CENTER
 10
41.436752
 20
150.779221
 30
0.0
 11
41.436752
 21
103.779213
 31
0.0
  0
LINE
  8
0
  6
CENTER
 10
26.936752
 20
137.279221
 30
0.0
 11
35.936752
 21
137.279221
 31
0.0
  0
LINE
  8
0
  6
CENTER
 10
31.436752
 20
141.779221
 30
0.0
 11
31.436752
 21
132.779221
 31
0.0
  0
LINE
  8
0
  6
CENTER
 10
46.936752
 20
137.279221
 30
0.0
 11
55.936752
 21
137.279221
 31
0.0
  0
LINE
  8
0
  6
CENTER
 10
51.436752
 20
141.779221
 30
0.0
 11
51.436752
 21
132.779221
 31
0.0
  0
LINE
  8
0
  6
CENTER
 10
51.436752
 20
121.779213
 30
0.0
 11
51.436752
 21
112.779213
 31
0.0
  0
LINE
  8
0
  6
CENTER
 10
46.936752
 20
117.279213
 30
0.0
 11
55.936752
 21
117.279213
 31
0.0
  0
LINE
  8
0
  6
CENTER
 10
31.436752
 20
121.779213
 30
0.0
 11
31.436752
 21
112.779213
 31
0.0
  0
LINE
  8
0
  6
CENTER
 10
26.936752
 20
117.279213
 30
0.0
 11
35.936752
 21
117.279213
 31
0.0
  0
LINE
  8
0
 10
52.686779
 20
139.444275
 30
0.0
 11
66.15921
 21
162.779221
 31
0.0
  0
LINE
  8
0
 10
52.686802
 20
139.444305
 30
0.0
 11
53.463261
 21
142.342087
 31
0.0
  0
LINE
  8
0
 10
52.686771
 20
139.444321
 30
0.0
 11
54.80809
 21
141.565643
 31
0.0
  0
LINE
  8
0
 10
66.15921
 20
162.779236
 30
0.0
 11
96.15921
 21
162.779236
 31
0.0
  0
LINE
  8
0
 10
300.936829
 20
147.779236
 30
0.0
 11
300.936829
 21
106.779236
 31
0.0
  0
LINE
  8
0
 10
300.936829
 20
106.779236
 30
0.0
 11
321.436829
 21
106.779236
 31
0.0
  0
LINE
  8
0
 10
300.936829
 20
147.779236
 30
0.0
 11
321.436829
 21
147.779236
 31
0.0
  0
LINE
  8
0
  6
CENTER
 10
297.936829
 20
127.279236
 30
0.0
 11
344.936829
 21
127.279236
 31
0.0
  0
LINE
  8
0
  6
CENTER
 10
321.436829
 20
150.779236
 30
0.0
 11
321.436829
 21
103.779236
 31
0.0
  0
LINE
  8
0
 10
322.686859
 20
129.44429
 30
0.0
 11
341.932831
 21
162.779236
 31
0.0
  0
LINE
  8
0
 10
322.686798
 20
129.444305
 30
0.0
 11
323.463226
 21
132.342072
 31
0.0
  0
LINE
  8
0
 10
322.686798
 20
129.44429
 30
0.0
 11
324.808105
 21
131.565613
 31
0.0
  0
LINE
  8
0
 10
317.481934
 20
162.779251
 30
0.0
 11
341.932739
 21
162.779251
 31
0.0
  0
ARC
  8
0
 10
122.858658
 20
121.217056
 30
0.0
 40
3.578126
 50
325.615417
 51
34.384491
  0
ARC
  8
0
 10
124.014908
 20
121.217056
 30
0.0
 40
3.578126
 50
145.615417
 51
214.384491
  0
ARC
  8
0
 10
122.858658
 20
133.341415
 30
0.0
 40
3.578122
 50
325.615509
 51
34.384491
  0
ARC
  8
0
 10
113.062119
 20
127.279236
 30
0.0
 40
13.374656
 50
342.411865
 51
17.588081
  0
ARC
  8
0
 10
133.811447
 20
127.279236
 30
0.0
 40
13.374654
 50
162.411911
 51
197.588089
  0
ARC
  8
0
 10
124.014908
 20
133.341415
 30
0.0
 40
3.578122
 50
145.615509
 51
214.384491
  0
CIRCLE
  8
0
 10
173.436783
 20
137.279236
 30
0.0
 40
4.25
  0
CIRCLE
  8
0
 10
173.436783
 20
117.279236
 30
0.0
 40
4.25
  0
CIRCLE
  8
0
 10
173.436783
 20
117.279236
 30
0.0
 40
5.0
  0
CIRCLE
  8
0
 10
173.436783
 20
137.279236
 30
0.0
 40
5.0
  0
CIRCLE
  8
0
 10
41.436752
 20
127.279213
 30
0.0
 40
20.0
  0
CIRCLE
  8
0
 10
41.436752
 20
127.279213
 30
0.0
 40
4.375
  0
CIRCLE
  8
0
 10
41.436752
 20
127.279213
 30
0.0
 40
5.0
  0
CIRCLE
  8
0
 10
41.436752
 20
127.279213
 30
0.0
 40
7.0
  0
CIRCLE
  8
0
 10
51.436752
 20
137.279221
 30
0.0
 40
2.5
  0
CIRCLE
  8
0
 10
51.436752
 20
137.279221
 30
0.0
 40
2.1
  0
CIRCLE
  8
0
 10
31.436752
 20
137.279221
 30
0.0
 40
2.5
  0
CIRCLE
  8
0
 10
31.436752
 20
137.279221
 30
0.0
 40
2.1
  0
CIRCLE
  8
0
 10
31.436752
 20
117.279213
 30
0.0
 40
2.5
  0
CIRCLE
  8
0
 10
31.436752
 20
117.279213
 30
0.0
 40
2.1
  0
CIRCLE
  8
0
 10
51.436752
 20
117.279213
 30
0.0
 40
2.1
  0
CIRCLE
  8
0
 10
51.436752
 20
117.279213
 30
0.0
 40
2.5
  0
ARC
  8
0
 10
41.436752
 20
127.279213
 30
0.0
 40
20.499992
 50
89.999977
 51
270.0
  0
ARC
  8
0
 10
321.436829
 20
127.279236
 30
0.0
 40
20.5
 50
0.0
 51
90.0
  0
ARC
  8
0
 10
321.436829
 20
127.279236
 30
0.0
 40
20.5
 50
270.0
 51
0.0
  0
CIRCLE
  8
0
 10
321.436829
 20
127.279236
 30
0.0
 40
2.1
  0
CIRCLE
  8
0
 10
321.436829
 20
127.279236
 30
0.0
 40
2.5
  0
CIRCLE
  8
0
 10
321.436829
 20
127.279236
 30
0.0
 40
18.200001
  0
TEXT
  8
0
 10
298.79776
 20
244.589584
 30
0.0
 40
4.242641
  1
DATE : JAN ,1992
 41
1.052631
  0
TEXT
  8
0
 10
2.257077
 20
243.907959
 30
0.0
 40
5.0
  1
TWIN PORT CYLINDER
 41
0.831919
  0
TEXT
  8
0
 10
12.035715
 20
221.757431
 30
0.0
 40
5.0
  1
MODEL : TWDA 32xSt-RA(15)
 41
1.052632
  0
TEXT
  8
0
 10
189.159225
 20
163.129242
 30
0.0
 40
3.5
  1
2-Rc1/8
 41
1.052632
  0
TEXT
  8
0
 10
108.601089
 20
102.129234
 30
0.0
 40
3.5
  1
M10x1.25
 41
1.052632
  0
TEXT
  8
0
 10
67.159225
 20
163.129242
 30
0.0
 40
3.5
  1
4-M5x0.8
 41
1.052632
  0
TEXT
  8
0
 10
318.932739
 20
163.129242
 30
0.0
 40
3.5
  1
M5x0.8
 41
1.052632
  0
TEXT
  8
0
 10
302.273193
 20
3.650512
 30
0.0
 40
5.0
  1
KOGANEI,CORP
 41
1.052632
  0
ENDSEC
  0
EOF
