  0
SECTION
  2
HEADER
  0
ENDSEC
  0
SECTION
  2
TABLES
  0
TABLE
  2
LTYPE
 70
     4
  0
LTYPE
  2
CONTINUOUS
 70
    64
  3
Solid line
 72
    65
 73
     0
 40
0.000000
  0
LTYPE
  2
DASHED
 70
    64
  3
__ __ __ __ __ __ __ __ __ __ __ __ __ __ __
 72
    65
 73
     2
 40
3.500000
 49
2.000000
 49
-1.500000
  0
LTYPE
  2
CENTER
 70
    64
  3
____ _ ____ _ ____ _ ____ _ ____ _ ____ _ ____
 72
    65
 73
     4
 40
17.500000
 49
13.000000
 49
-1.500000
 49
1.500000
 49
-1.500000
  0
LTYPE
  2
PHANTOM
 70
    64
  3
_____ _ _ _____ _ _ _____ _ _ _____ _ _ ____  
 72
    65
 73
     6
 40
15.500000
 49
8.000000
 49
-1.500000
 49
1.500000
 49
-1.500000
 49
1.500000
 49
-1.500000
  0
LTYPE
  2
DASHED1
 70
    64
  3
__ __ __ __ __ __ __ __ __ __ __ __ __ __ __
 72
    65
 73
     2
 40
1.500000
 49
1.000000
 49
-0.500000
  0
LTYPE
  2
DASHED2
 70
    64
  3
__ __ __ __ __ __ __ __ __ __ __ __ __ __ __
 72
    65
 73
     2
 40
3.500000
 49
2.500000
 49
-1.000000
  0
LTYPE
  2
DASHED3
 70
    64
  3
__ __ __ __ __ __ __ __ __ __ __ __ __ __ __
 72
    65
 73
     2
 40
6.000000
 49
4.000000
 49
-2.000000
  0
LTYPE
  2
DASHED4
 70
    64
  3
__ __ __ __ __ __ __ __ __ __ __ __ __ __ __
 72
    65
 73
     2
 40
12.000000
 49
10.000000
 49
-2.000000
  0
LTYPE
  2
DASHED5
 70
    64
  3
__ __ __ __ __ __ __ __ __ __ __ __ __ __ __
 72
    65
 73
     2
 40
17.000000
 49
15.000000
 49
-2.000000
  0
LTYPE
  2
DASHED6
 70
    64
  3
__ __ __ __ __ __ __ __ __ __ __ __ __ __ __
 72
    65
 73
     2
 40
29.000000
 49
27.000000
 49
-2.000000
  0
LTYPE
  2
PHANTOM1
 70
    64
  3
_____ _ _ _____ _ _ _____ _ _ _____ _ _ ____  
 72
    65
 73
     6
 40
31.000000
 49
25.000000
 49
-1.500000
 49
1.000000
 49
-1.000000
 49
1.000000
 49
-1.500000
  0
LTYPE
  2
PHANTOM2
 70
    64
  3
_____ _ _ _____ _ _ _____ _ _ _____ _ _ ____  
 72
    65
 73
     6
 40
36.000000
 49
27.000000
 49
-1.500000
 49
2.500000
 49
-1.000000
 49
2.500000
 49
-1.500000
  0
LTYPE
  2
PHANTOM3
 70
    64
  3
_____ _ _ _____ _ _ _____ _ _ _____ _ _ ____  
 72
    65
 73
     6
 40
78.000000
 49
64.000000
 49
-2.000000
 49
4.000000
 49
-2.000000
 49
4.000000
 49
-2.000000
  0
LTYPE
  2
CENTER1
 70
    64
  3
____ _ ____ _ ____ _ ____ _ ____ _ ____ _ ____
 72
    65
 73
     4
 40
19.000000
 49
14.000000
 49
-1.000000
 49
3.000000
 49
-1.000000
  0
LTYPE
  2
CENTER2
 70
    64
  3
____ _ ____ _ ____ _ ____ _ ____ _ ____ _ ____
 72
    65
 73
     4
 40
28.500000
 49
25.000000
 49
-1.000000
 49
1.500000
 49
-1.000000
  0
LTYPE
  2
CENTER3
 70
    64
  3
____ _ ____ _ ____ _ ____ _ ____ _ ____ _ ____
 72
    65
 73
     4
 40
31.500000
 49
27.000000
 49
-1.000000
 49
2.500000
 49
-1.000000
  0
LTYPE
  2
CENTER4
 70
    64
  3
____ _ ____ _ ____ _ ____ _ ____ _ ____ _ ____
 72
    65
 73
     4
 40
50.000000
 49
45.000000
 49
-1.000000
 49
3.000000
 49
-1.000000
  0
LTYPE
  2
CENTER5
 70
    64
  3
____ _ ____ _ ____ _ ____ _ ____ _ ____ _ ____
 72
    65
 73
     4
 40
100.000000
 49
92.000000
 49
-2.000000
 49
4.000000
 49
-2.000000
  0
LTYPE
  2
SBK1
 70
    64
  3
______ _ _ _ ______ _ _ _ ______ _ _ _ _____  
 72
    65
 73
     8
 40
60.500000
 49
45.000000
 49
-2.000000
 49
2.500000
 49
-2.000000
 49
2.500000
 49
-2.000000
 49
2.500000
 49
-2.000000
  0
LTYPE
  2
SBK2
 70
    64
  3
______ _ _ _ ______ _ _ _ ______ _ _ _ _____  
 72
    65
 73
     8
 40
84.000000
 49
64.000000
 49
-2.000000
 49
4.000000
 49
-2.000000
 49
4.000000
 49
-2.000000
 49
4.000000
 49
-2.000000
  0
LTYPE
  2
STCH
 70
    64
  3
__ __ __ __ __ __ __ __ __ __ __ __ __ __ __
 72
    65
 73
     2
 40
3.000000
 49
1.000000
 49
-2.000000
  0
LTYPE
  2
MTCH
 70
    64
  3
_____ _ _ _____ _ _ _____ _ _ _____ _ _ ____  
 72
    65
 73
     6
 40
80.000000
 49
66.000000
 49
-2.000000
 49
4.000000
 49
-2.000000
 49
4.000000
 49
-2.000000
  0
ENDTAB
  0
TABLE
  2
LAYER
 70
     1
  0
LAYER
  2
0
 70
     0
 62
     7
  6
CONTINUOUS
  0
ENDTAB
  0
TABLE
  2
STYLE
 70
     1
  0
STYLE
  2
STANDARD
 70
     0
 40
0.000000
 41
1.000000
 50
0.000000
 71
     0
 42
0.200000
  3
txt
  4
BIGFONT
  0
ENDTAB
  0
TABLE
  2
VIEW
 70
     0
  0
ENDTAB
  0
ENDSEC
  0
SECTION
  2
BLOCKS
  0
ENDSEC
  0
SECTION
  2
ENTITIES
  0
POINT
  8
0
 10
35.436783
 20
127.279236
  0
POINT
  8
0
 10
60.936783
 20
127.279236
  0
POINT
  8
0
 10
140.436783
 20
127.279236
  0
POINT
  8
0
 10
257.436768
 20
127.279236
  0
POINT
  8
0
 10
325.436829
 20
127.279236
  0
POINT
  8
0
 10
350.936829
 20
127.279236
  0
LINE
  8
0
 62
     3
 10
0.000000
 20
0.000000
 11
0.000000
 21
254.558472
  0
LINE
  8
0
 62
     3
 10
370.873566
 20
254.558472
 11
370.873566
 21
0.000000
  0
LINE
  8
0
 62
     3
 10
0.000000
 20
0.000000
 11
370.873566
 21
0.000000
  0
LINE
  8
0
 62
     3
 10
0.000000
 20
254.558472
 11
370.873566
 21
254.558472
  0
LINE
  8
0
 62
     3
 10
0.000000
 20
240.257431
 11
76.272194
 21
240.257431
  0
LINE
  8
0
 62
     3
 10
76.272194
 20
240.257431
 11
76.272194
 21
254.558472
  0
LINE
  8
0
 62
     3
 10
294.601379
 20
14.301025
 11
370.873566
 21
14.301025
  0
LINE
  8
0
 62
     3
 10
294.601379
 20
240.257431
 11
370.873566
 21
240.257431
  0
LINE
  8
0
 62
     3
 10
294.601379
 20
254.558472
 11
294.601379
 21
240.257431
  0
LINE
  8
0
 62
     3
 10
294.601379
 20
14.301025
 11
294.601379
 21
0.000000
  0
LINE
  8
0
 10
100.436783
 20
133.279236
 11
100.436783
 21
121.279236
  0
LINE
  8
0
 10
257.436768
 20
149.579239
 11
257.436768
 21
104.979233
  0
LINE
  8
0
 10
140.436783
 20
152.279236
 11
140.436783
 21
102.279236
  0
LINE
  8
0
 10
163.436783
 20
152.779236
 11
163.436783
 21
101.779236
  0
LINE
  8
0
 10
177.436783
 20
152.779236
 11
177.436783
 21
101.779236
  0
LINE
  8
0
 10
163.436783
 20
152.779236
 11
177.436783
 21
152.779236
  0
LINE
  8
0
 10
163.436783
 20
101.779236
 11
177.436783
 21
101.779236
  0
LINE
  8
0
 10
140.436783
 20
152.279236
 11
163.436783
 21
152.279236
  0
LINE
  8
0
 10
140.436783
 20
102.279236
 11
163.436783
 21
102.279236
  0
LINE
  8
0
 10
247.436783
 20
149.579239
 11
247.436783
 21
104.979233
  0
LINE
  8
0
 10
177.436783
 20
104.979233
 11
257.436768
 21
104.979233
  0
LINE
  8
0
 10
177.436783
 20
149.579239
 11
257.436768
 21
149.579239
  0
LINE
  8
0
 10
139.436783
 20
137.279236
 11
139.436783
 21
117.279236
  0
LINE
  8
0
 10
139.436783
 20
137.279236
 11
140.436783
 21
137.279236
  0
LINE
  8
0
 10
139.436783
 20
117.279236
 11
140.436783
 21
117.279236
  0
LINE
  8
0
 10
101.436783
 20
134.279236
 11
108.436783
 21
134.279236
  0
LINE
  8
0
 10
101.436783
 20
120.279236
 11
108.436783
 21
120.279236
  0
LINE
  8
0
 10
131.436768
 20
135.279236
 11
139.436783
 21
135.279236
  0
LINE
  8
0
 10
131.436768
 20
119.279236
 11
139.436783
 21
119.279236
  0
LINE
  8
0
 10
123.436783
 20
134.279236
 11
123.436783
 21
120.279236
  0
LINE
  8
0
 10
125.436783
 20
134.279236
 11
125.436783
 21
120.279236
  0
LINE
  8
0
 10
126.436783
 20
134.279236
 11
126.436783
 21
120.279236
  0
LINE
  8
0
 10
101.436813
 20
120.279274
 11
100.436813
 21
121.279274
  0
LINE
  8
0
 10
101.436798
 20
134.279221
 11
100.436790
 21
133.279221
  0
LINE
  8
0
 10
101.436783
 20
134.279236
 11
101.436783
 21
120.279236
  0
LINE
  8
0
 10
100.686783
 20
121.029236
 11
108.436783
 21
121.029236
  0
LINE
  8
0
 10
100.686783
 20
133.529236
 11
108.436783
 21
133.529236
  0
LINE
  8
0
 10
123.436768
 20
121.029243
 11
124.735809
 21
120.279243
  0
LINE
  8
0
 10
123.436783
 20
133.529175
 11
124.735825
 21
134.279175
  0
LINE
  8
0
 10
116.436783
 20
121.029236
 11
123.436783
 21
121.029236
  0
LINE
  8
0
 10
116.436783
 20
120.279236
 11
130.436783
 21
120.279236
  0
LINE
  8
0
 10
116.436783
 20
134.279236
 11
130.436783
 21
134.279236
  0
LINE
  8
0
 10
116.436783
 20
133.529236
 11
123.436783
 21
133.529236
  0
LINE
  8
0
 10
108.436775
 20
136.779266
 11
109.285278
 21
138.248917
  0
LINE
  8
0
 10
115.588272
 20
132.764053
 11
109.285278
 21
132.764053
  0
LINE
  8
0
 10
116.436775
 20
136.779236
 11
115.588272
 21
138.248871
  0
LINE
  8
0
 10
115.588280
 20
138.248871
 11
109.285278
 21
138.248871
  0
LINE
  8
0
 10
108.436783
 20
117.779228
 11
108.436783
 21
136.779236
  0
LINE
  8
0
 10
108.436783
 20
117.779243
 11
109.285286
 21
116.309601
  0
LINE
  8
0
 10
116.436783
 20
117.779228
 11
116.436783
 21
136.779236
  0
LINE
  8
0
 10
115.588272
 20
121.794418
 11
109.285294
 21
121.794418
  0
LINE
  8
0
 10
116.436768
 20
117.779243
 11
115.588272
 21
116.309608
  0
LINE
  8
0
 10
115.588280
 20
116.309593
 11
109.285278
 21
116.309593
  0
LINE
  8
0
 10
130.436783
 20
120.279236
 11
131.436783
 21
119.279236
  0
LINE
  8
0
 10
130.436783
 20
134.279236
 11
131.436783
 21
135.279236
  0
LINE
  8
0
  6
CENTER
 10
97.436783
 20
127.279236
 11
260.436768
 21
127.279236
  0
LINE
  8
0
  6
CENTER
 10
170.436783
 20
146.779236
 11
170.436783
 21
133.779236
  0
LINE
  8
0
  6
CENTER
 10
163.936783
 20
140.279236
 11
176.936783
 21
140.279236
  0
LINE
  8
0
  6
CENTER
 10
170.436783
 20
120.779236
 11
170.436783
 21
107.779236
  0
LINE
  8
0
  6
CENTER
 10
163.936783
 20
114.279236
 11
176.936783
 21
114.279236
  0
LINE
  8
0
 10
172.936783
 20
144.609375
 11
186.313919
 21
167.779251
  0
LINE
  8
0
 10
104.936768
 20
120.279259
 11
91.369034
 21
96.779251
  0
LINE
  8
0
 10
104.160309
 20
117.381454
 11
104.936768
 21
120.279236
  0
LINE
  8
0
 10
172.936783
 20
144.609360
 11
173.713242
 21
147.507141
  0
LINE
  8
0
 10
172.936798
 20
144.609375
 11
175.058105
 21
146.730698
  0
LINE
  8
0
 10
102.815445
 20
118.157936
 11
104.936768
 21
120.279251
  0
LINE
  8
0
 10
91.369041
 20
96.779228
 11
121.369041
 21
96.779228
  0
LINE
  8
0
 10
186.313919
 20
167.779236
 11
213.716110
 21
167.779236
  0
LINE
  8
0
 10
25.936768
 20
132.764053
 11
25.936768
 21
121.794403
  0
LINE
  8
0
 10
35.436783
 20
101.779236
 11
60.936783
 21
101.779236
  0
LINE
  8
0
 10
35.436783
 20
152.779236
 11
60.936783
 21
152.779236
  0
LINE
  8
0
 10
25.936760
 20
121.794403
 11
35.436775
 21
116.309563
  0
LINE
  8
0
 10
35.436749
 20
116.309662
 11
44.936745
 21
121.794487
  0
LINE
  8
0
 10
44.936768
 20
121.794418
 11
44.936768
 21
132.764069
  0
LINE
  8
0
 10
44.936768
 20
132.764038
 11
35.436768
 21
138.248871
  0
LINE
  8
0
 10
35.436710
 20
138.248993
 11
25.936707
 21
132.764175
  0
LINE
  8
0
  6
CENTER
 10
6.936783
 20
127.279236
 11
63.936783
 21
127.279236
  0
LINE
  8
0
  6
CENTER
 10
35.436783
 20
155.779236
 11
35.436783
 21
98.779236
  0
LINE
  8
0
  6
CENTER
 10
22.436783
 20
119.279236
 11
22.436783
 21
109.279236
  0
LINE
  8
0
  6
CENTER
 10
17.436783
 20
114.279236
 11
27.436783
 21
114.279236
  0
LINE
  8
0
  6
CENTER
 10
48.436783
 20
119.279236
 11
48.436783
 21
109.279236
  0
LINE
  8
0
  6
CENTER
 10
43.436783
 20
114.279236
 11
53.436783
 21
114.279236
  0
LINE
  8
0
  6
CENTER
 10
48.436783
 20
145.279236
 11
48.436783
 21
135.279236
  0
LINE
  8
0
  6
CENTER
 10
43.436783
 20
140.279236
 11
53.436783
 21
140.279236
  0
LINE
  8
0
  6
CENTER
 10
22.436783
 20
145.279236
 11
22.436783
 21
135.279236
  0
LINE
  8
0
  6
CENTER
 10
17.436783
 20
140.279236
 11
27.436783
 21
140.279236
  0
LINE
  8
0
 10
60.936783
 20
152.779236
 11
60.936783
 21
101.779236
  0
LINE
  8
0
 10
49.936790
 20
142.877319
 11
64.313927
 21
167.779236
  0
LINE
  8
0
 10
49.936779
 20
142.877319
 11
52.058102
 21
144.998642
  0
LINE
  8
0
 10
49.936779
 20
142.877304
 11
50.713238
 21
145.775085
  0
LINE
  8
0
 10
64.313919
 20
167.779236
 11
87.646271
 21
167.779236
  0
LINE
  8
0
 10
299.936829
 20
152.779236
 11
325.436829
 21
152.779236
  0
LINE
  8
0
 10
299.936829
 20
152.779236
 11
299.936829
 21
101.779236
  0
LINE
  8
0
 10
299.936829
 20
101.779236
 11
325.436829
 21
101.779236
  0
LINE
  8
0
  6
CENTER
 10
296.936829
 20
127.279236
 11
353.936829
 21
127.279236
  0
LINE
  8
0
  6
CENTER
 10
325.436829
 20
155.779236
 11
325.436829
 21
98.779236
  0
LINE
  8
0
 10
326.936798
 20
129.877319
 11
348.819489
 21
167.779221
  0
LINE
  8
0
 10
326.936859
 20
129.877304
 11
329.058167
 21
131.998627
  0
LINE
  8
0
 10
326.936798
 20
129.877304
 11
327.713257
 21
132.775085
  0
LINE
  8
0
 10
332.929993
 20
167.779221
 11
348.819489
 21
167.779221
  0
CIRCLE
  8
0
 10
170.436783
 20
114.279236
 40
5.000000
  0
CIRCLE
  8
0
 10
170.436783
 20
114.279236
 40
4.250000
  0
ARC
  8
0
 10
111.580704
 20
119.052002
 40
4.856070
 50
325.615875
 51
34.384125
  0
ARC
  8
0
 10
113.292862
 20
119.052002
 40
4.856074
 50
145.615799
 51
214.384079
  0
ARC
  8
0
 10
111.580704
 20
135.506470
 40
4.856074
 50
325.615814
 51
34.384052
  0
ARC
  8
0
 10
98.285263
 20
127.279228
 40
18.151524
 50
342.412140
 51
17.587866
  0
ARC
  8
0
 10
126.588303
 20
127.279228
 40
18.151527
 50
162.412094
 51
197.587830
  0
ARC
  8
0
 10
113.292862
 20
135.506470
 40
4.856074
 50
145.615799
 51
214.384201
  0
CIRCLE
  8
0
 10
170.436783
 20
140.279236
 40
4.250000
  0
CIRCLE
  8
0
 10
170.436783
 20
140.279236
 40
5.000000
  0
CIRCLE
  8
0
 10
35.436783
 20
127.279236
 40
25.000000
  0
CIRCLE
  8
0
 10
35.436783
 20
127.279236
 40
6.250000
  0
CIRCLE
  8
0
 10
35.436783
 20
127.279236
 40
7.000000
  0
CIRCLE
  8
0
 10
35.436783
 20
127.279236
 40
9.500000
  0
CIRCLE
  8
0
 10
48.436783
 20
114.279236
 40
2.500000
  0
CIRCLE
  8
0
 10
48.436783
 20
114.279236
 40
3.000000
  0
CIRCLE
  8
0
 10
22.436783
 20
114.279236
 40
2.500000
  0
CIRCLE
  8
0
 10
22.436783
 20
114.279236
 40
3.000000
  0
CIRCLE
  8
0
 10
22.436783
 20
140.279236
 40
2.500000
  0
CIRCLE
  8
0
 10
22.436783
 20
140.279236
 40
3.000000
  0
CIRCLE
  8
0
 10
48.436783
 20
140.279236
 40
2.500000
  0
CIRCLE
  8
0
 10
48.436783
 20
140.279236
 40
3.000000
  0
ARC
  8
0
 10
35.436783
 20
127.279236
 40
25.500000
 50
89.999985
 51
270.000000
  0
CIRCLE
  8
0
 10
325.436829
 20
127.279236
 40
22.299999
  0
CIRCLE
  8
0
 10
325.436829
 20
127.279236
 40
2.500000
  0
CIRCLE
  8
0
 10
325.436829
 20
127.279236
 40
3.000000
  0
ARC
  8
0
 10
325.436829
 20
127.279236
 40
25.500000
 50
270.000000
 51
0.000000
  0
ARC
  8
0
 10
325.436829
 20
127.279236
 40
25.500000
 50
0.000000
 51
90.000000
  0
TEXT
  8
0
 10
298.797760
 20
244.589584
 40
4.242641
  1
DATE : JAN ,1992
 50
0.000000
 41
1.052631
 51
0.000000
  7
STANDARD
  0
TEXT
  8
0
 10
2.257077
 20
243.907959
 40
5.000000
  1
TWIN PORT CYLINDER
 50
0.000000
 41
0.831919
 51
0.000000
  7
STANDARD
  0
TEXT
  8
0
 10
12.035715
 20
221.757431
 40
5.000000
  1
MODEL : TWDA 40xSt-RA(15)
 50
0.000000
 41
1.052632
 51
0.000000
  7
STANDARD
  0
TEXT
  8
0
 10
187.313919
 20
168.629242
 40
3.500000
  1
2-Rc1/8
 50
0.000000
 41
1.052632
 51
0.000000
  7
STANDARD
  0
TEXT
  8
0
 10
95.369041
 20
97.629234
 40
3.500000
  1
M14x1.5
 50
0.000000
 41
1.052632
 51
0.000000
  7
STANDARD
  0
TEXT
  8
0
 10
65.313919
 20
168.629242
 40
3.500000
  1
4-M6x1
 50
0.000000
 41
1.052632
 51
0.000000
  7
STANDARD
  0
TEXT
  8
0
 10
333.819489
 20
168.129227
 40
3.500000
  1
M6x1
 50
0.000000
 41
1.052632
 51
0.000000
  7
STANDARD
  0
TEXT
  8
0
 10
302.273193
 20
3.650512
 40
5.000000
  1
KOGANEI,CORP
 50
0.000000
 41
1.052632
 51
0.000000
  7
STANDARD
  0
ENDSEC
  0
EOF
