  0
SECTION
  2
HEADER
  0
ENDSEC
  0
SECTION
  2
TABLES
  0
TABLE
  2
LTYPE
 70
     4
  0
LTYPE
  2
CONTINUOUS
 70
    64
  3
Solid line
 72
    65
 73
     0
 40
0.000000
  0
LTYPE
  2
DASHED
 70
    64
  3
__ __ __ __ __ __ __ __ __ __ __ __ __ __ __
 72
    65
 73
     2
 40
3.500000
 49
2.000000
 49
-1.500000
  0
LTYPE
  2
CENTER
 70
    64
  3
____ _ ____ _ ____ _ ____ _ ____ _ ____ _ ____
 72
    65
 73
     4
 40
17.500000
 49
13.000000
 49
-1.500000
 49
1.500000
 49
-1.500000
  0
LTYPE
  2
PHANTOM
 70
    64
  3
_____ _ _ _____ _ _ _____ _ _ _____ _ _ ____  
 72
    65
 73
     6
 40
15.500000
 49
8.000000
 49
-1.500000
 49
1.500000
 49
-1.500000
 49
1.500000
 49
-1.500000
  0
LTYPE
  2
DASHED1
 70
    64
  3
__ __ __ __ __ __ __ __ __ __ __ __ __ __ __
 72
    65
 73
     2
 40
1.500000
 49
1.000000
 49
-0.500000
  0
LTYPE
  2
DASHED2
 70
    64
  3
__ __ __ __ __ __ __ __ __ __ __ __ __ __ __
 72
    65
 73
     2
 40
3.500000
 49
2.500000
 49
-1.000000
  0
LTYPE
  2
DASHED3
 70
    64
  3
__ __ __ __ __ __ __ __ __ __ __ __ __ __ __
 72
    65
 73
     2
 40
6.000000
 49
4.000000
 49
-2.000000
  0
LTYPE
  2
DASHED4
 70
    64
  3
__ __ __ __ __ __ __ __ __ __ __ __ __ __ __
 72
    65
 73
     2
 40
12.000000
 49
10.000000
 49
-2.000000
  0
LTYPE
  2
DASHED5
 70
    64
  3
__ __ __ __ __ __ __ __ __ __ __ __ __ __ __
 72
    65
 73
     2
 40
17.000000
 49
15.000000
 49
-2.000000
  0
LTYPE
  2
DASHED6
 70
    64
  3
__ __ __ __ __ __ __ __ __ __ __ __ __ __ __
 72
    65
 73
     2
 40
29.000000
 49
27.000000
 49
-2.000000
  0
LTYPE
  2
PHANTOM1
 70
    64
  3
_____ _ _ _____ _ _ _____ _ _ _____ _ _ ____  
 72
    65
 73
     6
 40
31.000000
 49
25.000000
 49
-1.500000
 49
1.000000
 49
-1.000000
 49
1.000000
 49
-1.500000
  0
LTYPE
  2
PHANTOM2
 70
    64
  3
_____ _ _ _____ _ _ _____ _ _ _____ _ _ ____  
 72
    65
 73
     6
 40
36.000000
 49
27.000000
 49
-1.500000
 49
2.500000
 49
-1.000000
 49
2.500000
 49
-1.500000
  0
LTYPE
  2
PHANTOM3
 70
    64
  3
_____ _ _ _____ _ _ _____ _ _ _____ _ _ ____  
 72
    65
 73
     6
 40
78.000000
 49
64.000000
 49
-2.000000
 49
4.000000
 49
-2.000000
 49
4.000000
 49
-2.000000
  0
LTYPE
  2
CENTER1
 70
    64
  3
____ _ ____ _ ____ _ ____ _ ____ _ ____ _ ____
 72
    65
 73
     4
 40
19.000000
 49
14.000000
 49
-1.000000
 49
3.000000
 49
-1.000000
  0
LTYPE
  2
CENTER2
 70
    64
  3
____ _ ____ _ ____ _ ____ _ ____ _ ____ _ ____
 72
    65
 73
     4
 40
28.500000
 49
25.000000
 49
-1.000000
 49
1.500000
 49
-1.000000
  0
LTYPE
  2
CENTER3
 70
    64
  3
____ _ ____ _ ____ _ ____ _ ____ _ ____ _ ____
 72
    65
 73
     4
 40
31.500000
 49
27.000000
 49
-1.000000
 49
2.500000
 49
-1.000000
  0
LTYPE
  2
CENTER4
 70
    64
  3
____ _ ____ _ ____ _ ____ _ ____ _ ____ _ ____
 72
    65
 73
     4
 40
50.000000
 49
45.000000
 49
-1.000000
 49
3.000000
 49
-1.000000
  0
LTYPE
  2
CENTER5
 70
    64
  3
____ _ ____ _ ____ _ ____ _ ____ _ ____ _ ____
 72
    65
 73
     4
 40
100.000000
 49
92.000000
 49
-2.000000
 49
4.000000
 49
-2.000000
  0
LTYPE
  2
SBK1
 70
    64
  3
______ _ _ _ ______ _ _ _ ______ _ _ _ _____  
 72
    65
 73
     8
 40
60.500000
 49
45.000000
 49
-2.000000
 49
2.500000
 49
-2.000000
 49
2.500000
 49
-2.000000
 49
2.500000
 49
-2.000000
  0
LTYPE
  2
SBK2
 70
    64
  3
______ _ _ _ ______ _ _ _ ______ _ _ _ _____  
 72
    65
 73
     8
 40
84.000000
 49
64.000000
 49
-2.000000
 49
4.000000
 49
-2.000000
 49
4.000000
 49
-2.000000
 49
4.000000
 49
-2.000000
  0
LTYPE
  2
STCH
 70
    64
  3
__ __ __ __ __ __ __ __ __ __ __ __ __ __ __
 72
    65
 73
     2
 40
3.000000
 49
1.000000
 49
-2.000000
  0
LTYPE
  2
MTCH
 70
    64
  3
_____ _ _ _____ _ _ _____ _ _ _____ _ _ ____  
 72
    65
 73
     6
 40
80.000000
 49
66.000000
 49
-2.000000
 49
4.000000
 49
-2.000000
 49
4.000000
 49
-2.000000
  0
ENDTAB
  0
TABLE
  2
LAYER
 70
     1
  0
LAYER
  2
0
 70
     0
 62
     7
  6
CONTINUOUS
  0
ENDTAB
  0
TABLE
  2
STYLE
 70
     1
  0
STYLE
  2
STANDARD
 70
     0
 40
0.000000
 41
1.000000
 50
0.000000
 71
     0
 42
0.200000
  3
txt
  4
BIGFONT
  0
ENDTAB
  0
TABLE
  2
VIEW
 70
     0
  0
ENDTAB
  0
ENDSEC
  0
SECTION
  2
BLOCKS
  0
ENDSEC
  0
SECTION
  2
ENTITIES
  0
POINT
  8
0
 10
37.436798
 20
127.279236
  0
POINT
  8
0
 10
60.436798
 20
127.279236
  0
POINT
  8
0
 10
135.436768
 20
127.279236
  0
POINT
  8
0
 10
259.436768
 20
127.279236
  0
POINT
  8
0
 10
327.436768
 20
127.279236
  0
POINT
  8
0
 10
350.436768
 20
127.279236
  0
LINE
  8
0
 62
     3
 10
0.000000
 20
0.000000
 11
0.000000
 21
254.558472
  0
LINE
  8
0
 62
     3
 10
370.873566
 20
254.558472
 11
370.873566
 21
0.000000
  0
LINE
  8
0
 62
     3
 10
0.000000
 20
0.000000
 11
370.873566
 21
0.000000
  0
LINE
  8
0
 62
     3
 10
0.000000
 20
254.558472
 11
370.873566
 21
254.558472
  0
LINE
  8
0
 62
     3
 10
0.000000
 20
240.257431
 11
76.272194
 21
240.257431
  0
LINE
  8
0
 62
     3
 10
76.272194
 20
240.257431
 11
76.272194
 21
254.558472
  0
LINE
  8
0
 62
     3
 10
294.601379
 20
14.301025
 11
370.873566
 21
14.301025
  0
LINE
  8
0
 62
     3
 10
294.601379
 20
240.257431
 11
370.873566
 21
240.257431
  0
LINE
  8
0
 62
     3
 10
294.601379
 20
254.558472
 11
294.601379
 21
240.257431
  0
LINE
  8
0
 62
     3
 10
294.601379
 20
14.301025
 11
294.601379
 21
0.000000
  0
LINE
  8
0
 10
132.436737
 20
120.279221
 11
133.436752
 21
119.279221
  0
LINE
  8
0
 10
132.436768
 20
134.279221
 11
133.436768
 21
135.279221
  0
LINE
  8
0
 10
102.436768
 20
133.279236
 11
102.436768
 21
121.279236
  0
LINE
  8
0
 10
259.436768
 20
149.579239
 11
259.436768
 21
104.979233
  0
LINE
  8
0
 10
135.436768
 20
161.279236
 11
135.436768
 21
93.279236
  0
LINE
  8
0
 10
179.436768
 20
161.279236
 11
179.436768
 21
93.279236
  0
LINE
  8
0
 10
135.436768
 20
161.279236
 11
179.436768
 21
161.279236
  0
LINE
  8
0
 10
135.436768
 20
158.775269
 11
148.343933
 21
158.775269
  0
LINE
  8
0
 10
135.436768
 20
95.783203
 11
148.343933
 21
95.783203
  0
LINE
  8
0
 10
135.436768
 20
93.279236
 11
179.436768
 21
93.279236
  0
LINE
  8
0
 10
249.436768
 20
149.579239
 11
249.436768
 21
104.979233
  0
LINE
  8
0
 10
179.436768
 20
104.979233
 11
259.436768
 21
104.979233
  0
LINE
  8
0
 10
179.436768
 20
149.579239
 11
259.436768
 21
149.579239
  0
LINE
  8
0
 10
134.436768
 20
137.279236
 11
134.436768
 21
117.279236
  0
LINE
  8
0
 10
134.436768
 20
137.279236
 11
135.436768
 21
137.279236
  0
LINE
  8
0
 10
134.436768
 20
117.279236
 11
135.436768
 21
117.279236
  0
LINE
  8
0
 10
152.529602
 20
158.775269
 11
179.436768
 21
158.775269
  0
LINE
  8
0
 10
152.529602
 20
95.783203
 11
179.436768
 21
95.783203
  0
LINE
  8
0
 10
103.436768
 20
134.279236
 11
110.436768
 21
134.279236
  0
LINE
  8
0
 10
103.436768
 20
120.279236
 11
110.436768
 21
120.279236
  0
LINE
  8
0
 10
133.436768
 20
135.279236
 11
134.436768
 21
135.279236
  0
LINE
  8
0
 10
133.436768
 20
119.279236
 11
134.436768
 21
119.279236
  0
LINE
  8
0
 10
125.436768
 20
134.279236
 11
125.436768
 21
120.279236
  0
LINE
  8
0
 10
127.436768
 20
134.279236
 11
127.436768
 21
120.279236
  0
LINE
  8
0
 10
103.436752
 20
134.279221
 11
102.436760
 21
133.279221
  0
LINE
  8
0
 10
103.436752
 20
120.279228
 11
102.436752
 21
121.279228
  0
LINE
  8
0
 10
103.436768
 20
134.279236
 11
103.436768
 21
120.279236
  0
LINE
  8
0
 10
128.436768
 20
134.279236
 11
128.436768
 21
120.279236
  0
LINE
  8
0
 10
102.686768
 20
121.029236
 11
110.436768
 21
121.029236
  0
LINE
  8
0
 10
102.686768
 20
133.529236
 11
110.436768
 21
133.529236
  0
LINE
  8
0
 10
125.436790
 20
133.529205
 11
126.735825
 21
134.279205
  0
LINE
  8
0
 10
125.436768
 20
121.029228
 11
126.735802
 21
120.279228
  0
LINE
  8
0
 10
110.436768
 20
136.779236
 11
110.436768
 21
117.779228
  0
LINE
  8
0
 10
118.436768
 20
120.279236
 11
132.436768
 21
120.279236
  0
LINE
  8
0
 10
118.436768
 20
121.029236
 11
125.436768
 21
121.029236
  0
LINE
  8
0
 10
118.436768
 20
133.529236
 11
125.436768
 21
133.529236
  0
LINE
  8
0
 10
118.436768
 20
134.279236
 11
132.436768
 21
134.279236
  0
LINE
  8
0
 10
110.436768
 20
136.779221
 11
111.285278
 21
138.248886
  0
LINE
  8
0
 10
110.436783
 20
117.779236
 11
111.285286
 21
116.309578
  0
LINE
  8
0
 10
118.436768
 20
136.779236
 11
118.436768
 21
117.779236
  0
LINE
  8
0
 10
117.588264
 20
132.764069
 11
111.285263
 21
132.764069
  0
LINE
  8
0
 10
118.436768
 20
136.779236
 11
117.588264
 21
138.248886
  0
LINE
  8
0
 10
117.588272
 20
138.248886
 11
111.285263
 21
138.248886
  0
LINE
  8
0
 10
117.588264
 20
121.794403
 11
111.285271
 21
121.794403
  0
LINE
  8
0
 10
118.436760
 20
117.779243
 11
117.588257
 21
116.309578
  0
LINE
  8
0
 10
117.588272
 20
116.309578
 11
111.285263
 21
116.309578
  0
LINE
  8
0
  6
CENTER
 10
99.436768
 20
127.279236
 11
262.436768
 21
127.279236
  0
LINE
  8
0
  6
CENTER
 10
150.436768
 20
161.279236
 11
150.436768
 21
139.279236
  0
LINE
  8
0
  6
CENTER
 10
139.436768
 20
150.279236
 11
161.436768
 21
150.279236
  0
LINE
  8
0
  6
CENTER
 10
162.936768
 20
140.279236
 11
179.936768
 21
140.279236
  0
LINE
  8
0
  6
CENTER
 10
171.436768
 20
148.779236
 11
171.436768
 21
131.779236
  0
LINE
  8
0
  6
CENTER
 10
171.436768
 20
105.779236
 11
171.436768
 21
122.779236
  0
LINE
  8
0
  6
CENTER
 10
162.936768
 20
114.279236
 11
179.936768
 21
114.279236
  0
LINE
  8
0
  6
CENTER
 10
150.436768
 20
93.279236
 11
150.436768
 21
115.279236
  0
LINE
  8
0
  6
CENTER
 10
139.436768
 20
104.279236
 11
161.436768
 21
104.279236
  0
LINE
  8
0
 10
173.936768
 20
144.609360
 11
189.334625
 21
171.279236
  0
LINE
  8
0
 10
106.936806
 20
120.279221
 11
91.348351
 21
93.279221
  0
LINE
  8
0
 10
106.160362
 20
117.381447
 11
106.936813
 21
120.279221
  0
LINE
  8
0
 10
173.936783
 20
144.609360
 11
174.713242
 21
147.507141
  0
LINE
  8
0
 10
173.936798
 20
144.609375
 11
176.058105
 21
146.730698
  0
LINE
  8
0
 10
104.815498
 20
118.157928
 11
106.936821
 21
120.279243
  0
LINE
  8
0
 10
91.348351
 20
93.279236
 11
124.134987
 21
93.279236
  0
LINE
  8
0
 10
189.334641
 20
171.279236
 11
216.068314
 21
171.279236
  0
LINE
  8
0
  6
CENTER
 10
11.436798
 20
104.279236
 11
63.436798
 21
104.279236
  0
LINE
  8
0
  6
DASHED
 10
25.236801
 20
109.779236
 11
49.636795
 21
109.779236
  0
LINE
  8
0
  6
DASHED
 10
25.236801
 20
98.779236
 11
49.636795
 21
98.779236
  0
LINE
  8
0
  6
DASHED
 10
14.788681
 20
95.529236
 11
25.236801
 21
95.529236
  0
LINE
  8
0
  6
DASHED
 10
14.436798
 20
113.029236
 11
25.236801
 21
113.029236
  0
LINE
  8
0
  6
DASHED
 10
25.236801
 20
113.029236
 11
25.236801
 21
95.529236
  0
LINE
  8
0
  6
DASHED
 10
49.636795
 20
113.029236
 11
49.636795
 21
95.529236
  0
LINE
  8
0
  6
DASHED
 10
49.636795
 20
113.029236
 11
60.436798
 21
113.029236
  0
LINE
  8
0
  6
DASHED
 10
49.636795
 20
95.529236
 11
60.084930
 21
95.529236
  0
LINE
  8
0
  6
DASHED
 10
14.436798
 20
141.529236
 11
25.236801
 21
141.529236
  0
LINE
  8
0
  6
DASHED
 10
25.236801
 20
159.029236
 11
25.236801
 21
141.529236
  0
LINE
  8
0
  6
DASHED
 10
25.236801
 20
144.779236
 11
49.636795
 21
144.779236
  0
LINE
  8
0
  6
CENTER
 10
11.436798
 20
150.279236
 11
63.436798
 21
150.279236
  0
LINE
  8
0
  6
DASHED
 10
25.236801
 20
155.779236
 11
49.636795
 21
155.779236
  0
LINE
  8
0
  6
DASHED
 10
14.788681
 20
159.029236
 11
25.236801
 21
159.029236
  0
LINE
  8
0
  6
DASHED
 10
49.636795
 20
159.029236
 11
60.084930
 21
159.029236
  0
LINE
  8
0
  6
DASHED
 10
49.636795
 20
159.029236
 11
49.636795
 21
141.529236
  0
LINE
  8
0
  6
DASHED
 10
49.636795
 20
141.529236
 11
60.436798
 21
141.529236
  0
LINE
  8
0
 10
27.936811
 20
121.794380
 11
37.436790
 21
116.309563
  0
LINE
  8
0
 10
37.436790
 20
116.309647
 11
46.936787
 21
121.794464
  0
LINE
  8
0
 10
46.936798
 20
121.794403
 11
46.936798
 21
132.764069
  0
LINE
  8
0
 10
46.936813
 20
132.764038
 11
37.436806
 21
138.248886
  0
LINE
  8
0
 10
37.436733
 20
138.248978
 11
27.936729
 21
132.764160
  0
LINE
  8
0
 10
27.936783
 20
132.764053
 11
27.936783
 21
121.794403
  0
LINE
  8
0
 10
14.436798
 20
158.775269
 11
14.436798
 21
95.783203
  0
LINE
  8
0
  6
CENTER
 10
11.436798
 20
127.279236
 11
63.436798
 21
127.279236
  0
LINE
  8
0
  6
CENTER
 10
37.436798
 20
164.279236
 11
37.436798
 21
90.279236
  0
LINE
  8
0
 10
18.331818
 20
161.279236
 11
56.541779
 21
161.279236
  0
LINE
  8
0
 10
60.436798
 20
158.775269
 11
60.436798
 21
95.783203
  0
LINE
  8
0
 10
18.331818
 20
93.279236
 11
56.541779
 21
93.279236
  0
LINE
  8
0
  6
CENTER
 10
301.436768
 20
127.279236
 11
353.436768
 21
127.279236
  0
LINE
  8
0
  6
CENTER
 10
327.436768
 20
164.279236
 11
327.436768
 21
90.279236
  0
LINE
  8
0
 10
304.436768
 20
158.775269
 11
304.436768
 21
95.783203
  0
LINE
  8
0
 10
350.436768
 20
158.775269
 11
350.436768
 21
95.783203
  0
LINE
  8
0
 10
308.331787
 20
161.279236
 11
346.541748
 21
161.279236
  0
LINE
  8
0
 10
308.331787
 20
93.279236
 11
346.541748
 21
93.279236
  0
LINE
  8
0
  6
CENTER
 10
340.436768
 20
90.279236
 11
340.436768
 21
104.779236
  0
LINE
  8
0
  6
DASHED
 10
335.811768
 20
100.279236
 11
345.061768
 21
100.279236
  0
LINE
  8
0
  6
DASHED
 10
336.186768
 20
93.279236
 11
336.186768
 21
101.779236
  0
LINE
  8
0
  6
DASHED
 10
344.686768
 20
93.279236
 11
344.686768
 21
101.779236
  0
LINE
  8
0
  6
DASHED
 10
304.436768
 20
133.579239
 11
306.236786
 21
133.579239
  0
LINE
  8
0
  6
DASHED
 10
306.236786
 20
146.979233
 11
306.236786
 21
133.579239
  0
LINE
  8
0
  6
DASHED
 10
306.236847
 20
135.279282
 11
311.436829
 21
135.654282
  0
LINE
  8
0
  6
DASHED
 10
306.236786
 20
136.029236
 11
312.936768
 21
136.029236
  0
LINE
  8
0
  6
DASHED
 10
311.436768
 20
144.904236
 11
311.436768
 21
135.654236
  0
LINE
  8
0
  6
CENTER
 10
301.436768
 20
140.279236
 11
315.936768
 21
140.279236
  0
LINE
  8
0
  6
DASHED
 10
306.236786
 20
144.529236
 11
312.936768
 21
144.529236
  0
LINE
  8
0
  6
DASHED
 10
306.236816
 20
145.279327
 11
311.436798
 21
144.904327
  0
LINE
  8
0
  6
DASHED
 10
304.436768
 20
146.979233
 11
306.236786
 21
146.979233
  0
LINE
  8
0
  6
DASHED
 10
304.436768
 20
107.579239
 11
306.236786
 21
107.579239
  0
LINE
  8
0
  6
DASHED
 10
306.236847
 20
119.279312
 11
311.436829
 21
118.904312
  0
LINE
  8
0
  6
DASHED
 10
306.236786
 20
110.029236
 11
312.936768
 21
110.029236
  0
LINE
  8
0
  6
DASHED
 10
306.236816
 20
109.279259
 11
311.436829
 21
109.654259
  0
LINE
  8
0
  6
DASHED
 10
311.436768
 20
118.904236
 11
311.436768
 21
109.654236
  0
LINE
  8
0
  6
CENTER
 10
301.436768
 20
114.279236
 11
315.936768
 21
114.279236
  0
LINE
  8
0
  6
DASHED
 10
306.236786
 20
118.529236
 11
312.936768
 21
118.529236
  0
LINE
  8
0
  6
DASHED
 10
306.236786
 20
120.979233
 11
306.236786
 21
107.579239
  0
LINE
  8
0
  6
DASHED
 10
304.436768
 20
120.979233
 11
306.236786
 21
120.979233
  0
LINE
  8
0
  6
DASHED
 10
335.811707
 20
100.279221
 11
335.436707
 21
93.279236
  0
LINE
  8
0
  6
DASHED
 10
345.061615
 20
100.279243
 11
345.436615
 21
93.279236
  0
LINE
  8
0
  6
DASHED
 10
309.811707
 20
100.279236
 11
309.436707
 21
93.279228
  0
LINE
  8
0
  6
DASHED
 10
310.186768
 20
93.279236
 11
310.186768
 21
101.779236
  0
LINE
  8
0
  6
CENTER
 10
314.436768
 20
90.279236
 11
314.436768
 21
104.779236
  0
LINE
  8
0
  6
DASHED
 10
318.686768
 20
93.279236
 11
318.686768
 21
101.779236
  0
LINE
  8
0
  6
DASHED
 10
319.061707
 20
100.279236
 11
319.436707
 21
93.279236
  0
LINE
  8
0
  6
DASHED
 10
309.811768
 20
100.279236
 11
319.061768
 21
100.279236
  0
ARC
  8
0
 10
113.580704
 20
119.051994
 40
4.856063
 50
325.615814
 51
34.384178
  0
ARC
  8
0
 10
100.285202
 20
127.279228
 40
18.151562
 50
342.412140
 51
17.587929
  0
ARC
  8
0
 10
113.580704
 20
135.506470
 40
4.856067
 50
325.615753
 51
34.384251
  0
ARC
  8
0
 10
115.292831
 20
119.051994
 40
4.856063
 50
145.615829
 51
214.384125
  0
ARC
  8
0
 10
128.588333
 20
127.279228
 40
18.151556
 50
162.412109
 51
197.587799
  0
ARC
  8
0
 10
115.292831
 20
135.506470
 40
4.856067
 50
145.615753
 51
214.384048
  0
CIRCLE
  8
0
 10
150.436768
 20
104.279236
 40
8.750000
  0
CIRCLE
  8
0
 10
150.436768
 20
104.279236
 40
5.500000
  0
CIRCLE
  8
0
 10
171.436768
 20
114.279236
 40
4.250000
  0
CIRCLE
  8
0
 10
171.436768
 20
114.279236
 40
5.000000
  0
CIRCLE
  8
0
 10
171.436768
 20
114.279236
 40
6.700000
  0
CIRCLE
  8
0
 10
171.436768
 20
140.279236
 40
4.250000
  0
CIRCLE
  8
0
 10
171.436768
 20
140.279236
 40
5.000000
  0
CIRCLE
  8
0
 10
171.436768
 20
140.279236
 40
6.700000
  0
CIRCLE
  8
0
 10
150.436768
 20
150.279236
 40
8.750000
  0
CIRCLE
  8
0
 10
150.436768
 20
150.279236
 40
5.500000
  0
ARC
  8
0
 10
37.436798
 20
127.279236
 40
39.000000
 50
299.332123
 51
306.138824
  0
ARC
  8
0
 10
37.436798
 20
127.279236
 40
39.000004
 50
233.861160
 51
240.667862
  0
CIRCLE
  8
0
 10
37.436798
 20
127.279236
 40
9.500000
  0
CIRCLE
  8
0
 10
37.436798
 20
127.279236
 40
7.000000
  0
CIRCLE
  8
0
 10
37.436798
 20
127.279236
 40
6.250000
  0
ARC
  8
0
 10
37.436798
 20
127.279236
 40
38.999996
 50
119.332153
 51
126.138824
  0
ARC
  8
0
 10
37.436798
 20
127.279236
 40
39.000000
 50
53.861187
 51
60.667889
  0
ARC
  8
0
 10
327.436768
 20
127.279236
 40
38.999989
 50
119.332130
 51
126.138817
  0
CIRCLE
  8
0
 10
327.436768
 20
127.279236
 40
22.299999
  0
ARC
  8
0
 10
327.436768
 20
127.279236
 40
39.000000
 50
53.861187
 51
60.667881
  0
ARC
  8
0
 10
327.436768
 20
127.279236
 40
38.999996
 50
233.861176
 51
240.667877
  0
ARC
  8
0
 10
327.436768
 20
127.279236
 40
39.000004
 50
299.332123
 51
306.138824
  0
TEXT
  8
0
 10
298.797760
 20
244.589584
 40
4.242641
  1
DATE : JAN ,1992
 50
0.000000
 41
1.052631
 51
0.000000
  7
STANDARD
  0
TEXT
  8
0
 10
2.257077
 20
243.907959
 40
5.000000
  1
TWIN PORT CYLINDER
 50
0.000000
 41
0.831919
 51
0.000000
  7
STANDARD
  0
TEXT
  8
0
 10
12.035715
 20
221.757431
 40
5.000000
  1
MODEL : TWDA 40xSt-RB(15)
 50
0.000000
 41
1.052632
 51
0.000000
  7
STANDARD
  0
TEXT
  8
0
 10
190.334641
 20
171.629242
 40
3.500000
  1
4-Rc1/8
 50
0.000000
 41
1.052632
 51
0.000000
  7
STANDARD
  0
TEXT
  8
0
 10
97.348343
 20
93.629234
 40
3.500000
  1
M14x1.5
 50
0.000000
 41
1.052632
 51
0.000000
  7
STANDARD
  0
TEXT
  8
0
 10
302.273193
 20
3.650512
 40
5.000000
  1
KOGANEI,CORP
 50
0.000000
 41
1.052632
 51
0.000000
  7
STANDARD
  0
ENDSEC
  0
EOF
