  0
SECTION
  2
HEADER
  9
$ACADVER
  1
AC1009
  9
$DWGCODEPAGE
  3
dos932
  9
$INSBASE
 10
0.0
 20
0.0
 30
0.0
  9
$EXTMIN
 10
-281.25
 20
-195.0
 30
0.0
  9
$EXTMAX
 10
282.09985352
 20
195.5
 30
0.0
  9
$LIMMIN
 10
-297.0
 20
-210.0
  9
$LIMMAX
 10
297.0
 20
210.0
  9
$ORTHOMODE
 70
       0
  9
$REGENMODE
 70
       1
  9
$FILLMODE
 70
       1
  9
$QTEXTMODE
 70
       0
  9
$MIRRTEXT
 70
       1
  9
$DRAGMODE
 70
       2
  9
$LTSCALE
 40
1.0
  9
$OSMODE
 70
       0
  9
$ATTMODE
 70
       1
  9
$TEXTSIZE
 40
3.20000005
  9
$TRACEWID
 40
0.05
  9
$TEXTSTYLE
  7
MX_NOTE_STANDARD
  9
$CLAYER
  8
0
  9
$CELTYPE
  6
CONTINUOUS
  9
$CECOLOR
 62
     256
  9
$DIMSCALE
 40
1.0
  9
$DIMASZ
 40
2.5
  9
$DIMEXO
 40
1.5
  9
$DIMDLI
 40
3.75
  9
$DIMRND
 40
0.0
  9
$DIMDLE
 40
0.0
  9
$DIMEXE
 40
1.5
  9
$DIMTP
 40
0.0
  9
$DIMTM
 40
0.0
  9
$DIMTXT
 40
3.20000005
  9
$DIMCEN
 40
2.5
  9
$DIMTSZ
 40
0.0
  9
$DIMTOL
 70
       0
  9
$DIMLIM
 70
       0
  9
$DIMTIH
 70
       0
  9
$DIMTOH
 70
       0
  9
$DIMSE1
 70
       0
  9
$DIMSE2
 70
       0
  9
$DIMTAD
 70
       1
  9
$DIMZIN
 70
       8
  9
$DIMBLK
  1

  9
$DIMASO
 70
       1
  9
$DIMSHO
 70
       1
  9
$DIMPOST
  1

  9
$DIMAPOST
  1

  9
$DIMALT
 70
       0
  9
$DIMALTD
 70
       4
  9
$DIMALTF
 40
0.03937008
  9
$DIMLFAC
 40
1.0
  9
$DIMTOFL
 70
       1
  9
$DIMTVP
 40
0.0
  9
$DIMTIX
 70
       0
  9
$DIMSOXD
 70
       0
  9
$DIMSAH
 70
       1
  9
$DIMBLK1
  1
_OPEN30
  9
$DIMBLK2
  1
_OPEN30
  9
$DIMSTYLE
  2
MXDIMSTYLE
  9
$DIMCLRD
 70
       0
  9
$DIMCLRE
 70
       0
  9
$DIMCLRT
 70
       0
  9
$DIMTFAC
 40
1.0
  9
$DIMGAP
 40
1.0
  9
$LUNITS
 70
       2
  9
$LUPREC
 70
       4
  9
$AXISMODE
 70
       0
  9
$AXISUNIT
 10
0.0
 20
0.0
  9
$SKETCHINC
 40
0.1
  9
$FILLETRAD
 40
0.0
  9
$AUNITS
 70
       0
  9
$AUPREC
 70
       0
  9
$MENU
  1
acad
  9
$ELEVATION
 40
0.0
  9
$PELEVATION
 40
0.0
  9
$THICKNESS
 40
0.0
  9
$LIMCHECK
 70
       0
  9
$BLIPMODE
 70
       1
  9
$CHAMFERA
 40
0.0
  9
$CHAMFERB
 40
0.0
  9
$SKPOLY
 70
       0
  9
$TDCREATE
 40
2454048.468657407
  9
$TDUPDATE
 40
2454048.468657407
  9
$TDINDWG
 40
0.0000000000
  9
$TDUSRTIMER
 40
0.0000000000
  9
$USRTIMER
 70
       1
  9
$ANGBASE
 50
0.0
  9
$ANGDIR
 70
       0
  9
$PDMODE
 70
       0
  9
$PDSIZE
 40
0.0
  9
$PLINEWID
 40
0.0
  9
$COORDS
 70
       1
  9
$SPLFRAME
 70
       0
  9
$SPLINETYPE
 70
       6
  9
$SPLINESEGS
 70
       8
  9
$ATTDIA
 70
       0
  9
$ATTREQ
 70
       1
  9
$HANDLING
 70
       1
  9
$HANDSEED
  5
116
  9
$SURFTAB1
 70
       6
  9
$SURFTAB2
 70
       6
  9
$SURFTYPE
 70
       6
  9
$SURFU
 70
       6
  9
$SURFV
 70
       6
  9
$UCSNAME
  2

  9
$UCSORG
 10
0.0
 20
0.0
 30
0.0
  9
$UCSXDIR
 10
1.0
 20
0.0
 30
0.0
  9
$UCSYDIR
 10
0.0
 20
1.0
 30
0.0
  9
$PUCSNAME
  2

  9
$PUCSORG
 10
0.0
 20
0.0
 30
0.0
  9
$PUCSXDIR
 10
1.0
 20
0.0
 30
0.0
  9
$PUCSYDIR
 10
0.0
 20
1.0
 30
0.0
  9
$USERI1
 70
       0
  9
$USERI2
 70
       0
  9
$USERI3
 70
       0
  9
$USERI4
 70
       0
  9
$USERI5
 70
       0
  9
$USERR1
 40
0.0
  9
$USERR2
 40
0.0
  9
$USERR3
 40
0.0
  9
$USERR4
 40
0.0
  9
$USERR5
 40
0.0
  9
$WORLDVIEW
 70
       1
  9
$SHADEDGE
 70
       3
  9
$SHADEDIF
 70
      70
  9
$TILEMODE
 70
       1
  9
$MAXACTVP
 70
      16
  9
$PINSBASE
 10
0.0
 20
0.0
 30
0.0
  9
$PLIMCHECK
 70
       0
  9
$PEXTMIN
 10
1.00000000E+20
 20
1.00000000E+20
 30
1.00000000E+20
  9
$PEXTMAX
 10
-1.00000000E+20
 20
-1.00000000E+20
 30
-1.00000000E+20
  9
$PLIMMIN
 10
0.0
 20
0.0
  9
$PLIMMAX
 10
12.0
 20
9.0
  9
$UNITMODE
 70
       0
  9
$VISRETAIN
 70
       0
  9
$PLINEGEN
 70
       1
  9
$PSLTSCALE
 70
       0
  9
$TREEDEPTH
 70
    3020
  0
ENDSEC
  0
SECTION
  2
TABLES
  0
TABLE
  2
VPORT
 70
       1
  0
VPORT
  2
*ACTIVE
 70
       0
 10
0.0
 20
0.0
 11
1.0
 21
1.0
 12
0.0
 22
0.0
 13
0.0
 23
0.0
 14
1.0
 24
1.0
 15
0.0
 25
0.0
 16
0.0
 26
0.0
 36
1.0
 17
0.0
 27
0.0
 37
0.0
 40
424.2
 41
1.73205081
 42
50.0
 43
0.0
 44
0.0
 50
0.0
 51
0.0
 71
       0
 72
     100
 73
       1
 74
       1
 75
       0
 76
       0
 77
       0
 78
       0
  0
ENDTAB
  0
TABLE
  2
LTYPE
 70
       1
  0
LTYPE
  2
CONTINUOUS
 70
      64
  3
Solid line
 72
      65
 73
       0
 40
0.0
  0
ENDTAB
  0
TABLE
  2
LAYER
 70
       2
  0
LAYER
  2
0
 70
       0
 62
       7
  6
CONTINUOUS
  0
LAYER
  2
DEFPOINTS
 70
       0
 62
       7
  6
CONTINUOUS
  0
ENDTAB
  0
TABLE
  2
STYLE
 70
       1
  0
STYLE
  2
MX_NOTE_STANDARD
 70
       0
 40
0.0
 41
1.0
 50
0.0
 71
       0
 42
3.20000005
  3
txt.shx
  4
extfont.shx
  0
ENDTAB
  0
TABLE
  2
VIEW
 70
       0
  0
ENDTAB
  0
TABLE
  2
UCS
 70
       0
  0
ENDTAB
  0
TABLE
  2
APPID
 70
       1
  0
APPID
  2
ACAD
 70
       0
  0
ENDTAB
  0
TABLE
  2
DIMSTYLE
 70
       1
  0
DIMSTYLE
  2
MXDIMSTYLE
 70
       0
  3

  4

  5

  6
_OPEN30
  7
_OPEN30
 40
1.0
 41
2.5
 42
1.5
 43
3.75
 44
1.5
 45
0.0
 46
0.0
 47
0.0
 48
0.0
 71
       0
 72
       0
 73
       0
 74
       0
 75
       0
 76
       0
 77
       1
 78
       8
140
3.20000005
141
2.5
142
0.0
143
0.03937008
144
1.0
145
0.0
146
1.0
147
1.0
170
       0
171
       4
172
       1
173
       1
174
       0
175
       0
176
       0
177
       0
178
       0
  0
ENDTAB
  0
ENDSEC
  0
SECTION
  2
BLOCKS
  0
BLOCK
  8
0
  6
BYBLOCK
 62
       0
  5
1F
  2
_OPEN30
 70
       2
 10
0.0
 20
0.0
 30
0.0
  3
_OPEN30
  0
LINE
  8
0
  6
BYBLOCK
 62
       0
  5
20
 10
-1.0
 20
0.267949
 30
0.0
 11
0.0
 21
0.0
 31
0.0
  0
LINE
  8
0
  6
BYBLOCK
 62
       0
  5
21
 10
0.0
 20
0.0
 30
0.0
 11
-1.0
 21
-0.267949
 31
0.0
  0
LINE
  8
0
  6
BYBLOCK
 62
       0
  5
22
 10
0.0
 20
0.0
 30
0.0
 11
-1.0
 21
0.0
 31
0.0
  0
ENDBLK
  8
0
  6
BYBLOCK
 62
       0
  5
23
  0
ENDSEC
  0
SECTION
  2
ENTITIES
  0
ARC
  8
0
  6
CONTINUOUS
 62
       7
  5
24
 10
171.94023779
 20
87.77760492
 30
0.0
 40
2.56247805
 50
12.67820208
 51
167.32179792
  0
ARC
  8
0
  6
CONTINUOUS
 62
       7
  5
25
 10
-11.15720582
 20
87.56691799
 30
0.0
 40
2.56344943
 50
12.68038349
 51
167.31961651
  0
ARC
  8
0
  6
CONTINUOUS
 62
       7
  5
26
 10
-142.16209664
 20
87.54523643
 30
0.0
 40
2.5625
 50
12.68038349
 51
167.31961651
  0
LINE
  8
0
  6
CONTINUOUS
 62
       7
  5
27
 10
54.64168266
 20
-85.49067674
 30
0.0
 11
54.64168266
 21
-84.49067674
 31
0.0
  0
LINE
  8
0
  6
CONTINUOUS
 62
       2
  5
28
 10
38.00803104
 20
-83.01075265
 30
0.0
 11
35.45900962
 21
-86.75931355
 31
0.0
  0
LINE
  8
0
  6
CONTINUOUS
 62
       2
  5
29
 10
36.53291759
 20
-83.01075265
 30
0.0
 11
33.98389618
 21
-86.75931355
 31
0.0
  0
LINE
  8
0
  6
CONTINUOUS
 62
       7
  5
2A
 10
54.64168266
 20
-81.49067674
 30
0.0
 11
54.64168266
 21
-80.49067674
 31
0.0
  0
LINE
  8
0
  6
CONTINUOUS
 62
       2
  5
2B
 10
38.00803104
 20
-79.01075265
 30
0.0
 11
35.45900962
 21
-82.75931355
 31
0.0
  0
LINE
  8
0
  6
CONTINUOUS
 62
       2
  5
2C
 10
36.53291759
 20
-79.01075265
 30
0.0
 11
33.98389618
 21
-82.75931355
 31
0.0
  0
LINE
  8
0
  6
CONTINUOUS
 62
       7
  5
2D
 10
12.34168266
 20
-69.49067674
 30
0.0
 11
12.34168266
 21
-64.99067674
 31
0.0
  0
LINE
  8
0
  6
CONTINUOUS
 62
       7
  5
2E
 10
-13.65831734
 20
-69.49067674
 30
0.0
 11
-13.65831734
 21
-64.99067674
 31
0.0
  0
LINE
  8
0
  6
CONTINUOUS
 62
       2
  5
2F
 10
38.01247714
 20
75.719929
 30
0.0
 11
35.46345572
 21
71.9713681
 31
0.0
  0
LINE
  8
0
  6
CONTINUOUS
 62
       2
  5
30
 10
36.53736369
 20
75.719929
 30
0.0
 11
33.98834228
 21
71.9713681
 31
0.0
  0
ARC
  8
0
  6
CONTINUOUS
 62
       7
  5
31
 10
22.33666721
 20
-72.49569218
 30
0.0
 40
1.00502796
 50
0.28592738
 51
89.71407262
  0
ARC
  8
0
  6
CONTINUOUS
 62
       7
  5
32
 10
22.33667822
 20
-93.4856723
 30
0.0
 40
1.0050169
 50
270.28530298
 51
359.71469702
  0
CIRCLE
  8
0
  6
CONTINUOUS
 62
       2
  5
33
 10
-9.64833565
 20
-91.99065232
 30
0.0
 40
2.5
  0
CIRCLE
  8
0
  6
CONTINUOUS
 62
       2
  5
34
 10
8.35166435
 20
-73.99067903
 30
0.0
 40
2.5
  0
CIRCLE
  8
0
  6
CONTINUOUS
 62
       7
  5
35
 10
-9.64833565
 20
-91.99065232
 30
0.0
 40
1.5
  0
CIRCLE
  8
0
  6
CONTINUOUS
 62
       7
  5
36
 10
8.35166435
 20
-73.99067903
 30
0.0
 40
1.5
  0
LINE
  8
0
  6
CONTINUOUS
 62
       2
  5
37
 10
55.36168266
 20
-84.99067674
 30
0.0
 11
23.96168266
 21
-84.99067674
 31
0.0
  0
LINE
  8
0
  6
CONTINUOUS
 62
       7
  5
38
 10
34.50656921
 20
-85.99067674
 30
0.0
 11
24.84168266
 21
-85.99067674
 31
0.0
  0
LINE
  8
0
  6
CONTINUOUS
 62
       7
  5
39
 10
35.86656922
 20
-83.99067674
 30
0.0
 11
24.84168266
 21
-83.99067674
 31
0.0
  0
LINE
  8
0
  6
CONTINUOUS
 62
       7
  5
3A
 10
49.64168266
 20
-85.99067674
 30
0.0
 11
49.64168266
 21
-83.99067674
 31
0.0
  0
LINE
  8
0
  6
CONTINUOUS
 62
       7
  5
3B
 10
54.64168266
 20
-85.49067674
 30
0.0
 11
49.64168266
 21
-85.49067674
 31
0.0
  0
LINE
  8
0
  6
CONTINUOUS
 62
       7
  5
3C
 10
54.64168266
 20
-84.49067674
 30
0.0
 11
49.64168266
 21
-84.49067674
 31
0.0
  0
LINE
  8
0
  6
CONTINUOUS
 62
       7
  5
3D
 10
49.64168266
 20
-83.99067674
 30
0.0
 11
37.34168266
 21
-83.99067674
 31
0.0
  0
LINE
  8
0
  6
CONTINUOUS
 62
       7
  5
3E
 10
49.64168266
 20
-85.99067674
 30
0.0
 11
35.98168266
 21
-85.99067674
 31
0.0
  0
LINE
  8
0
  6
CONTINUOUS
 62
       7
  5
3F
 10
24.84168266
 20
-77.49067674
 30
0.0
 11
23.34168266
 21
-77.49067674
 31
0.0
  0
LINE
  8
0
  6
CONTINUOUS
 62
       7
  5
40
 10
24.84168266
 20
-88.49067674
 30
0.0
 11
23.34168266
 21
-88.49067674
 31
0.0
  0
LINE
  8
0
  6
CONTINUOUS
 62
       2
  5
41
 10
27.34168266
 20
-82.99067674
 30
0.0
 11
-21.40831734
 21
-82.99067674
 31
0.0
  0
LINE
  8
0
  6
CONTINUOUS
 62
       2
  5
42
 10
55.36168266
 20
-80.99067674
 30
0.0
 11
23.96168266
 21
-80.99067674
 31
0.0
  0
LINE
  8
0
  6
CONTINUOUS
 62
       7
  5
43
 10
34.50656921
 20
-81.99067674
 30
0.0
 11
24.84168266
 21
-81.99067674
 31
0.0
  0
LINE
  8
0
  6
CONTINUOUS
 62
       7
  5
44
 10
35.86656922
 20
-79.99067674
 30
0.0
 11
24.84168266
 21
-79.99067674
 31
0.0
  0
LINE
  8
0
  6
CONTINUOUS
 62
       7
  5
45
 10
49.64168266
 20
-81.99067674
 30
0.0
 11
49.64168266
 21
-79.99067674
 31
0.0
  0
LINE
  8
0
  6
CONTINUOUS
 62
       7
  5
46
 10
54.64168266
 20
-81.49067674
 30
0.0
 11
49.64168266
 21
-81.49067674
 31
0.0
  0
LINE
  8
0
  6
CONTINUOUS
 62
       7
  5
47
 10
54.64168266
 20
-80.49067674
 30
0.0
 11
49.64168266
 21
-80.49067674
 31
0.0
  0
LINE
  8
0
  6
CONTINUOUS
 62
       7
  5
48
 10
49.64168266
 20
-79.99067674
 30
0.0
 11
37.34168266
 21
-79.99067674
 31
0.0
  0
LINE
  8
0
  6
CONTINUOUS
 62
       7
  5
49
 10
49.64168266
 20
-81.99067674
 30
0.0
 11
35.98168266
 21
-81.99067674
 31
0.0
  0
LINE
  8
0
  6
CONTINUOUS
 62
       7
  5
4A
 10
24.84168266
 20
-88.49067674
 30
0.0
 11
24.84168266
 21
-77.49067674
 31
0.0
  0
LINE
  8
0
  6
CONTINUOUS
 62
       7
  5
4B
 10
22.34168266
 20
-71.49067674
 30
0.0
 11
12.84168266
 21
-71.49067674
 31
0.0
  0
LINE
  8
0
  6
CONTINUOUS
 62
       7
  5
4C
 10
22.34168266
 20
-94.49067674
 30
0.0
 11
12.84168266
 21
-94.49067674
 31
0.0
  0
LINE
  8
0
  6
CONTINUOUS
 62
       7
  5
4D
 10
23.34168266
 20
-93.49067674
 30
0.0
 11
23.34168266
 21
-72.49067674
 31
0.0
  0
LINE
  8
0
  6
CONTINUOUS
 62
       2
  5
4E
 10
-9.65831734
 20
-87.99067674
 30
0.0
 11
-9.65831734
 21
-95.99067674
 31
0.0
  0
LINE
  8
0
  6
CONTINUOUS
 62
       2
  5
4F
 10
8.34168266
 20
-69.99067674
 30
0.0
 11
8.34168266
 21
-77.99067903
 31
0.0
  0
LINE
  8
0
  6
CONTINUOUS
 62
       2
  5
50
 10
-13.65831734
 20
-91.99067674
 30
0.0
 11
-5.65831734
 21
-91.99067674
 31
0.0
  0
LINE
  8
0
  6
CONTINUOUS
 62
       2
  5
51
 10
4.34168266
 20
-73.99067674
 30
0.0
 11
12.34168266
 21
-73.99067674
 31
0.0
  0
LINE
  8
0
  6
CONTINUOUS
 62
       7
  5
52
 10
12.84168266
 20
-69.49067674
 30
0.0
 11
12.84168266
 21
-96.49067674
 31
0.0
  0
LINE
  8
0
  6
CONTINUOUS
 62
       7
  5
53
 10
-14.15831734
 20
-69.49067674
 30
0.0
 11
-14.15831734
 21
-96.49067674
 31
0.0
  0
LINE
  8
0
  6
CONTINUOUS
 62
       7
  5
54
 10
-14.15831734
 20
-96.49067674
 30
0.0
 11
12.84168266
 21
-96.49067674
 31
0.0
  0
LINE
  8
0
  6
CONTINUOUS
 62
       7
  5
55
 10
-14.15831734
 20
-69.49067674
 30
0.0
 11
12.84168266
 21
-69.49067674
 31
0.0
  0
LINE
  8
0
  6
CONTINUOUS
 62
       7
  5
56
 10
-13.65831734
 20
-100.99067674
 30
0.0
 11
-13.65831734
 21
-96.49067674
 31
0.0
  0
LINE
  8
0
  6
CONTINUOUS
 62
       7
  5
57
 10
12.34168266
 20
-100.99067674
 30
0.0
 11
12.34168266
 21
-96.49067674
 31
0.0
  0
LINE
  8
0
  6
CONTINUOUS
 62
       2
  5
58
 10
-0.65831734
 20
-58.05067674
 30
0.0
 11
-0.65831734
 21
-107.91067674
 31
0.0
  0
ARC
  8
0
  6
CONTINUOUS
 62
       7
  5
59
 10
-0.64333097
 20
-63.98570763
 30
0.0
 40
2.24501913
 50
269.61752573
 51
359.8731818
  0
ARC
  8
0
  6
CONTINUOUS
 62
       7
  5
5A
 10
-0.64831734
 20
-62.99067674
 30
0.0
 40
2.25
 50
0.0
 51
180.0
  0
ARC
  8
0
  6
CONTINUOUS
 62
       7
  5
5B
 10
-0.65332208
 20
-63.98568147
 30
0.0
 40
2.24500082
 50
180.12748668
 51
269.87251332
  0
LINE
  8
0
  6
CONTINUOUS
 62
       7
  5
5C
 10
-12.13831734
 20
-67.99067674
 30
0.0
 11
10.76168266
 21
-67.99067674
 31
0.0
  0
LINE
  8
0
  6
CONTINUOUS
 62
       7
  5
5D
 10
1.60168266
 20
-62.99067674
 30
0.0
 11
1.60168266
 21
-63.99067674
 31
0.0
  0
LINE
  8
0
  6
CONTINUOUS
 62
       7
  5
5E
 10
-2.89831734
 20
-62.99067674
 30
0.0
 11
-2.89831734
 21
-63.99067674
 31
0.0
  0
LINE
  8
0
  6
CONTINUOUS
 62
       2
  5
5F
 10
-4.47831734
 20
-62.99067674
 30
0.0
 11
3.04168266
 21
-62.99067674
 31
0.0
  0
LINE
  8
0
  6
CONTINUOUS
 62
       2
  5
60
 10
-4.47831734
 20
-63.99067674
 30
0.0
 11
3.18168266
 21
-63.99067674
 31
0.0
  0
LINE
  8
0
  6
CONTINUOUS
 62
       7
  5
61
 10
6.34168266
 20
-58.99067674
 30
0.0
 11
12.34168266
 21
-64.99067674
 31
0.0
  0
LINE
  8
0
  6
CONTINUOUS
 62
       7
  5
62
 10
-13.65831734
 20
-64.99067674
 30
0.0
 11
-7.65831734
 21
-58.99067674
 31
0.0
  0
LINE
  8
0
  6
CONTINUOUS
 62
       7
  5
63
 10
-7.65831734
 20
-58.99067674
 30
0.0
 11
6.34168266
 21
-58.99067674
 31
0.0
  0
ARC
  8
0
  6
CONTINUOUS
 62
       7
  5
64
 10
-0.65331977
 20
-101.98567917
 30
0.0
 40
2.25500797
 50
359.8730205
 51
90.1269795
  0
ARC
  8
0
  6
CONTINUOUS
 62
       7
  5
65
 10
-0.64831734
 20
-102.99067674
 30
0.0
 40
2.25
 50
180.0
 51
0.0
  0
ARC
  8
0
  6
CONTINUOUS
 62
       7
  5
66
 10
-0.64333336
 20
-101.98561661
 30
0.0
 40
2.25498966
 50
90.38072247
 51
180.12856999
  0
LINE
  8
0
  6
CONTINUOUS
 62
       7
  5
67
 10
-12.05831734
 20
-97.99067674
 30
0.0
 11
10.62168266
 21
-97.99067674
 31
0.0
  0
LINE
  8
0
  6
CONTINUOUS
 62
       7
  5
68
 10
1.60168266
 20
-102.99067674
 30
0.0
 11
1.60168266
 21
-101.99067674
 31
0.0
  0
LINE
  8
0
  6
CONTINUOUS
 62
       7
  5
69
 10
-2.89831734
 20
-102.99067674
 30
0.0
 11
-2.89831734
 21
-101.99067674
 31
0.0
  0
LINE
  8
0
  6
CONTINUOUS
 62
       2
  5
6A
 10
-4.47831734
 20
-102.99067674
 30
0.0
 11
3.04168266
 21
-102.99067674
 31
0.0
  0
LINE
  8
0
  6
CONTINUOUS
 62
       2
  5
6B
 10
-4.47831734
 20
-101.99067674
 30
0.0
 11
3.18168266
 21
-101.99067674
 31
0.0
  0
LINE
  8
0
  6
CONTINUOUS
 62
       7
  5
6C
 10
12.34168266
 20
-100.99067674
 30
0.0
 11
6.34168266
 21
-106.99067674
 31
0.0
  0
LINE
  8
0
  6
CONTINUOUS
 62
       7
  5
6D
 10
-7.65831734
 20
-106.99067674
 30
0.0
 11
-13.65831734
 21
-100.99067674
 31
0.0
  0
LINE
  8
0
  6
CONTINUOUS
 62
       7
  5
6E
 10
-7.65831734
 20
-106.99067674
 30
0.0
 11
6.34168266
 21
-106.99067674
 31
0.0
  0
CIRCLE
  8
0
  6
CONTINUOUS
 62
       7
  5
6F
 10
-143.65831734
 20
19.01331505
 30
0.0
 40
3.25
  0
CIRCLE
  8
0
  6
CONTINUOUS
 62
       7
  5
70
 10
-161.65831734
 20
39.01331505
 30
0.0
 40
3.25
  0
CIRCLE
  8
0
  6
CONTINUOUS
 62
       7
  5
71
 10
-143.65831734
 20
19.01331505
 30
0.0
 40
1.75
  0
CIRCLE
  8
0
  6
CONTINUOUS
 62
       7
  5
72
 10
-161.65831734
 20
39.01331505
 30
0.0
 40
1.75
  0
LINE
  8
0
  6
CONTINUOUS
 62
       7
  5
73
 10
-163.66209664
 20
88.00773643
 30
0.0
 11
-158.66209664
 21
88.00773643
 31
0.0
  0
LINE
  8
0
  6
CONTINUOUS
 62
       7
  5
74
 10
-158.66209664
 20
88.00773643
 30
0.0
 11
-158.66209664
 21
85.00773643
 31
0.0
  0
LINE
  8
0
  6
CONTINUOUS
 62
       7
  5
75
 10
-163.66209664
 20
88.00773643
 30
0.0
 11
-163.66209664
 21
85.00773643
 31
0.0
  0
LINE
  8
0
  6
CONTINUOUS
 62
       7
  5
76
 10
-139.16209664
 20
90.30773643
 30
0.0
 11
-139.16209664
 21
14.00773643
 31
0.0
  0
LINE
  8
0
  6
CONTINUOUS
 62
       7
  5
77
 10
-166.16209664
 20
90.30773643
 30
0.0
 11
-166.16209664
 21
14.00773643
 31
0.0
  0
LINE
  8
0
  6
CONTINUOUS
 62
       2
  5
78
 10
-143.66209664
 20
24.00773643
 30
0.0
 11
-143.66209664
 21
14.00773643
 31
0.0
  0
LINE
  8
0
  6
CONTINUOUS
 62
       2
  5
79
 10
-161.66209664
 20
44.00773643
 30
0.0
 11
-161.66209664
 21
34.00773643
 31
0.0
  0
LINE
  8
0
  6
CONTINUOUS
 62
       2
  5
7A
 10
-158.66209664
 20
34.00773643
 30
0.0
 11
-146.66209664
 21
34.00773643
 31
0.0
  0
LINE
  8
0
  6
CONTINUOUS
 62
       2
  5
7B
 10
-156.66209664
 20
39.00773643
 30
0.0
 11
-166.66209664
 21
39.00773643
 31
0.0
  0
LINE
  8
0
  6
CONTINUOUS
 62
       2
  5
7C
 10
-138.66209664
 20
19.00773643
 30
0.0
 11
-148.66209664
 21
19.00773643
 31
0.0
  0
LINE
  8
0
  6
CONTINUOUS
 62
       2
  5
7D
 10
-152.66209664
 20
92.34773643
 30
0.0
 11
-152.66209664
 21
9.01172116
 31
0.0
  0
LINE
  8
0
  6
CONTINUOUS
 62
       7
  5
7E
 10
-144.66209664
 20
88.10773643
 30
0.0
 11
-144.66209664
 21
87.30773643
 31
0.0
  0
LINE
  8
0
  6
CONTINUOUS
 62
       7
  5
7F
 10
-139.66209664
 20
88.10773643
 30
0.0
 11
-139.66209664
 21
87.30773643
 31
0.0
  0
LINE
  8
0
  6
CONTINUOUS
 62
       7
  5
80
 10
-144.66209664
 20
88.10773643
 30
0.0
 11
-139.66209664
 21
88.10773643
 31
0.0
  0
LINE
  8
0
  6
CONTINUOUS
 62
       7
  5
81
 10
-145.66209664
 20
90.30773643
 30
0.0
 11
-145.66209664
 21
87.30773643
 31
0.0
  0
LINE
  8
0
  6
CONTINUOUS
 62
       7
  5
82
 10
-145.66209664
 20
87.30773643
 30
0.0
 11
-139.16209664
 21
87.30773643
 31
0.0
  0
LINE
  8
0
  6
CONTINUOUS
 62
       2
  5
83
 10
-142.16209664
 20
91.83773643
 30
0.0
 11
-142.16209664
 21
86.77773643
 31
0.0
  0
LINE
  8
0
  6
CONTINUOUS
 62
       7
  5
84
 10
-166.16209664
 20
85.00773643
 30
0.0
 11
-139.16209664
 21
85.00773643
 31
0.0
  0
LINE
  8
0
  6
CONTINUOUS
 62
       7
  5
85
 10
-166.16209664
 20
90.30773643
 30
0.0
 11
-139.16209664
 21
90.30773643
 31
0.0
  0
LINE
  8
0
  6
CONTINUOUS
 62
       7
  5
86
 10
-166.16209664
 20
14.00773643
 30
0.0
 11
-139.16209664
 21
14.00773643
 31
0.0
  0
LINE
  8
0
  6
CONTINUOUS
 62
       7
  5
87
 10
-166.16209664
 20
48.00773643
 30
0.0
 11
-139.16209664
 21
48.00773643
 31
0.0
  0
ARC
  8
0
  6
CONTINUOUS
 62
       7
  5
88
 10
11.84599683
 20
89.33475568
 30
0.0
 40
0.99569686
 50
359.73042697
 51
90.26957303
  0
ARC
  8
0
  6
CONTINUOUS
 62
       7
  5
89
 10
-13.1638473
 20
89.33597147
 30
0.0
 40
0.99448755
 50
89.66005272
 51
180.33994728
  0
LINE
  8
0
  6
CONTINUOUS
 62
       2
  5
8A
 10
15.39262746
 20
29.00772937
 30
0.0
 11
10.3507601
 21
29.00772937
 31
0.0
  0
LINE
  8
0
  6
CONTINUOUS
 62
       2
  5
8B
 10
-11.6974059
 20
34.00958191
 30
0.0
 11
-16.6292325
 21
34.00958191
 31
0.0
  0
LINE
  8
0
  6
CONTINUOUS
 62
       7
  5
8C
 10
-13.65813209
 20
88.1296264
 30
0.0
 11
-13.65813209
 21
87.32932999
 31
0.0
  0
LINE
  8
0
  6
CONTINUOUS
 62
       7
  5
8D
 10
-8.65627955
 20
88.1296264
 30
0.0
 11
-8.65627955
 21
87.32932999
 31
0.0
  0
LINE
  8
0
  6
CONTINUOUS
 62
       7
  5
8E
 10
-13.65813209
 20
88.1296264
 30
0.0
 11
-8.65627955
 21
88.1296264
 31
0.0
  0
LINE
  8
0
  6
CONTINUOUS
 62
       7
  5
8F
 10
-14.15831735
 20
85.02847782
 30
0.0
 11
12.84168266
 21
85.02847782
 31
0.0
  0
LINE
  8
0
  6
CONTINUOUS
 62
       7
  5
90
 10
-13.15794684
 20
90.33044151
 30
0.0
 11
11.84131215
 21
90.33044151
 31
0.0
  0
LINE
  8
0
  6
CONTINUOUS
 62
       7
  5
91
 10
-14.15831735
 20
14.00217175
 30
0.0
 11
12.84168266
 21
14.00217175
 31
0.0
  0
LINE
  8
0
  6
CONTINUOUS
 62
       7
  5
92
 10
-14.15831735
 20
48.01476903
 30
0.0
 11
12.84168266
 21
48.01476903
 31
0.0
  0
LINE
  8
0
  6
CONTINUOUS
 62
       2
  5
93
 10
-11.15720582
 20
91.86100839
 30
0.0
 11
-11.15720582
 21
86.38898171
 31
0.0
  0
LINE
  8
0
  6
CONTINUOUS
 62
       7
  5
94
 10
-7.65590905
 20
90.33044151
 30
0.0
 11
-7.65590905
 21
87.32932999
 31
0.0
  0
LINE
  8
0
  6
CONTINUOUS
 62
       7
  5
95
 10
-14.15831735
 20
87.32932999
 30
0.0
 11
-7.65590905
 21
87.32932999
 31
0.0
  0
LINE
  8
0
  6
CONTINUOUS
 62
       7
  5
96
 10
-14.15831735
 20
89.33007101
 30
0.0
 11
-14.15831735
 21
14.00217175
 31
0.0
  0
LINE
  8
0
  6
CONTINUOUS
 62
       7
  5
97
 10
12.84168266
 20
89.33007101
 30
0.0
 11
12.84168266
 21
14.00217175
 31
0.0
  0
CIRCLE
  8
0
  6
CONTINUOUS
 62
       7
  5
98
 10
152.43403234
 20
19.2455835
 30
0.0
 40
2.0
  0
CIRCLE
  8
0
  6
CONTINUOUS
 62
       7
  5
99
 10
170.43403235
 20
39.24558351
 30
0.0
 40
2.0
  0
LINE
  8
0
  6
CONTINUOUS
 62
       2
  5
9A
 10
167.44023779
 20
39.24000489
 30
0.0
 11
173.44023779
 21
39.24000489
 31
0.0
  0
LINE
  8
0
  6
CONTINUOUS
 62
       2
  5
9B
 10
170.44023779
 20
42.24000489
 30
0.0
 11
170.44023779
 21
36.24000489
 31
0.0
  0
LINE
  8
0
  6
CONTINUOUS
 62
       2
  5
9C
 10
149.43403234
 20
19.24000488
 30
0.0
 11
155.43403234
 21
19.24000488
 31
0.0
  0
LINE
  8
0
  6
CONTINUOUS
 62
       2
  5
9D
 10
157.44023779
 20
39.24000489
 30
0.0
 11
165.44023779
 21
39.24000489
 31
0.0
  0
LINE
  8
0
  6
CONTINUOUS
 62
       2
  5
9E
 10
155.44023779
 20
29.24000489
 30
0.0
 11
167.44023779
 21
29.24000489
 31
0.0
  0
LINE
  8
0
  6
CONTINUOUS
 62
       7
  5
9F
 10
174.44023779
 20
88.34000492
 30
0.0
 11
174.44023779
 21
87.54000492
 31
0.0
  0
LINE
  8
0
  6
CONTINUOUS
 62
       7
  5
A0
 10
169.44023779
 20
88.34000492
 30
0.0
 11
169.44023779
 21
87.54000492
 31
0.0
  0
LINE
  8
0
  6
CONTINUOUS
 62
       7
  5
A1
 10
169.44023779
 20
88.34000492
 30
0.0
 11
174.44023779
 21
88.34000492
 31
0.0
  0
LINE
  8
0
  6
CONTINUOUS
 62
       2
  5
A2
 10
171.94023779
 20
92.07000492
 30
0.0
 11
171.94023779
 21
87.01000492
 31
0.0
  0
LINE
  8
0
  6
CONTINUOUS
 62
       7
  5
A3
 10
168.44023779
 20
87.54000492
 30
0.0
 11
174.94023779
 21
87.54000492
 31
0.0
  0
LINE
  8
0
  6
CONTINUOUS
 62
       7
  5
A4
 10
168.44023779
 20
90.54000492
 30
0.0
 11
168.44023779
 21
87.54000492
 31
0.0
  0
LINE
  8
0
  6
CONTINUOUS
 62
       7
  5
A5
 10
147.94023778
 20
90.54000492
 30
0.0
 11
147.94023778
 21
14.24000488
 31
0.0
  0
LINE
  8
0
  6
CONTINUOUS
 62
       7
  5
A6
 10
174.94023779
 20
90.54000492
 30
0.0
 11
174.94023779
 21
14.24000488
 31
0.0
  0
LINE
  8
0
  6
CONTINUOUS
 62
       2
  5
A7
 10
161.44023779
 20
92.46000492
 30
0.0
 11
161.44023779
 21
8.07793209
 31
0.0
  0
LINE
  8
0
  6
CONTINUOUS
 62
       7
  5
A8
 10
147.94023778
 20
14.24000488
 30
0.0
 11
174.94023779
 21
14.24000488
 31
0.0
  0
LINE
  8
0
  6
CONTINUOUS
 62
       7
  5
A9
 10
147.94023778
 20
90.54000492
 30
0.0
 11
174.94023779
 21
90.54000492
 31
0.0
  0
LINE
  8
0
  6
CONTINUOUS
 62
       7
  5
AA
 10
147.94023778
 20
85.24000492
 30
0.0
 11
174.94023779
 21
85.24000492
 31
0.0
  0
LINE
  8
0
  6
CONTINUOUS
 62
       7
  5
AB
 10
147.94023778
 20
48.2400049
 30
0.0
 11
174.94023779
 21
48.2400049
 31
0.0
  0
LINE
  8
0
  6
CONTINUOUS
 62
       2
  5
AC
 10
152.43403234
 20
22.24000488
 30
0.0
 11
152.43403234
 21
16.24000488
 31
0.0
  0
ARC
  8
0
  6
CONTINUOUS
 62
       7
  5
AD
 10
149.49839404
 20
11.08924919
 30
0.0
 40
3.00193067
 50
90.19460432
 51
180.0897414
  0
ARC
  8
0
  6
CONTINUOUS
 62
       7
  5
AE
 10
173.48961642
 20
11.07769657
 30
0.0
 40
3.01347376
 50
0.13025467
 51
89.86974533
  0
LINE
  8
0
  6
CONTINUOUS
 62
       7
  5
AF
 10
137.4915056
 20
8.07793209
 30
0.0
 11
145.48433915
 21
8.07793209
 31
0.0
  0
LINE
  8
0
  6
CONTINUOUS
 62
       7
  5
B0
 10
149.48819804
 20
12.08179098
 30
0.0
 11
173.49646716
 21
12.08179098
 31
0.0
  0
LINE
  8
0
  6
CONTINUOUS
 62
       7
  5
B1
 10
137.4915056
 20
10.08730365
 30
0.0
 11
145.48433915
 21
10.08730365
 31
0.0
  0
LINE
  8
0
  6
CONTINUOUS
 62
       7
  5
B2
 10
185.49315961
 20
10.08730365
 30
0.0
 11
185.49315961
 21
8.07793209
 31
0.0
  0
LINE
  8
0
  6
CONTINUOUS
 62
       7
  5
B3
 10
177.50032606
 20
10.08730365
 30
0.0
 11
185.49315961
 21
10.08730365
 31
0.0
  0
LINE
  8
0
  6
CONTINUOUS
 62
       7
  5
B4
 10
177.50032606
 20
8.07793209
 30
0.0
 11
185.49315961
 21
8.07793209
 31
0.0
  0
LINE
  8
0
  6
CONTINUOUS
 62
       7
  5
B5
 10
137.4915056
 20
10.08730365
 30
0.0
 11
137.4915056
 21
8.07793209
 31
0.0
  0
ARC
  8
0
  6
CONTINUOUS
 62
       7
  5
B6
 10
177.49198981
 20
11.07621107
 30
0.0
 40
0.98894256
 50
179.51702226
 51
270.48297774
  0
ARC
  8
0
  6
CONTINUOUS
 62
       7
  5
B7
 10
177.49198979
 20
11.07621106
 30
0.0
 40
2.99829056
 50
179.84069816
 51
270.15930184
  0
ARC
  8
0
  6
CONTINUOUS
 62
       7
  5
B8
 10
173.48961589
 20
11.07769604
 30
0.0
 40
1.00411831
 50
0.39094202
 51
89.60905798
  0
ARC
  8
0
  6
CONTINUOUS
 62
       7
  5
B9
 10
145.48857395
 20
11.08031251
 30
0.0
 40
3.00238341
 50
269.91918542
 51
0.08081458
  0
ARC
  8
0
  6
CONTINUOUS
 62
       7
  5
BA
 10
149.49096393
 20
11.08178144
 30
0.0
 40
1.00001337
 50
90.15847141
 51
179.84152859
  0
ARC
  8
0
  6
CONTINUOUS
 62
       7
  5
BB
 10
145.49600726
 20
11.08770037
 30
0.0
 40
1.00046476
 50
269.33176226
 51
359.8194269
  0
ARC
  8
0
  6
CONTINUOUS
 62
       7
  5
BC
 10
-140.60229287
 20
10.85587241
 30
0.0
 40
3.00304298
 50
359.93143794
 51
89.78421635
  0
ARC
  8
0
  6
CONTINUOUS
 62
       7
  5
BD
 10
-164.59353629
 20
10.84656301
 30
0.0
 40
3.01233651
 50
90.1087178
 51
179.8912822
  0
LINE
  8
0
  6
CONTINUOUS
 62
       7
  5
BE
 10
-164.59925215
 20
11.84952253
 30
0.0
 11
-140.59098303
 21
11.84952253
 31
0.0
  0
LINE
  8
0
  6
CONTINUOUS
 62
       7
  5
BF
 10
-176.61082882
 20
7.84566364
 30
0.0
 11
-168.60311104
 21
7.84566364
 31
0.0
  0
LINE
  8
0
  6
CONTINUOUS
 62
       7
  5
C0
 10
-176.61082882
 20
9.8550352
 30
0.0
 11
-168.60311104
 21
9.8550352
 31
0.0
  0
LINE
  8
0
  6
CONTINUOUS
 62
       7
  5
C1
 10
-176.61082882
 20
9.8550352
 30
0.0
 11
-176.61082882
 21
7.84566364
 31
0.0
  0
LINE
  8
0
  6
CONTINUOUS
 62
       7
  5
C2
 10
-136.60200837
 20
7.84566364
 30
0.0
 11
-128.59429059
 21
7.84566364
 31
0.0
  0
LINE
  8
0
  6
CONTINUOUS
 62
       7
  5
C3
 10
-128.59429059
 20
9.8550352
 30
0.0
 11
-128.59429059
 21
7.84566364
 31
0.0
  0
LINE
  8
0
  6
CONTINUOUS
 62
       7
  5
C4
 10
-136.60200837
 20
9.8550352
 30
0.0
 11
-128.59429059
 21
9.8550352
 31
0.0
  0
ARC
  8
0
  6
CONTINUOUS
 62
       7
  5
C5
 10
-168.59591048
 20
10.84507831
 30
0.0
 40
2.99942331
 50
269.86245292
 51
0.13754708
  0
ARC
  8
0
  6
CONTINUOUS
 62
       7
  5
C6
 10
-168.59591076
 20
10.84507859
 30
0.0
 40
0.99006957
 50
269.58331272
 51
0.41668728
  0
ARC
  8
0
  6
CONTINUOUS
 62
       7
  5
C7
 10
-164.59353437
 20
10.84656109
 30
0.0
 40
1.00297774
 50
90.32663337
 51
179.67336663
  0
ARC
  8
0
  6
CONTINUOUS
 62
       7
  5
C8
 10
-140.59485642
 20
10.84840548
 30
0.0
 40
1.00112455
 50
0.22168025
 51
89.77831975
  0
ARC
  8
0
  6
CONTINUOUS
 62
       7
  5
C9
 10
-136.59247242
 20
10.84692022
 30
0.0
 40
3.00127173
 50
179.89770073
 51
269.81795356
  0
ARC
  8
0
  6
CONTINUOUS
 62
       7
  5
CA
 10
-136.59987573
 20
10.85441151
 30
0.0
 40
0.99937858
 50
180.12226733
 51
269.87773267
  0
LINE
  8
0
  6
CONTINUOUS
 62
       7
  5
CB
 10
-14.15831735
 20
14.00217175
 30
0.0
 11
-14.15831735
 21
7.43460418
 31
0.0
  0
LINE
  8
0
  6
CONTINUOUS
 62
       7
  5
CC
 10
12.84168266
 20
14.00217175
 30
0.0
 11
12.84168266
 21
7.43460418
 31
0.0
  0
LINE
  8
0
  6
CONTINUOUS
 62
       7
  5
CD
 10
-14.15831735
 20
7.43460418
 30
0.0
 11
12.84168266
 21
7.43460418
 31
0.0
  0
LINE
  8
0
  6
CONTINUOUS
 62
       7
  5
CE
 10
-14.15831735
 20
8.89406364
 30
0.0
 11
12.84168266
 21
8.89406364
 31
0.0
  0
LINE
  8
0
  6
CONTINUOUS
 62
       7
  5
CF
 10
-14.15831735
 20
11.81298256
 30
0.0
 11
12.84168266
 21
11.81298256
 31
0.0
  0
LINE
  8
0
  6
CONTINUOUS
 62
       7
  5
D0
 10
150.94023778
 20
51.7400049
 30
0.0
 11
171.94023779
 21
51.7400049
 31
0.0
  0
LINE
  8
0
  6
CONTINUOUS
 62
       7
  5
D1
 10
150.94023778
 20
82.24000492
 30
0.0
 11
171.94023779
 21
82.24000492
 31
0.0
  0
LINE
  8
0
  6
CONTINUOUS
 62
       7
  5
D2
 10
159.44023779
 20
77.24000492
 30
0.0
 11
163.44023779
 21
77.24000492
 31
0.0
  0
LINE
  8
0
  6
CONTINUOUS
 62
       2
  5
D3
 10
154.94023779
 20
73.74000492
 30
0.0
 11
167.94023779
 21
73.74000492
 31
0.0
  0
LINE
  8
0
  6
CONTINUOUS
 62
       7
  5
D4
 10
159.44023779
 20
70.24000492
 30
0.0
 11
163.44023779
 21
70.24000492
 31
0.0
  0
CIRCLE
  8
0
  6
CONTINUOUS
 62
       7
  5
D5
 10
159.44023779
 20
73.74000492
 30
0.0
 40
1.2
  0
LINE
  8
0
  6
CONTINUOUS
 62
       7
  5
D6
 10
150.44023778
 20
82.74000492
 30
0.0
 11
172.44023779
 21
82.74000492
 31
0.0
  0
LINE
  8
0
  6
CONTINUOUS
 62
       7
  5
D7
 10
150.44023778
 20
51.2400049
 30
0.0
 11
172.44023779
 21
51.2400049
 31
0.0
  0
LINE
  8
0
  6
CONTINUOUS
 62
       7
  5
D8
 10
153.94023779
 20
63.7400049
 30
0.0
 11
168.94023779
 21
63.7400049
 31
0.0
  0
LINE
  8
0
  6
CONTINUOUS
 62
       7
  5
D9
 10
153.94023779
 20
55.7400049
 30
0.0
 11
168.94023779
 21
55.7400049
 31
0.0
  0
ARC
  8
0
  6
CONTINUOUS
 62
       7
  5
DA
 10
153.94023779
 20
56.2400049
 30
0.0
 40
0.5
 50
180.0
 51
270.0
  0
ARC
  8
0
  6
CONTINUOUS
 62
       7
  5
DB
 10
153.94023779
 20
63.2400049
 30
0.0
 40
0.5
 50
90.0
 51
180.0
  0
LINE
  8
0
  6
CONTINUOUS
 62
       7
  5
DC
 10
153.44023779
 20
63.2400049
 30
0.0
 11
153.44023779
 21
56.2400049
 31
0.0
  0
ARC
  8
0
  6
CONTINUOUS
 62
       7
  5
DD
 10
150.44023778
 20
51.7400049
 30
0.0
 40
0.5
 50
180.0
 51
270.0
  0
ARC
  8
0
  6
CONTINUOUS
 62
       7
  5
DE
 10
150.44023778
 20
82.24000492
 30
0.0
 40
0.5
 50
90.0
 51
180.0
  0
LINE
  8
0
  6
CONTINUOUS
 62
       7
  5
DF
 10
149.94023778
 20
82.24000492
 30
0.0
 11
149.94023778
 21
51.7400049
 31
0.0
  0
CIRCLE
  8
0
  6
CONTINUOUS
 62
       7
  5
E0
 10
159.44023779
 20
73.74000492
 30
0.0
 40
0.4
  0
LINE
  8
0
  6
CONTINUOUS
 62
       2
  5
E1
 10
159.44023779
 20
78.24000492
 30
0.0
 11
159.44023779
 21
69.24000492
 31
0.0
  0
ARC
  8
0
  6
CONTINUOUS
 62
       7
  5
E2
 10
159.44023779
 20
73.74000492
 30
0.0
 40
3.5
 50
90.0
 51
270.0
  0
ARC
  8
0
  6
CONTINUOUS
 62
       7
  5
E3
 10
150.94023778
 20
52.2400049
 30
0.0
 40
0.5
 50
180.0
 51
270.0
  0
ARC
  8
0
  6
CONTINUOUS
 62
       7
  5
E4
 10
150.94023778
 20
81.74000492
 30
0.0
 40
0.5
 50
90.0
 51
180.0
  0
LINE
  8
0
  6
CONTINUOUS
 62
       7
  5
E5
 10
150.44023778
 20
81.74000492
 30
0.0
 11
150.44023778
 21
52.2400049
 31
0.0
  0
LINE
  8
0
  6
CONTINUOUS
 62
       7
  5
E6
 10
172.44023779
 20
81.74000492
 30
0.0
 11
172.44023779
 21
52.2400049
 31
0.0
  0
CIRCLE
  8
0
  6
CONTINUOUS
 62
       7
  5
E7
 10
163.44023779
 20
73.74000492
 30
0.0
 40
1.2
  0
LINE
  8
0
  6
CONTINUOUS
 62
       7
  5
E8
 10
172.94023779
 20
82.24000492
 30
0.0
 11
172.94023779
 21
51.7400049
 31
0.0
  0
ARC
  8
0
  6
CONTINUOUS
 62
       7
  5
E9
 10
172.44023779
 20
82.24000492
 30
0.0
 40
0.5
 50
0.0
 51
90.0
  0
ARC
  8
0
  6
CONTINUOUS
 62
       7
  5
EA
 10
163.44023779
 20
73.74000492
 30
0.0
 40
3.5
 50
270.0
 51
90.0
  0
CIRCLE
  8
0
  6
CONTINUOUS
 62
       7
  5
EB
 10
163.44023779
 20
73.74000492
 30
0.0
 40
0.4
  0
LINE
  8
0
  6
CONTINUOUS
 62
       2
  5
EC
 10
163.44023779
 20
78.24000492
 30
0.0
 11
163.44023779
 21
69.24000492
 31
0.0
  0
ARC
  8
0
  6
CONTINUOUS
 62
       7
  5
ED
 10
171.94023779
 20
81.74000492
 30
0.0
 40
0.5
 50
0.0
 51
90.0
  0
LINE
  8
0
  6
CONTINUOUS
 62
       7
  5
EE
 10
169.44023779
 20
63.2400049
 30
0.0
 11
169.44023779
 21
56.2400049
 31
0.0
  0
ARC
  8
0
  6
CONTINUOUS
 62
       7
  5
EF
 10
168.94023779
 20
63.2400049
 30
0.0
 40
0.5
 50
0.0
 51
90.0
  0
ARC
  8
0
  6
CONTINUOUS
 62
       7
  5
F0
 10
168.94023779
 20
56.2400049
 30
0.0
 40
0.5
 50
270.0
 51
0.0
  0
ARC
  8
0
  6
CONTINUOUS
 62
       7
  5
F1
 10
172.44023779
 20
51.7400049
 30
0.0
 40
0.5
 50
270.0
 51
0.0
  0
ARC
  8
0
  6
CONTINUOUS
 62
       7
  5
F2
 10
171.94023779
 20
52.2400049
 30
0.0
 40
0.5
 50
270.0
 51
0.0
  0
LINE
  8
0
  6
CONTINUOUS
 62
       2
  5
F3
 10
55.36612876
 20
73.74000492
 30
0.0
 11
23.96612876
 21
73.74000492
 31
0.0
  0
LINE
  8
0
  6
CONTINUOUS
 62
       7
  5
F4
 10
35.87101532
 20
74.74000492
 30
0.0
 11
24.84612876
 21
74.74000492
 31
0.0
  0
LINE
  8
0
  6
CONTINUOUS
 62
       7
  5
F5
 10
34.42612876
 20
72.74000492
 30
0.0
 11
24.84612876
 21
72.74000492
 31
0.0
  0
LINE
  8
0
  6
CONTINUOUS
 62
       7
  5
F6
 10
12.84168266
 20
82.74000492
 30
0.0
 11
13.84205316
 21
82.74000492
 31
0.0
  0
LINE
  8
0
  6
CONTINUOUS
 62
       7
  5
F7
 10
12.84168266
 20
51.2400049
 30
0.0
 11
13.84205317
 21
51.2400049
 31
0.0
  0
ARC
  8
0
  6
CONTINUOUS
 62
       7
  5
F8
 10
24.34612876
 20
70.74000492
 30
0.0
 40
0.5
 50
270.0
 51
0.0
  0
ARC
  8
0
  6
CONTINUOUS
 62
       7
  5
F9
 10
24.34612876
 20
76.74000492
 30
0.0
 40
0.5
 50
0.0
 51
90.0
  0
LINE
  8
0
  6
CONTINUOUS
 62
       7
  5
FA
 10
23.34557305
 20
70.24000492
 30
0.0
 11
24.34612876
 21
70.24000492
 31
0.0
  0
LINE
  8
0
  6
CONTINUOUS
 62
       7
  5
FB
 10
23.34557305
 20
77.24000492
 30
0.0
 11
24.34612876
 21
77.24000492
 31
0.0
  0
ARC
  8
0
  6
CONTINUOUS
 62
       7
  5
FC
 10
22.845573
 20
52.2400049
 30
0.0
 40
0.5
 50
270.0
 51
0.0
  0
ARC
  8
0
  6
CONTINUOUS
 62
       7
  5
FD
 10
22.845573
 20
81.74000492
 30
0.0
 40
0.5
 50
0.0
 51
90.0
  0
LINE
  8
0
  6
CONTINUOUS
 62
       7
  5
FE
 10
13.84205316
 20
51.7400049
 30
0.0
 11
22.845573
 21
51.7400049
 31
0.0
  0
LINE
  8
0
  6
CONTINUOUS
 62
       7
  5
FF
 10
13.84205316
 20
82.24000492
 30
0.0
 11
22.845573
 21
82.24000492
 31
0.0
  0
LINE
  8
0
  6
CONTINUOUS
 62
       7
  5
100
 10
23.345573
 20
81.74000492
 30
0.0
 11
23.345573
 21
52.2400049
 31
0.0
  0
LINE
  8
0
  6
CONTINUOUS
 62
       7
  5
101
 10
24.84612876
 20
76.74000492
 30
0.0
 11
24.84612876
 21
70.74000492
 31
0.0
  0
LINE
  8
0
  6
CONTINUOUS
 62
       7
  5
102
 10
13.84205317
 20
82.74000492
 30
0.0
 11
13.84205317
 21
51.2400049
 31
0.0
  0
LINE
  8
0
  6
CONTINUOUS
 62
       7
  5
103
 10
54.64612876
 20
74.24000492
 30
0.0
 11
49.64612876
 21
74.24000492
 31
0.0
  0
LINE
  8
0
  6
CONTINUOUS
 62
       7
  5
104
 10
54.64612876
 20
73.24000492
 30
0.0
 11
49.64612876
 21
73.24000492
 31
0.0
  0
LINE
  8
0
  6
CONTINUOUS
 62
       7
  5
105
 10
49.64612876
 20
72.74000492
 30
0.0
 11
49.64612876
 21
74.74000492
 31
0.0
  0
LINE
  8
0
  6
CONTINUOUS
 62
       7
  5
106
 10
49.64612876
 20
74.74000492
 30
0.0
 11
37.34612876
 21
74.74000492
 31
0.0
  0
LINE
  8
0
  6
CONTINUOUS
 62
       7
  5
107
 10
49.64612876
 20
72.74000492
 30
0.0
 11
35.98612876
 21
72.74000492
 31
0.0
  0
LINE
  8
0
  6
CONTINUOUS
 62
       7
  5
108
 10
54.64612876
 20
73.24000492
 30
0.0
 11
54.64612876
 21
74.24000492
 31
0.0
  0
CIRCLE
  8
0
  6
CONTINUOUS
 62
       7
  5
109
 10
161.44023779
 20
39.24000489
 30
0.0
 40
2.067
  0
CIRCLE
  8
0
  6
CONTINUOUS
 62
       2
  5
10A
 10
161.44023779
 20
39.24000489
 30
0.0
 40
2.5
  0
CIRCLE
  8
0
  6
CONTINUOUS
 62
       7
  5
10B
 10
161.44023779
 20
29.24000489
 30
0.0
 40
4.283
  0
CIRCLE
  8
0
  6
CONTINUOUS
 62
       2
  5
10C
 10
161.44023779
 20
29.24000489
 30
0.0
 40
4.864
  0
CIRCLE
  8
0
  6
CONTINUOUS
 62
       7
  5
10D
 10
-152.66209664
 20
34.00773643
 30
0.0
 40
4.283
  0
CIRCLE
  8
0
  6
CONTINUOUS
 62
       2
  5
10E
 10
-152.66209664
 20
34.00773643
 30
0.0
 40
4.864
  0
TEXT
  8
0
  6
CONTINUOUS
 62
       7
  5
10F
 10
-268.24956528
 20
177.3499999
 30
0.0
 40
6.30000019
  1
MODEL:V050E1-01-21-LF
 41
1.09565217
  7
MX_NOTE_STANDARD
 11
-268.24956528
 21
180.5
 31
0.0
 73
       2
  0
LINE
  8
0
  6
CONTINUOUS
 62
       7
  5
110
 10
282.09985352
 20
195.5
 30
0.0
 11
282.09985352
 21
-195.0
 31
0.0
  0
LINE
  8
0
  6
CONTINUOUS
 62
       7
  5
111
 10
-281.25
 20
195.5
 30
0.0
 11
282.09985352
 21
195.5
 31
0.0
  0
LINE
  8
0
  6
CONTINUOUS
 62
       7
  5
112
 10
-281.25
 20
195.5
 30
0.0
 11
-281.25
 21
-195.0
 31
0.0
  0
LINE
  8
0
  6
CONTINUOUS
 62
       7
  5
113
 10
-281.25
 20
-195.0
 30
0.0
 11
282.09985352
 21
-195.0
 31
0.0
  0
ENDSEC
  0
EOF
