  0
SECTION
  2
HEADER
  9
$ACADVER
  1
AC1009
  9
$DWGCODEPAGE
  3
dos932
  9
$INSBASE
 10
0.0
 20
0.0
 30
0.0
  9
$EXTMIN
 10
-194.25
 20
-133.5
 30
0.0
  9
$EXTMAX
 10
194.80000305
 20
132.6000061
 30
0.0
  9
$LIMMIN
 10
-210.0
 20
-148.5
  9
$LIMMAX
 10
210.0
 20
148.5
  9
$ORTHOMODE
 70
       0
  9
$REGENMODE
 70
       1
  9
$FILLMODE
 70
       1
  9
$QTEXTMODE
 70
       0
  9
$MIRRTEXT
 70
       1
  9
$DRAGMODE
 70
       2
  9
$LTSCALE
 40
1.0
  9
$OSMODE
 70
       0
  9
$ATTMODE
 70
       1
  9
$TEXTSIZE
 40
3.20000005
  9
$TRACEWID
 40
0.05
  9
$TEXTSTYLE
  7
MX_NOTE_STANDARD
  9
$CLAYER
  8
0
  9
$CELTYPE
  6
CONTINUOUS
  9
$CECOLOR
 62
     256
  9
$DIMSCALE
 40
1.0
  9
$DIMASZ
 40
2.5
  9
$DIMEXO
 40
1.5
  9
$DIMDLI
 40
3.75
  9
$DIMRND
 40
0.0
  9
$DIMDLE
 40
0.0
  9
$DIMEXE
 40
1.5
  9
$DIMTP
 40
0.0
  9
$DIMTM
 40
0.0
  9
$DIMTXT
 40
3.20000005
  9
$DIMCEN
 40
2.5
  9
$DIMTSZ
 40
0.0
  9
$DIMTOL
 70
       0
  9
$DIMLIM
 70
       0
  9
$DIMTIH
 70
       0
  9
$DIMTOH
 70
       0
  9
$DIMSE1
 70
       0
  9
$DIMSE2
 70
       0
  9
$DIMTAD
 70
       1
  9
$DIMZIN
 70
       8
  9
$DIMBLK
  1

  9
$DIMASO
 70
       1
  9
$DIMSHO
 70
       1
  9
$DIMPOST
  1

  9
$DIMAPOST
  1

  9
$DIMALT
 70
       0
  9
$DIMALTD
 70
       4
  9
$DIMALTF
 40
0.03937008
  9
$DIMLFAC
 40
1.0
  9
$DIMTOFL
 70
       1
  9
$DIMTVP
 40
0.0
  9
$DIMTIX
 70
       0
  9
$DIMSOXD
 70
       0
  9
$DIMSAH
 70
       1
  9
$DIMBLK1
  1
_OPEN30
  9
$DIMBLK2
  1
_OPEN30
  9
$DIMSTYLE
  2
MXDIMSTYLE
  9
$DIMCLRD
 70
       0
  9
$DIMCLRE
 70
       0
  9
$DIMCLRT
 70
       0
  9
$DIMTFAC
 40
1.0
  9
$DIMGAP
 40
1.0
  9
$LUNITS
 70
       2
  9
$LUPREC
 70
       4
  9
$AXISMODE
 70
       0
  9
$AXISUNIT
 10
0.0
 20
0.0
  9
$SKETCHINC
 40
0.1
  9
$FILLETRAD
 40
0.0
  9
$AUNITS
 70
       0
  9
$AUPREC
 70
       0
  9
$MENU
  1
acad
  9
$ELEVATION
 40
0.0
  9
$PELEVATION
 40
0.0
  9
$THICKNESS
 40
0.0
  9
$LIMCHECK
 70
       0
  9
$BLIPMODE
 70
       1
  9
$CHAMFERA
 40
0.0
  9
$CHAMFERB
 40
0.0
  9
$SKPOLY
 70
       0
  9
$TDCREATE
 40
2454090.698321759
  9
$TDUPDATE
 40
2454090.698321759
  9
$TDINDWG
 40
0.0000000000
  9
$TDUSRTIMER
 40
0.0000000000
  9
$USRTIMER
 70
       1
  9
$ANGBASE
 50
0.0
  9
$ANGDIR
 70
       0
  9
$PDMODE
 70
       0
  9
$PDSIZE
 40
0.0
  9
$PLINEWID
 40
0.0
  9
$COORDS
 70
       1
  9
$SPLFRAME
 70
       0
  9
$SPLINETYPE
 70
       6
  9
$SPLINESEGS
 70
       8
  9
$ATTDIA
 70
       0
  9
$ATTREQ
 70
       1
  9
$HANDLING
 70
       1
  9
$HANDSEED
  5
1A1
  9
$SURFTAB1
 70
       6
  9
$SURFTAB2
 70
       6
  9
$SURFTYPE
 70
       6
  9
$SURFU
 70
       6
  9
$SURFV
 70
       6
  9
$UCSNAME
  2

  9
$UCSORG
 10
0.0
 20
0.0
 30
0.0
  9
$UCSXDIR
 10
1.0
 20
0.0
 30
0.0
  9
$UCSYDIR
 10
0.0
 20
1.0
 30
0.0
  9
$PUCSNAME
  2

  9
$PUCSORG
 10
0.0
 20
0.0
 30
0.0
  9
$PUCSXDIR
 10
1.0
 20
0.0
 30
0.0
  9
$PUCSYDIR
 10
0.0
 20
1.0
 30
0.0
  9
$USERI1
 70
       0
  9
$USERI2
 70
       0
  9
$USERI3
 70
       0
  9
$USERI4
 70
       0
  9
$USERI5
 70
       0
  9
$USERR1
 40
0.0
  9
$USERR2
 40
0.0
  9
$USERR3
 40
0.0
  9
$USERR4
 40
0.0
  9
$USERR5
 40
0.0
  9
$WORLDVIEW
 70
       1
  9
$SHADEDGE
 70
       3
  9
$SHADEDIF
 70
      70
  9
$TILEMODE
 70
       1
  9
$MAXACTVP
 70
      16
  9
$PINSBASE
 10
0.0
 20
0.0
 30
0.0
  9
$PLIMCHECK
 70
       0
  9
$PEXTMIN
 10
1.00000000E+20
 20
1.00000000E+20
 30
1.00000000E+20
  9
$PEXTMAX
 10
-1.00000000E+20
 20
-1.00000000E+20
 30
-1.00000000E+20
  9
$PLIMMIN
 10
0.0
 20
0.0
  9
$PLIMMAX
 10
12.0
 20
9.0
  9
$UNITMODE
 70
       0
  9
$VISRETAIN
 70
       0
  9
$PLINEGEN
 70
       1
  9
$PSLTSCALE
 70
       0
  9
$TREEDEPTH
 70
    3020
  0
ENDSEC
  0
SECTION
  2
TABLES
  0
TABLE
  2
VPORT
 70
       1
  0
VPORT
  2
*ACTIVE
 70
       0
 10
0.0
 20
0.0
 11
1.0
 21
1.0
 12
0.0
 22
0.0
 13
0.0
 23
0.0
 14
1.0
 24
1.0
 15
0.0
 25
0.0
 16
0.0
 26
0.0
 36
1.0
 17
0.0
 27
0.0
 37
0.0
 40
299.97
 41
1.73205081
 42
50.0
 43
0.0
 44
0.0
 50
0.0
 51
0.0
 71
       0
 72
     100
 73
       1
 74
       1
 75
       0
 76
       0
 77
       0
 78
       0
  0
ENDTAB
  0
TABLE
  2
LTYPE
 70
       1
  0
LTYPE
  2
CONTINUOUS
 70
      64
  3
Solid line
 72
      65
 73
       0
 40
0.0
  0
ENDTAB
  0
TABLE
  2
LAYER
 70
       2
  0
LAYER
  2
0
 70
       0
 62
       7
  6
CONTINUOUS
  0
LAYER
  2
DEFPOINTS
 70
       0
 62
       7
  6
CONTINUOUS
  0
ENDTAB
  0
TABLE
  2
STYLE
 70
       1
  0
STYLE
  2
MX_NOTE_STANDARD
 70
       0
 40
0.0
 41
1.0
 50
0.0
 71
       0
 42
3.20000005
  3
txt.shx
  4
extfont.shx
  0
ENDTAB
  0
TABLE
  2
VIEW
 70
       0
  0
ENDTAB
  0
TABLE
  2
UCS
 70
       0
  0
ENDTAB
  0
TABLE
  2
APPID
 70
       1
  0
APPID
  2
ACAD
 70
       0
  0
ENDTAB
  0
TABLE
  2
DIMSTYLE
 70
       1
  0
DIMSTYLE
  2
MXDIMSTYLE
 70
       0
  3

  4

  5

  6
_OPEN30
  7
_OPEN30
 40
1.0
 41
2.5
 42
1.5
 43
3.75
 44
1.5
 45
0.0
 46
0.0
 47
0.0
 48
0.0
 71
       0
 72
       0
 73
       0
 74
       0
 75
       0
 76
       0
 77
       1
 78
       8
140
3.20000005
141
2.5
142
0.0
143
0.03937008
144
1.0
145
0.0
146
1.0
147
1.0
170
       0
171
       4
172
       1
173
       1
174
       0
175
       0
176
       0
177
       0
178
       0
  0
ENDTAB
  0
ENDSEC
  0
SECTION
  2
BLOCKS
  0
BLOCK
  8
0
  6
BYBLOCK
 62
       0
  5
1F
  2
_OPEN30
 70
       2
 10
0.0
 20
0.0
 30
0.0
  3
_OPEN30
  0
LINE
  8
0
  6
BYBLOCK
 62
       0
  5
20
 10
-1.0
 20
0.267949
 30
0.0
 11
0.0
 21
0.0
 31
0.0
  0
LINE
  8
0
  6
BYBLOCK
 62
       0
  5
21
 10
0.0
 20
0.0
 30
0.0
 11
-1.0
 21
-0.267949
 31
0.0
  0
LINE
  8
0
  6
BYBLOCK
 62
       0
  5
22
 10
0.0
 20
0.0
 30
0.0
 11
-1.0
 21
0.0
 31
0.0
  0
ENDBLK
  8
0
  6
BYBLOCK
 62
       0
  5
23
  0
ENDSEC
  0
SECTION
  2
ENTITIES
  0
CIRCLE
  8
0
  6
CONTINUOUS
 62
       7
  5
24
 10
-105.48651647
 20
-9.71561242
 30
0.0
 40
2.0
  0
LINE
  8
0
  6
CONTINUOUS
 62
       7
  5
25
 10
1.42769709
 20
-76.72982598
 30
0.0
 11
-1.40073004
 21
-73.90139885
 31
0.0
  0
LINE
  8
0
  6
CONTINUOUS
 62
       7
  5
26
 10
-1.40073004
 20
-76.72982598
 30
0.0
 11
1.42769709
 21
-73.90139885
 31
0.0
  0
LINE
  8
0
  6
CONTINUOUS
 62
       7
  5
27
 10
-19.57230291
 20
-88.72982598
 30
0.0
 11
-22.40073004
 21
-85.90139885
 31
0.0
  0
LINE
  8
0
  6
CONTINUOUS
 62
       7
  5
28
 10
-22.40073004
 20
-88.72982598
 30
0.0
 11
-19.57230291
 21
-85.90139885
 31
0.0
  0
LINE
  8
0
  6
CONTINUOUS
 62
       2
  5
29
 10
-26.38651647
 20
-81.31561242
 30
0.0
 11
24.73348353
 21
-81.31561242
 31
0.0
  0
LINE
  8
0
  6
CONTINUOUS
 62
       7
  5
2A
 10
-23.48651647
 20
-90.31561242
 30
0.0
 11
2.51348353
 21
-90.31561242
 31
0.0
  0
LINE
  8
0
  6
CONTINUOUS
 62
       7
  5
2B
 10
-23.48651647
 20
-72.31561242
 30
0.0
 11
2.51348353
 21
-72.31561242
 31
0.0
  0
LINE
  8
0
  6
CONTINUOUS
 62
       7
  5
2C
 10
3.01348353
 20
-72.81561242
 30
0.0
 11
3.01348353
 21
-89.81561242
 31
0.0
  0
LINE
  8
0
  6
CONTINUOUS
 62
       7
  5
2D
 10
-23.98651647
 20
-72.81561242
 30
0.0
 11
-23.98651647
 21
-89.81561242
 31
0.0
  0
LINE
  8
0
  6
CONTINUOUS
 62
       2
  5
2E
 10
-4.12651647
 20
-75.31561242
 30
0.0
 11
4.18348353
 21
-75.31561242
 31
0.0
  0
LINE
  8
0
  6
CONTINUOUS
 62
       2
  5
2F
 10
-25.16651647
 20
-87.31561242
 30
0.0
 11
-16.82651647
 21
-87.31561242
 31
0.0
  0
LINE
  8
0
  6
CONTINUOUS
 62
       2
  5
30
 10
-20.98651647
 20
-83.27561242
 30
0.0
 11
-20.98651647
 21
-91.22561242
 31
0.0
  0
LINE
  8
0
  6
CONTINUOUS
 62
       2
  5
31
 10
0.01348353
 20
-71.45561242
 30
0.0
 11
0.01348353
 21
-79.17561242
 31
0.0
  0
LINE
  8
0
  6
CONTINUOUS
 62
       7
  5
32
 10
-17.78651647
 20
-87.31561242
 30
0.0
 11
-17.78651647
 21
-89.81561242
 31
0.0
  0
LINE
  8
0
  6
CONTINUOUS
 62
       7
  5
33
 10
-23.48651647
 20
-84.11561242
 30
0.0
 11
-20.98651647
 21
-84.11561242
 31
0.0
  0
LINE
  8
0
  6
CONTINUOUS
 62
       7
  5
34
 10
0.01348353
 20
-78.51561242
 30
0.0
 11
2.51348353
 21
-78.51561242
 31
0.0
  0
LINE
  8
0
  6
CONTINUOUS
 62
       7
  5
35
 10
-3.18651647
 20
-72.81561242
 30
0.0
 11
-3.18651647
 21
-75.31561242
 31
0.0
  0
LINE
  8
0
  6
CONTINUOUS
 62
       2
  5
36
 10
-19.98651647
 20
-72.98561242
 30
0.0
 11
-19.98651647
 21
-79.73561242
 31
0.0
  0
LINE
  8
0
  6
CONTINUOUS
 62
       2
  5
37
 10
-0.98651647
 20
-82.91561242
 30
0.0
 11
-0.98651647
 21
-89.49561242
 31
0.0
  0
LINE
  8
0
  6
CONTINUOUS
 62
       2
  5
38
 10
-23.13651647
 20
-76.31561242
 30
0.0
 11
-16.61651647
 21
-76.31561242
 31
0.0
  0
LINE
  8
0
  6
CONTINUOUS
 62
       2
  5
39
 10
-4.51651647
 20
-86.31561242
 30
0.0
 11
2.34348353
 21
-86.31561242
 31
0.0
  0
LINE
  8
0
  6
CONTINUOUS
 62
       2
  5
3A
 10
-10.48651647
 20
-69.56561242
 30
0.0
 11
-10.48651647
 21
-93.53561242
 31
0.0
  0
LINE
  8
0
  6
CONTINUOUS
 62
       7
  5
3B
 10
3.01348353
 20
-88.31561242
 30
0.0
 11
10.71348353
 21
-88.31561242
 31
0.0
  0
LINE
  8
0
  6
CONTINUOUS
 62
       7
  5
3C
 10
3.01348353
 20
-74.31561242
 30
0.0
 11
10.71348353
 21
-74.31561242
 31
0.0
  0
LINE
  8
0
  6
CONTINUOUS
 62
       7
  5
3D
 10
22.01348353
 20
-75.81561242
 30
0.0
 11
22.01348353
 21
-86.81561242
 31
0.0
  0
LINE
  8
0
  6
CONTINUOUS
 62
       7
  5
3E
 10
11.51348353
 20
-85.31561242
 30
0.0
 11
22.01348353
 21
-85.31561242
 31
0.0
  0
LINE
  8
0
  6
CONTINUOUS
 62
       7
  5
3F
 10
11.51348353
 20
-77.31561242
 30
0.0
 11
22.01348353
 21
-77.31561242
 31
0.0
  0
LINE
  8
0
  6
CONTINUOUS
 62
       7
  5
40
 10
11.51348353
 20
-75.81561242
 30
0.0
 11
22.01348353
 21
-75.81561242
 31
0.0
  0
LINE
  8
0
  6
CONTINUOUS
 62
       7
  5
41
 10
11.51348353
 20
-86.81561242
 30
0.0
 11
22.01348353
 21
-86.81561242
 31
0.0
  0
LINE
  8
0
  6
CONTINUOUS
 62
       7
  5
42
 10
11.51348353
 20
-75.11561242
 30
0.0
 11
11.51348353
 21
-87.51561242
 31
0.0
  0
LINE
  8
0
  6
CONTINUOUS
 62
       2
  5
43
 10
19.01348353
 20
-78.81561242
 30
0.0
 11
45.01348353
 21
-78.81561242
 31
0.0
  0
LINE
  8
0
  6
CONTINUOUS
 62
       2
  5
44
 10
19.01348353
 20
-83.81561242
 30
0.0
 11
45.01348353
 21
-83.81561242
 31
0.0
  0
LINE
  8
0
  6
CONTINUOUS
 62
       7
  5
45
 10
32.01348353
 20
-77.96561242
 30
0.0
 11
32.01348353
 21
-79.66561242
 31
0.0
  0
LINE
  8
0
  6
CONTINUOUS
 62
       7
  5
46
 10
42.01348353
 20
-78.49561242
 30
0.0
 11
42.01348353
 21
-79.13561242
 31
0.0
  0
LINE
  8
0
  6
CONTINUOUS
 62
       7
  5
47
 10
32.01348353
 20
-84.13561242
 30
0.0
 11
42.01348353
 21
-84.13561242
 31
0.0
  0
LINE
  8
0
  6
CONTINUOUS
 62
       7
  5
48
 10
32.01348353
 20
-83.49561242
 30
0.0
 11
42.01348353
 21
-83.49561242
 31
0.0
  0
LINE
  8
0
  6
CONTINUOUS
 62
       7
  5
49
 10
32.01348353
 20
-79.13561242
 30
0.0
 11
42.01348353
 21
-79.13561242
 31
0.0
  0
LINE
  8
0
  6
CONTINUOUS
 62
       7
  5
4A
 10
32.01348353
 20
-78.49561242
 30
0.0
 11
42.01348353
 21
-78.49561242
 31
0.0
  0
LINE
  8
0
  6
CONTINUOUS
 62
       7
  5
4B
 10
22.01348353
 20
-79.66561242
 30
0.0
 11
26.67348353
 21
-79.66561242
 31
0.0
  0
LINE
  8
0
  6
CONTINUOUS
 62
       7
  5
4C
 10
22.01348353
 20
-77.96561242
 30
0.0
 11
27.13348353
 21
-77.96561242
 31
0.0
  0
LINE
  8
0
  6
CONTINUOUS
 62
       7
  5
4D
 10
22.01348353
 20
-82.96561242
 30
0.0
 11
25.79348353
 21
-82.96561242
 31
0.0
  0
LINE
  8
0
  6
CONTINUOUS
 62
       7
  5
4E
 10
22.01348353
 20
-84.66561242
 30
0.0
 11
25.33348353
 21
-84.66561242
 31
0.0
  0
LINE
  8
0
  6
CONTINUOUS
 62
       7
  5
4F
 10
32.01348353
 20
-82.96561242
 30
0.0
 11
32.01348353
 21
-84.66561242
 31
0.0
  0
LINE
  8
0
  6
CONTINUOUS
 62
       7
  5
50
 10
42.01348353
 20
-83.49561242
 30
0.0
 11
42.01348353
 21
-84.13561242
 31
0.0
  0
LINE
  8
0
  6
CONTINUOUS
 62
       7
  5
51
 10
20.51348353
 20
-77.31561242
 30
0.0
 11
20.51348353
 21
-85.31561242
 31
0.0
  0
LINE
  8
0
  6
CONTINUOUS
 62
       7
  5
52
 10
14.01348353
 20
-77.31561242
 30
0.0
 11
14.01348353
 21
-85.31561242
 31
0.0
  0
LINE
  8
0
  6
CONTINUOUS
 62
       2
  5
53
 10
26.35348353
 20
-86.66561242
 30
0.0
 11
29.22348353
 21
-75.96561242
 31
0.0
  0
LINE
  8
0
  6
CONTINUOUS
 62
       2
  5
54
 10
24.80348353
 20
-86.66561242
 30
0.0
 11
27.66348353
 21
-75.96561242
 31
0.0
  0
LINE
  8
0
  6
CONTINUOUS
 62
       7
  5
55
 10
28.68348353
 20
-77.96561242
 30
0.0
 11
32.01348353
 21
-77.96561242
 31
0.0
  0
LINE
  8
0
  6
CONTINUOUS
 62
       7
  5
56
 10
28.22348353
 20
-79.66561242
 30
0.0
 11
32.01348353
 21
-79.66561242
 31
0.0
  0
LINE
  8
0
  6
CONTINUOUS
 62
       7
  5
57
 10
27.34348353
 20
-82.96561242
 30
0.0
 11
32.01348353
 21
-82.96561242
 31
0.0
  0
LINE
  8
0
  6
CONTINUOUS
 62
       7
  5
58
 10
26.88348353
 20
-84.66561242
 30
0.0
 11
32.01348353
 21
-84.66561242
 31
0.0
  0
ARC
  8
0
  6
CONTINUOUS
 62
       7
  5
59
 10
-23.48651647
 20
-72.81561242
 30
0.0
 40
0.5
 50
90.0
 51
180.0
  0
ARC
  8
0
  6
CONTINUOUS
 62
       7
  5
5A
 10
2.51348353
 20
-72.81561242
 30
0.0
 40
0.5
 50
0.0
 51
90.0
  0
ARC
  8
0
  6
CONTINUOUS
 62
       7
  5
5B
 10
2.51348353
 20
-89.81561242
 30
0.0
 40
0.5
 50
270.0
 51
0.0
  0
ARC
  8
0
  6
CONTINUOUS
 62
       7
  5
5C
 10
-23.48651647
 20
-89.81561242
 30
0.0
 40
0.5
 50
180.0
 51
270.0
  0
ARC
  8
0
  6
CONTINUOUS
 62
       7
  5
5D
 10
0.01348353
 20
-75.31561242
 30
0.0
 40
3.2
 50
180.0
 51
270.0
  0
ARC
  8
0
  6
CONTINUOUS
 62
       7
  5
5E
 10
-20.98651647
 20
-87.31561242
 30
0.0
 40
3.2
 50
0.0
 51
90.0
  0
ARC
  8
0
  6
CONTINUOUS
 62
       7
  5
5F
 10
-23.486518
 20
-83.61561394
 30
0.0
 40
0.49999847
 50
179.99982515
 51
270.00017485
  0
ARC
  8
0
  6
CONTINUOUS
 62
       7
  5
60
 10
-17.286518
 20
-89.81561394
 30
0.0
 40
0.49999847
 50
179.99982515
 51
270.00017485
  0
ARC
  8
0
  6
CONTINUOUS
 62
       7
  5
61
 10
-3.68652258
 20
-72.81561852
 30
0.0
 40
0.5000061
 50
0.00069941
 51
89.99930059
  0
ARC
  8
0
  6
CONTINUOUS
 62
       7
  5
62
 10
2.51348505
 20
-79.01561089
 30
0.0
 40
0.49999847
 50
359.99982515
 51
90.00017485
  0
CIRCLE
  8
0
  6
CONTINUOUS
 62
       7
  5
63
 10
-20.98651647
 20
-87.31561242
 30
0.0
 40
2.79999924
  0
CIRCLE
  8
0
  6
CONTINUOUS
 62
       7
  5
64
 10
0.01348353
 20
-75.31561242
 30
0.0
 40
2.79999924
  0
CIRCLE
  8
0
  6
CONTINUOUS
 62
       7
  5
65
 10
-0.98651647
 20
-86.31561242
 30
0.0
 40
1.0
  0
CIRCLE
  8
0
  6
CONTINUOUS
 62
       2
  5
66
 10
-0.98651647
 20
-86.31561242
 30
0.0
 40
1.5
  0
CIRCLE
  8
0
  6
CONTINUOUS
 62
       2
  5
67
 10
-19.98651647
 20
-76.31561242
 30
0.0
 40
1.5
  0
CIRCLE
  8
0
  6
CONTINUOUS
 62
       7
  5
68
 10
-19.98651647
 20
-76.31561242
 30
0.0
 40
1.0
  0
ARC
  8
0
  6
CONTINUOUS
 62
       7
  5
69
 10
10.7134881
 20
-75.11560784
 30
0.0
 40
0.79999542
 50
359.99967215
 51
90.00032785
  0
ARC
  8
0
  6
CONTINUOUS
 62
       7
  5
6A
 10
10.71348047
 20
-87.51560936
 30
0.0
 40
0.80000305
 50
270.00021857
 51
359.99978143
  0
LINE
  8
0
  6
CONTINUOUS
 62
       2
  5
6B
 10
-10.48651647
 20
74.03438758
 30
0.0
 11
-10.48651647
 21
-29.46561242
 31
0.0
  0
LINE
  8
0
  6
CONTINUOUS
 62
       7
  5
6C
 10
3.01348353
 20
41.68438758
 30
0.0
 11
3.01348353
 21
-25.41561242
 31
0.0
  0
LINE
  8
0
  6
CONTINUOUS
 62
       7
  5
6D
 10
-23.98651647
 20
41.68438758
 30
0.0
 11
-23.98651647
 21
-25.41561242
 31
0.0
  0
LINE
  8
0
  6
CONTINUOUS
 62
       7
  5
6E
 10
-23.48651647
 20
-25.91561242
 30
0.0
 11
2.51348353
 21
-25.91561242
 31
0.0
  0
LINE
  8
0
  6
CONTINUOUS
 62
       7
  5
6F
 10
-23.98651647
 20
-17.51561242
 30
0.0
 11
3.01348353
 21
-17.51561242
 31
0.0
  0
LINE
  8
0
  6
CONTINUOUS
 62
       7
  5
70
 10
-23.98651647
 20
24.48438758
 30
0.0
 11
3.01348353
 21
24.48438758
 31
0.0
  0
LINE
  8
0
  6
CONTINUOUS
 62
       7
  5
71
 10
-22.98651647
 20
42.68438758
 30
0.0
 11
-23.98651647
 21
41.68438758
 31
0.0
  0
LINE
  8
0
  6
CONTINUOUS
 62
       7
  5
72
 10
2.01348353
 20
42.68438758
 30
0.0
 11
3.01348353
 21
41.68438758
 31
0.0
  0
LINE
  8
0
  6
CONTINUOUS
 62
       7
  5
73
 10
0.01348353
 20
-9.86561242
 30
0.0
 11
3.01348353
 21
-9.86561242
 31
0.0
  0
LINE
  8
0
  6
CONTINUOUS
 62
       7
  5
74
 10
0.01348353
 20
-13.17561242
 30
0.0
 11
3.01348353
 21
-13.17561242
 31
0.0
  0
LINE
  8
0
  6
CONTINUOUS
 62
       7
  5
75
 10
0.01348353
 20
-9.86561242
 30
0.0
 11
0.01348353
 21
-13.17561242
 31
0.0
  0
LINE
  8
0
  6
CONTINUOUS
 62
       2
  5
76
 10
117.51348353
 20
-29.16561242
 30
0.0
 11
117.51348353
 21
74.20438758
 31
0.0
  0
LINE
  8
0
  6
CONTINUOUS
 62
       7
  5
77
 10
126.51348353
 20
41.68438758
 30
0.0
 11
126.51348353
 21
-25.41561242
 31
0.0
  0
LINE
  8
0
  6
CONTINUOUS
 62
       7
  5
78
 10
108.51348353
 20
41.68438758
 30
0.0
 11
108.51348353
 21
-25.41561242
 31
0.0
  0
LINE
  8
0
  6
CONTINUOUS
 62
       7
  5
79
 10
108.51348353
 20
24.48438758
 30
0.0
 11
126.51348353
 21
24.48438758
 31
0.0
  0
LINE
  8
0
  6
CONTINUOUS
 62
       7
  5
7A
 10
108.51348353
 20
-17.51561242
 30
0.0
 11
126.51348353
 21
-17.51561242
 31
0.0
  0
LINE
  8
0
  6
CONTINUOUS
 62
       7
  5
7B
 10
109.01348353
 20
-25.91561242
 30
0.0
 11
126.01348353
 21
-25.91561242
 31
0.0
  0
LINE
  8
0
  6
CONTINUOUS
 62
       7
  5
7C
 10
109.51348353
 20
42.68438758
 30
0.0
 11
108.51348353
 21
41.68438758
 31
0.0
  0
LINE
  8
0
  6
CONTINUOUS
 62
       7
  5
7D
 10
125.51348353
 20
42.68438758
 30
0.0
 11
126.51348353
 21
41.68438758
 31
0.0
  0
LINE
  8
0
  6
CONTINUOUS
 62
       2
  5
7E
 10
111.51348353
 20
10.48438758
 30
0.0
 11
123.51348353
 21
10.48438758
 31
0.0
  0
LINE
  8
0
  6
CONTINUOUS
 62
       2
  5
7F
 10
124.01348353
 20
23.07438758
 30
0.0
 11
124.01348353
 21
14.06438758
 31
0.0
  0
LINE
  8
0
  6
CONTINUOUS
 62
       2
  5
80
 10
111.01348353
 20
-7.40561242
 30
0.0
 11
111.01348353
 21
-15.81561242
 31
0.0
  0
LINE
  8
0
  6
CONTINUOUS
 62
       2
  5
81
 10
108.09348353
 20
-11.51561242
 30
0.0
 11
115.16348353
 21
-11.51561242
 31
0.0
  0
LINE
  8
0
  6
CONTINUOUS
 62
       2
  5
82
 10
114.58348353
 20
39.18438758
 30
0.0
 11
120.42348353
 21
39.18438758
 31
0.0
  0
LINE
  8
0
  6
CONTINUOUS
 62
       7
  5
83
 10
-114.48651647
 20
24.48438758
 30
0.0
 11
-96.48651647
 21
24.48438758
 31
0.0
  0
LINE
  8
0
  6
CONTINUOUS
 62
       2
  5
84
 10
-105.48651647
 20
74.51438758
 30
0.0
 11
-105.48651647
 21
-29.00561242
 31
0.0
  0
LINE
  8
0
  6
CONTINUOUS
 62
       7
  5
85
 10
-96.48651647
 20
41.68438758
 30
0.0
 11
-96.48651647
 21
-25.41561242
 31
0.0
  0
LINE
  8
0
  6
CONTINUOUS
 62
       7
  5
86
 10
-114.48651647
 20
41.68438758
 30
0.0
 11
-114.48651647
 21
-25.41561242
 31
0.0
  0
LINE
  8
0
  6
CONTINUOUS
 62
       7
  5
87
 10
-114.48651647
 20
-17.51561242
 30
0.0
 11
-96.48651647
 21
-17.51561242
 31
0.0
  0
LINE
  8
0
  6
CONTINUOUS
 62
       7
  5
88
 10
-113.98651647
 20
-25.91561242
 30
0.0
 11
-96.98651647
 21
-25.91561242
 31
0.0
  0
LINE
  8
0
  6
CONTINUOUS
 62
       7
  5
89
 10
-113.48651647
 20
42.68438758
 30
0.0
 11
-114.48651647
 21
41.68438758
 31
0.0
  0
LINE
  8
0
  6
CONTINUOUS
 62
       7
  5
8A
 10
-97.48651647
 20
42.68438758
 30
0.0
 11
-96.48651647
 21
41.68438758
 31
0.0
  0
LINE
  8
0
  6
CONTINUOUS
 62
       2
  5
8B
 10
-111.48651647
 20
3.48438758
 30
0.0
 11
-99.48651647
 21
3.48438758
 31
0.0
  0
LINE
  8
0
  6
CONTINUOUS
 62
       2
  5
8C
 10
-110.98651647
 20
16.68438758
 30
0.0
 11
-98.98651647
 21
16.68438758
 31
0.0
  0
LINE
  8
0
  6
CONTINUOUS
 62
       2
  5
8D
 10
-111.98651647
 20
21.48438758
 30
0.0
 11
-111.98651647
 21
15.48438758
 31
0.0
  0
LINE
  8
0
  6
CONTINUOUS
 62
       2
  5
8E
 10
-98.98651647
 20
-8.51561242
 30
0.0
 11
-98.98651647
 21
-14.51561242
 31
0.0
  0
LINE
  8
0
  6
CONTINUOUS
 62
       2
  5
8F
 10
-101.98651647
 20
-11.51561242
 30
0.0
 11
-95.98651647
 21
-11.51561242
 31
0.0
  0
LINE
  8
0
  6
CONTINUOUS
 62
       2
  5
90
 10
-114.98651647
 20
18.48438758
 30
0.0
 11
-108.98651647
 21
18.48438758
 31
0.0
  0
LINE
  8
0
  6
CONTINUOUS
 62
       2
  5
91
 10
-109.24651647
 20
34.38438758
 30
0.0
 11
-101.67651647
 21
34.38438758
 31
0.0
  0
LINE
  8
0
  6
CONTINUOUS
 62
       2
  5
92
 10
-111.48651647
 20
-21.35561242
 30
0.0
 11
-111.48651647
 21
-27.15561242
 31
0.0
  0
LINE
  8
0
  6
CONTINUOUS
 62
       7
  5
93
 10
-114.28651647
 20
-22.51561242
 30
0.0
 11
-108.78651647
 21
-22.51561242
 31
0.0
  0
LINE
  8
0
  6
CONTINUOUS
 62
       7
  5
94
 10
-108.28651647
 20
-23.01561242
 30
0.0
 11
-108.28651647
 21
-25.41561242
 31
0.0
  0
LINE
  8
0
  6
CONTINUOUS
 62
       2
  5
95
 10
0.01348353
 20
-21.64561242
 30
0.0
 11
0.01348353
 21
-27.08561242
 31
0.0
  0
LINE
  8
0
  6
CONTINUOUS
 62
       7
  5
96
 10
-2.68651647
 20
-22.51561242
 30
0.0
 11
2.81348353
 21
-22.51561242
 31
0.0
  0
LINE
  8
0
  6
CONTINUOUS
 62
       7
  5
97
 10
-3.18651647
 20
-23.01561242
 30
0.0
 11
-3.18651647
 21
-25.41561242
 31
0.0
  0
LINE
  8
0
  6
CONTINUOUS
 62
       2
  5
98
 10
111.51348353
 20
-21.42561242
 30
0.0
 11
111.51348353
 21
-27.36561242
 31
0.0
  0
LINE
  8
0
  6
CONTINUOUS
 62
       7
  5
99
 10
114.71348353
 20
-23.01561242
 30
0.0
 11
114.71348353
 21
-25.41561242
 31
0.0
  0
LINE
  8
0
  6
CONTINUOUS
 62
       7
  5
9A
 10
108.71348353
 20
-22.51561242
 30
0.0
 11
114.21348353
 21
-22.51561242
 31
0.0
  0
LINE
  8
0
  6
CONTINUOUS
 62
       7
  5
9B
 10
-114.28651647
 20
-23.69561242
 30
0.0
 11
-114.28651647
 21
-22.51561242
 31
0.0
  0
LINE
  8
0
  6
CONTINUOUS
 62
       7
  5
9C
 10
-108.68651647
 20
-23.69561242
 30
0.0
 11
-108.68651647
 21
-22.51561242
 31
0.0
  0
LINE
  8
0
  6
CONTINUOUS
 62
       7
  5
9D
 10
-2.78651647
 20
-23.69561242
 30
0.0
 11
-2.78651647
 21
-22.51561242
 31
0.0
  0
LINE
  8
0
  6
CONTINUOUS
 62
       7
  5
9E
 10
2.81348353
 20
-23.69561242
 30
0.0
 11
2.81348353
 21
-22.51561242
 31
0.0
  0
LINE
  8
0
  6
CONTINUOUS
 62
       7
  5
9F
 10
108.71348353
 20
-23.69561242
 30
0.0
 11
108.71348353
 21
-22.51561242
 31
0.0
  0
LINE
  8
0
  6
CONTINUOUS
 62
       7
  5
A0
 10
114.31348353
 20
-23.69561242
 30
0.0
 11
114.31348353
 21
-22.51561242
 31
0.0
  0
LINE
  8
0
  6
CONTINUOUS
 62
       7
  5
A1
 10
-114.48651647
 20
41.68438758
 30
0.0
 11
-96.48651647
 21
41.68438758
 31
0.0
  0
LINE
  8
0
  6
CONTINUOUS
 62
       7
  5
A2
 10
-23.98651647
 20
41.68438758
 30
0.0
 11
3.01348353
 21
41.68438758
 31
0.0
  0
LINE
  8
0
  6
CONTINUOUS
 62
       7
  5
A3
 10
108.51348353
 20
41.68438758
 30
0.0
 11
126.51348353
 21
41.68438758
 31
0.0
  0
LINE
  8
0
  6
CONTINUOUS
 62
       2
  5
A4
 10
-104.98651647
 20
22.68438758
 30
0.0
 11
-104.98651647
 21
10.68438758
 31
0.0
  0
LINE
  8
0
  6
CONTINUOUS
 62
       2
  5
A5
 10
-5.98651647
 20
18.48438758
 30
0.0
 11
0.01348353
 21
18.48438758
 31
0.0
  0
LINE
  8
0
  6
CONTINUOUS
 62
       2
  5
A6
 10
-2.98651647
 20
21.48438758
 30
0.0
 11
-2.98651647
 21
15.48438758
 31
0.0
  0
LINE
  8
0
  6
CONTINUOUS
 62
       2
  5
A7
 10
119.66348353
 20
18.48438758
 30
0.0
 11
127.09348353
 21
18.48438758
 31
0.0
  0
LINE
  8
0
  6
CONTINUOUS
 62
       2
  5
A8
 10
-2.98651647
 20
1.48438758
 30
0.0
 11
-2.98651647
 21
-4.51561242
 31
0.0
  0
LINE
  8
0
  6
CONTINUOUS
 62
       2
  5
A9
 10
-5.98651647
 20
-1.51561242
 30
0.0
 11
0.01348353
 21
-1.51561242
 31
0.0
  0
LINE
  8
0
  6
CONTINUOUS
 62
       2
  5
AA
 10
-1.26651647
 20
-11.51561242
 30
0.0
 11
4.70348353
 21
-11.51561242
 31
0.0
  0
LINE
  8
0
  6
CONTINUOUS
 62
       2
  5
AB
 10
-109.48651647
 20
-9.71561242
 30
0.0
 11
-101.48651647
 21
-9.71561242
 31
0.0
  0
LINE
  8
0
  6
CONTINUOUS
 62
       7
  5
AC
 10
-22.48651647
 20
67.88438758
 30
0.0
 11
1.51348353
 21
67.88438758
 31
0.0
  0
LINE
  8
0
  6
CONTINUOUS
 62
       7
  5
AD
 10
-22.98651647
 20
42.68438758
 30
0.0
 11
10.71348353
 21
42.68438758
 31
0.0
  0
LINE
  8
0
  6
CONTINUOUS
 62
       7
  5
AE
 10
-22.48651647
 20
68.88438758
 30
0.0
 11
-22.48651647
 21
42.68438758
 31
0.0
  0
LINE
  8
0
  6
CONTINUOUS
 62
       7
  5
AF
 10
1.51348353
 20
69.68438758
 30
0.0
 11
1.51348353
 21
42.68438758
 31
0.0
  0
LINE
  8
0
  6
CONTINUOUS
 62
       7
  5
B0
 10
11.51348353
 20
62.88438758
 30
0.0
 11
11.51348353
 21
43.48438758
 31
0.0
  0
LINE
  8
0
  6
CONTINUOUS
 62
       7
  5
B1
 10
1.51348353
 20
69.68438758
 30
0.0
 11
12.51348353
 21
69.68438758
 31
0.0
  0
LINE
  8
0
  6
CONTINUOUS
 62
       7
  5
B2
 10
10.61348353
 20
69.68438758
 30
0.0
 11
10.61348353
 21
63.68438758
 31
0.0
  0
LINE
  8
0
  6
CONTINUOUS
 62
       7
  5
B3
 10
1.51348353
 20
63.68438758
 30
0.0
 11
14.01348353
 21
63.68438758
 31
0.0
  0
LINE
  8
0
  6
CONTINUOUS
 62
       7
  5
B4
 10
-21.48651647
 20
70.88438758
 30
0.0
 11
-3.31651647
 21
70.88438758
 31
0.0
  0
LINE
  8
0
  6
CONTINUOUS
 62
       7
  5
B5
 10
-22.48651647
 20
68.88438758
 30
0.0
 11
1.51348353
 21
68.88438758
 31
0.0
  0
LINE
  8
0
  6
CONTINUOUS
 62
       7
  5
B6
 10
-22.48651647
 20
68.88438758
 30
0.0
 11
-21.48651647
 21
70.88438758
 31
0.0
  0
LINE
  8
0
  6
CONTINUOUS
 62
       7
  5
B7
 10
1.51348353
 20
68.88438758
 30
0.0
 11
0.51348353
 21
70.88438758
 31
0.0
  0
LINE
  8
0
  6
CONTINUOUS
 62
       7
  5
B8
 10
-4.48651647
 20
70.88438758
 30
0.0
 11
-4.48651647
 21
68.88438758
 31
0.0
  0
LINE
  8
0
  6
CONTINUOUS
 62
       2
  5
B9
 10
-1.48651647
 20
73.88438758
 30
0.0
 11
-1.48651647
 21
65.88438758
 31
0.0
  0
LINE
  8
0
  6
CONTINUOUS
 62
       7
  5
BA
 10
1.06348353
 20
69.48438758
 30
0.0
 11
-4.03651647
 21
69.48438758
 31
0.0
  0
LINE
  8
0
  6
CONTINUOUS
 62
       7
  5
BB
 10
-1.78651647
 20
68.88438758
 30
0.0
 11
-1.95651647
 21
69.48438758
 31
0.0
  0
LINE
  8
0
  6
CONTINUOUS
 62
       7
  5
BC
 10
-1.18651647
 20
69.48438758
 30
0.0
 11
-1.02651647
 21
68.88438758
 31
0.0
  0
LINE
  8
0
  6
CONTINUOUS
 62
       7
  5
BD
 10
1.06348353
 20
69.48438758
 30
0.0
 11
1.06348353
 21
68.88438758
 31
0.0
  0
LINE
  8
0
  6
CONTINUOUS
 62
       7
  5
BE
 10
-4.03651647
 20
69.48438758
 30
0.0
 11
-4.03651647
 21
68.88438758
 31
0.0
  0
LINE
  8
0
  6
CONTINUOUS
 62
       7
  5
BF
 10
0.76348353
 20
70.17438758
 30
0.0
 11
0.76348353
 21
69.48438758
 31
0.0
  0
LINE
  8
0
  6
CONTINUOUS
 62
       7
  5
C0
 10
-3.73651647
 20
70.17438758
 30
0.0
 11
-3.73651647
 21
69.48438758
 31
0.0
  0
LINE
  8
0
  6
CONTINUOUS
 62
       7
  5
C1
 10
0.33348353
 20
70.88438758
 30
0.0
 11
0.51348353
 21
70.88438758
 31
0.0
  0
LINE
  8
0
  6
CONTINUOUS
 62
       2
  5
C2
 10
-19.48651647
 20
73.88438758
 30
0.0
 11
-19.48651647
 21
65.88438758
 31
0.0
  0
LINE
  8
0
  6
CONTINUOUS
 62
       7
  5
C3
 10
22.01348353
 20
71.68438758
 30
0.0
 11
22.01348353
 21
70.68438758
 31
0.0
  0
LINE
  8
0
  6
CONTINUOUS
 62
       7
  5
C4
 10
20.51348353
 20
64.68438758
 30
0.0
 11
20.51348353
 21
63.68438758
 31
0.0
  0
LINE
  8
0
  6
CONTINUOUS
 62
       7
  5
C5
 10
3.01348353
 20
70.18438758
 30
0.0
 11
3.01348353
 21
69.68438758
 31
0.0
  0
LINE
  8
0
  6
CONTINUOUS
 62
       7
  5
C6
 10
22.01348353
 20
63.68438758
 30
0.0
 11
20.51348353
 21
63.68438758
 31
0.0
  0
LINE
  8
0
  6
CONTINUOUS
 62
       7
  5
C7
 10
20.51348353
 20
64.68438758
 30
0.0
 11
14.01348353
 21
64.68438758
 31
0.0
  0
LINE
  8
0
  6
CONTINUOUS
 62
       7
  5
C8
 10
22.01348353
 20
66.08438758
 30
0.0
 11
10.61348353
 21
66.08438758
 31
0.0
  0
LINE
  8
0
  6
CONTINUOUS
 62
       7
  5
C9
 10
22.01348353
 20
67.88438758
 30
0.0
 11
10.61348353
 21
67.88438758
 31
0.0
  0
LINE
  8
0
  6
CONTINUOUS
 62
       7
  5
CA
 10
3.51348353
 20
70.68438758
 30
0.0
 11
14.33348353
 21
70.68438758
 31
0.0
  0
LINE
  8
0
  6
CONTINUOUS
 62
       7
  5
CB
 10
22.01348353
 20
71.68438758
 30
0.0
 11
20.01348353
 21
71.68438758
 31
0.0
  0
LINE
  8
0
  6
CONTINUOUS
 62
       7
  5
CC
 10
22.01348353
 20
70.68438758
 30
0.0
 11
20.51348353
 21
70.68438758
 31
0.0
  0
LINE
  8
0
  6
CONTINUOUS
 62
       7
  5
CD
 10
20.01348353
 20
71.68438758
 30
0.0
 11
14.33348353
 21
70.68438758
 31
0.0
  0
LINE
  8
0
  6
CONTINUOUS
 62
       7
  5
CE
 10
20.51348353
 20
70.68438758
 30
0.0
 11
14.83348353
 21
69.68438758
 31
0.0
  0
LINE
  8
0
  6
CONTINUOUS
 62
       7
  5
CF
 10
10.61348353
 20
68.68438758
 30
0.0
 11
12.51348353
 21
68.68438758
 31
0.0
  0
LINE
  8
0
  6
CONTINUOUS
 62
       7
  5
D0
 10
14.01348353
 20
64.68438758
 30
0.0
 11
14.01348353
 21
63.68438758
 31
0.0
  0
LINE
  8
0
  6
CONTINUOUS
 62
       7
  5
D1
 10
10.61348353
 20
68.98438758
 30
0.0
 11
11.21348353
 21
68.98438758
 31
0.0
  0
LINE
  8
0
  6
CONTINUOUS
 62
       7
  5
D2
 10
21.71348353
 20
68.98438758
 30
0.0
 11
22.01348353
 21
68.68438758
 31
0.0
  0
LINE
  8
0
  6
CONTINUOUS
 62
       7
  5
D3
 10
15.51348353
 20
68.68438758
 30
0.0
 11
15.81348353
 21
68.98438758
 31
0.0
  0
LINE
  8
0
  6
CONTINUOUS
 62
       7
  5
D4
 10
11.21348353
 20
68.98438758
 30
0.0
 11
11.51348353
 21
68.68438758
 31
0.0
  0
LINE
  8
0
  6
CONTINUOUS
 62
       7
  5
D5
 10
15.81348353
 20
68.98438758
 30
0.0
 11
21.71348353
 21
68.98438758
 31
0.0
  0
LINE
  8
0
  6
CONTINUOUS
 62
       7
  5
D6
 10
14.51348353
 20
69.68438758
 30
0.0
 11
14.83348353
 21
69.68438758
 31
0.0
  0
LINE
  8
0
  6
CONTINUOUS
 62
       7
  5
D7
 10
14.51348353
 20
68.68438758
 30
0.0
 11
22.01348353
 21
68.68438758
 31
0.0
  0
LINE
  8
0
  6
CONTINUOUS
 62
       7
  5
D8
 10
22.01348353
 20
68.68438758
 30
0.0
 11
22.01348353
 21
63.68438758
 31
0.0
  0
LINE
  8
0
  6
CONTINUOUS
 62
       7
  5
D9
 10
11.81348353
 20
66.08438758
 30
0.0
 11
11.81348353
 21
64.58438758
 31
0.0
  0
LINE
  8
0
  6
CONTINUOUS
 62
       7
  5
DA
 10
11.81348353
 20
64.58438758
 30
0.0
 11
10.61348353
 21
64.58438758
 31
0.0
  0
LINE
  8
0
  6
CONTINUOUS
 62
       2
  5
DB
 10
19.01348353
 20
67.18438758
 30
0.0
 11
45.01348353
 21
67.18438758
 31
0.0
  0
LINE
  8
0
  6
CONTINUOUS
 62
       7
  5
DC
 10
22.01348353
 20
66.33438758
 30
0.0
 11
26.00348353
 21
66.33438758
 31
0.0
  0
LINE
  8
0
  6
CONTINUOUS
 62
       7
  5
DD
 10
22.01348353
 20
68.03438758
 30
0.0
 11
26.46348353
 21
68.03438758
 31
0.0
  0
LINE
  8
0
  6
CONTINUOUS
 62
       7
  5
DE
 10
32.01348353
 20
67.50438758
 30
0.0
 11
42.01348353
 21
67.50438758
 31
0.0
  0
LINE
  8
0
  6
CONTINUOUS
 62
       7
  5
DF
 10
32.01348353
 20
66.86438758
 30
0.0
 11
42.01348353
 21
66.86438758
 31
0.0
  0
LINE
  8
0
  6
CONTINUOUS
 62
       7
  5
E0
 10
32.01348353
 20
68.03438758
 30
0.0
 11
32.01348353
 21
66.33438758
 31
0.0
  0
LINE
  8
0
  6
CONTINUOUS
 62
       7
  5
E1
 10
42.01348353
 20
67.50438758
 30
0.0
 11
42.01348353
 21
66.86438758
 31
0.0
  0
LINE
  8
0
  6
CONTINUOUS
 62
       2
  5
E2
 10
25.47348353
 20
64.33438758
 30
0.0
 11
26.99348353
 21
70.03438758
 31
0.0
  0
LINE
  8
0
  6
CONTINUOUS
 62
       2
  5
E3
 10
27.02348353
 20
64.33438758
 30
0.0
 11
28.55348353
 21
70.03438758
 31
0.0
  0
LINE
  8
0
  6
CONTINUOUS
 62
       7
  5
E4
 10
28.01348353
 20
68.03438758
 30
0.0
 11
32.01348353
 21
68.03438758
 31
0.0
  0
LINE
  8
0
  6
CONTINUOUS
 62
       7
  5
E5
 10
27.55348353
 20
66.33438758
 30
0.0
 11
32.01348353
 21
66.33438758
 31
0.0
  0
LINE
  8
0
  6
CONTINUOUS
 62
       7
  5
E6
 10
-112.98651647
 20
68.88438758
 30
0.0
 11
-112.98651647
 21
42.68438758
 31
0.0
  0
LINE
  8
0
  6
CONTINUOUS
 62
       7
  5
E7
 10
-113.48651647
 20
42.68438758
 30
0.0
 11
-97.48651647
 21
42.68438758
 31
0.0
  0
LINE
  8
0
  6
CONTINUOUS
 62
       7
  5
E8
 10
-112.98651647
 20
67.88438758
 30
0.0
 11
-97.98651647
 21
67.88438758
 31
0.0
  0
LINE
  8
0
  6
CONTINUOUS
 62
       7
  5
E9
 10
-97.98651647
 20
68.88438758
 30
0.0
 11
-97.98651647
 21
42.68438758
 31
0.0
  0
LINE
  8
0
  6
CONTINUOUS
 62
       7
  5
EA
 10
-112.98651647
 20
68.88438758
 30
0.0
 11
-97.98651647
 21
68.88438758
 31
0.0
  0
LINE
  8
0
  6
CONTINUOUS
 62
       7
  5
EB
 10
-111.98651647
 20
70.88438758
 30
0.0
 11
-111.80651647
 21
70.88438758
 31
0.0
  0
LINE
  8
0
  6
CONTINUOUS
 62
       7
  5
EC
 10
-97.98651647
 20
68.88438758
 30
0.0
 11
-98.98651647
 21
70.88438758
 31
0.0
  0
LINE
  8
0
  6
CONTINUOUS
 62
       7
  5
ED
 10
-112.98651647
 20
68.88438758
 30
0.0
 11
-111.98651647
 21
70.88438758
 31
0.0
  0
LINE
  8
0
  6
CONTINUOUS
 62
       7
  5
EE
 10
-106.98651647
 20
70.88438758
 30
0.0
 11
-106.98651647
 21
68.88438758
 31
0.0
  0
LINE
  8
0
  6
CONTINUOUS
 62
       2
  5
EF
 10
-109.98651647
 20
73.88438758
 30
0.0
 11
-109.98651647
 21
65.88438758
 31
0.0
  0
LINE
  8
0
  6
CONTINUOUS
 62
       7
  5
F0
 10
-107.43651647
 20
69.48438758
 30
0.0
 11
-112.53651647
 21
69.48438758
 31
0.0
  0
LINE
  8
0
  6
CONTINUOUS
 62
       7
  5
F1
 10
-107.43651647
 20
69.48438758
 30
0.0
 11
-107.43651647
 21
68.88438758
 31
0.0
  0
LINE
  8
0
  6
CONTINUOUS
 62
       7
  5
F2
 10
-112.53651647
 20
69.48438758
 30
0.0
 11
-112.53651647
 21
68.88438758
 31
0.0
  0
LINE
  8
0
  6
CONTINUOUS
 62
       7
  5
F3
 10
-107.73651647
 20
70.17438758
 30
0.0
 11
-107.73651647
 21
69.48438758
 31
0.0
  0
LINE
  8
0
  6
CONTINUOUS
 62
       7
  5
F4
 10
-112.23651647
 20
70.17438758
 30
0.0
 11
-112.23651647
 21
69.48438758
 31
0.0
  0
LINE
  8
0
  6
CONTINUOUS
 62
       7
  5
F5
 10
-108.15651647
 20
70.88438758
 30
0.0
 11
-98.98651647
 21
70.88438758
 31
0.0
  0
LINE
  8
0
  6
CONTINUOUS
 62
       2
  5
F6
 10
-100.98651647
 20
73.88438758
 30
0.0
 11
-100.98651647
 21
65.88438758
 31
0.0
  0
LINE
  8
0
  6
CONTINUOUS
 62
       7
  5
F7
 10
-109.48651647
 20
71.68438758
 30
0.0
 11
-101.48651647
 21
71.68438758
 31
0.0
  0
LINE
  8
0
  6
CONTINUOUS
 62
       7
  5
F8
 10
-109.48651647
 20
71.68438758
 30
0.0
 11
-109.48651647
 21
71.15438758
 31
0.0
  0
LINE
  8
0
  6
CONTINUOUS
 62
       7
  5
F9
 10
-101.48651647
 20
71.68438758
 30
0.0
 11
-101.48651647
 21
71.15438758
 31
0.0
  0
LINE
  8
0
  6
CONTINUOUS
 62
       7
  5
FA
 10
110.01348353
 20
68.88438758
 30
0.0
 11
110.01348353
 21
42.68438758
 31
0.0
  0
LINE
  8
0
  6
CONTINUOUS
 62
       7
  5
FB
 10
125.01348353
 20
68.88438758
 30
0.0
 11
125.01348353
 21
42.68438758
 31
0.0
  0
LINE
  8
0
  6
CONTINUOUS
 62
       7
  5
FC
 10
110.01348353
 20
67.88438758
 30
0.0
 11
110.51348353
 21
67.88438758
 31
0.0
  0
LINE
  8
0
  6
CONTINUOUS
 62
       7
  5
FD
 10
109.51348353
 20
42.68438758
 30
0.0
 11
125.51348353
 21
42.68438758
 31
0.0
  0
LINE
  8
0
  6
CONTINUOUS
 62
       7
  5
FE
 10
124.51348353
 20
69.68438758
 30
0.0
 11
124.51348353
 21
63.68438758
 31
0.0
  0
LINE
  8
0
  6
CONTINUOUS
 62
       7
  5
FF
 10
110.51348353
 20
69.68438758
 30
0.0
 11
110.51348353
 21
63.68438758
 31
0.0
  0
LINE
  8
0
  6
CONTINUOUS
 62
       7
  5
100
 10
110.51348353
 20
69.68438758
 30
0.0
 11
124.51348353
 21
69.68438758
 31
0.0
  0
LINE
  8
0
  6
CONTINUOUS
 62
       7
  5
101
 10
110.51348353
 20
63.68438758
 30
0.0
 11
124.51348353
 21
63.68438758
 31
0.0
  0
LINE
  8
0
  6
CONTINUOUS
 62
       7
  5
102
 10
124.51348353
 20
67.88438758
 30
0.0
 11
125.01348353
 21
67.88438758
 31
0.0
  0
LINE
  8
0
  6
CONTINUOUS
 62
       7
  5
103
 10
110.51348353
 20
62.88438758
 30
0.0
 11
110.51348353
 21
43.48438758
 31
0.0
  0
LINE
  8
0
  6
CONTINUOUS
 62
       7
  5
104
 10
124.51348353
 20
62.88438758
 30
0.0
 11
124.51348353
 21
43.48438758
 31
0.0
  0
LINE
  8
0
  6
CONTINUOUS
 62
       7
  5
105
 10
112.01348353
 20
44.18438758
 30
0.0
 11
123.01348353
 21
44.18438758
 31
0.0
  0
LINE
  8
0
  6
CONTINUOUS
 62
       7
  5
106
 10
112.01348353
 20
52.68438758
 30
0.0
 11
123.01348353
 21
52.68438758
 31
0.0
  0
LINE
  8
0
  6
CONTINUOUS
 62
       7
  5
107
 10
112.01348353
 20
52.68438758
 30
0.0
 11
112.01348353
 21
44.18438758
 31
0.0
  0
LINE
  8
0
  6
CONTINUOUS
 62
       7
  5
108
 10
123.01348353
 20
52.68438758
 30
0.0
 11
123.01348353
 21
44.18438758
 31
0.0
  0
LINE
  8
0
  6
CONTINUOUS
 62
       7
  5
109
 10
115.51348353
 20
56.18438758
 30
0.0
 11
119.51348353
 21
56.18438758
 31
0.0
  0
LINE
  8
0
  6
CONTINUOUS
 62
       7
  5
10A
 10
115.51348353
 20
54.18438758
 30
0.0
 11
119.51348353
 21
54.18438758
 31
0.0
  0
LINE
  8
0
  6
CONTINUOUS
 62
       7
  5
10B
 10
115.51348353
 20
56.18438758
 30
0.0
 11
115.51348353
 21
54.18438758
 31
0.0
  0
LINE
  8
0
  6
CONTINUOUS
 62
       7
  5
10C
 10
119.51348353
 20
56.18438758
 30
0.0
 11
119.51348353
 21
54.18438758
 31
0.0
  0
LINE
  8
0
  6
CONTINUOUS
 62
       7
  5
10D
 10
115.01348353
 20
56.68438758
 30
0.0
 11
120.01348353
 21
56.68438758
 31
0.0
  0
LINE
  8
0
  6
CONTINUOUS
 62
       7
  5
10E
 10
115.01348353
 20
56.68438758
 30
0.0
 11
115.01348353
 21
53.68438758
 31
0.0
  0
LINE
  8
0
  6
CONTINUOUS
 62
       7
  5
10F
 10
115.01348353
 20
53.68438758
 30
0.0
 11
120.01348353
 21
53.68438758
 31
0.0
  0
LINE
  8
0
  6
CONTINUOUS
 62
       7
  5
110
 10
120.01348353
 20
56.68438758
 30
0.0
 11
120.01348353
 21
53.68438758
 31
0.0
  0
LINE
  8
0
  6
CONTINUOUS
 62
       7
  5
111
 10
115.51348353
 20
56.18438758
 30
0.0
 11
115.01348353
 21
56.68438758
 31
0.0
  0
LINE
  8
0
  6
CONTINUOUS
 62
       7
  5
112
 10
119.51348353
 20
56.18438758
 30
0.0
 11
120.01348353
 21
56.68438758
 31
0.0
  0
LINE
  8
0
  6
CONTINUOUS
 62
       7
  5
113
 10
119.51348353
 20
54.18438758
 30
0.0
 11
120.01348353
 21
53.68438758
 31
0.0
  0
LINE
  8
0
  6
CONTINUOUS
 62
       7
  5
114
 10
115.51348353
 20
54.18438758
 30
0.0
 11
115.01348353
 21
53.68438758
 31
0.0
  0
LINE
  8
0
  6
CONTINUOUS
 62
       7
  5
115
 10
111.01348353
 20
70.88438758
 30
0.0
 11
111.18348353
 21
70.88438758
 31
0.0
  0
LINE
  8
0
  6
CONTINUOUS
 62
       7
  5
116
 10
110.01348353
 20
68.88438758
 30
0.0
 11
110.51348353
 21
68.88438758
 31
0.0
  0
LINE
  8
0
  6
CONTINUOUS
 62
       7
  5
117
 10
110.01348353
 20
68.88438758
 30
0.0
 11
111.01348353
 21
70.88438758
 31
0.0
  0
LINE
  8
0
  6
CONTINUOUS
 62
       7
  5
118
 10
125.01348353
 20
68.88438758
 30
0.0
 11
124.01348353
 21
70.88438758
 31
0.0
  0
LINE
  8
0
  6
CONTINUOUS
 62
       2
  5
119
 10
113.01348353
 20
73.88438758
 30
0.0
 11
113.01348353
 21
64.88438758
 31
0.0
  0
LINE
  8
0
  6
CONTINUOUS
 62
       7
  5
11A
 10
110.51348353
 20
69.48438758
 30
0.0
 11
110.46348353
 21
69.48438758
 31
0.0
  0
LINE
  8
0
  6
CONTINUOUS
 62
       7
  5
11B
 10
110.46348353
 20
69.48438758
 30
0.0
 11
110.46348353
 21
68.88438758
 31
0.0
  0
LINE
  8
0
  6
CONTINUOUS
 62
       7
  5
11C
 10
124.51348353
 20
68.88438758
 30
0.0
 11
125.01348353
 21
68.88438758
 31
0.0
  0
LINE
  8
0
  6
CONTINUOUS
 62
       7
  5
11D
 10
110.76348353
 20
70.17438758
 30
0.0
 11
110.76348353
 21
69.68438758
 31
0.0
  0
LINE
  8
0
  6
CONTINUOUS
 62
       7
  5
11E
 10
111.81348353
 20
66.08438758
 30
0.0
 11
113.51348353
 21
66.08438758
 31
0.0
  0
LINE
  8
0
  6
CONTINUOUS
 62
       7
  5
11F
 10
111.81348353
 20
68.08438758
 30
0.0
 11
113.31348353
 21
68.08438758
 31
0.0
  0
LINE
  8
0
  6
CONTINUOUS
 62
       7
  5
120
 10
121.71348353
 20
69.68438758
 30
0.0
 11
121.71348353
 21
68.08438758
 31
0.0
  0
LINE
  8
0
  6
CONTINUOUS
 62
       7
  5
121
 10
113.31348353
 20
69.68438758
 30
0.0
 11
113.31348353
 21
68.08438758
 31
0.0
  0
LINE
  8
0
  6
CONTINUOUS
 62
       7
  5
122
 10
123.21348353
 20
68.08438758
 30
0.0
 11
123.21348353
 21
66.08438758
 31
0.0
  0
LINE
  8
0
  6
CONTINUOUS
 62
       7
  5
123
 10
111.81348353
 20
68.08438758
 30
0.0
 11
111.81348353
 21
66.08438758
 31
0.0
  0
LINE
  8
0
  6
CONTINUOUS
 62
       7
  5
124
 10
113.31348353
 20
66.08438758
 30
0.0
 11
113.31348353
 21
63.68438758
 31
0.0
  0
LINE
  8
0
  6
CONTINUOUS
 62
       7
  5
125
 10
121.71348353
 20
66.08438758
 30
0.0
 11
121.71348353
 21
63.68438758
 31
0.0
  0
LINE
  8
0
  6
CONTINUOUS
 62
       7
  5
126
 10
121.71348353
 20
68.08438758
 30
0.0
 11
123.21348353
 21
68.08438758
 31
0.0
  0
LINE
  8
0
  6
CONTINUOUS
 62
       7
  5
127
 10
121.51348353
 20
66.08438758
 30
0.0
 11
123.21348353
 21
66.08438758
 31
0.0
  0
LINE
  8
0
  6
CONTINUOUS
 62
       2
  5
128
 10
122.01348353
 20
73.88438758
 30
0.0
 11
122.01348353
 21
64.88438758
 31
0.0
  0
LINE
  8
0
  6
CONTINUOUS
 62
       7
  5
129
 10
112.01348353
 20
67.88438758
 30
0.0
 11
113.51348353
 21
67.88438758
 31
0.0
  0
LINE
  8
0
  6
CONTINUOUS
 62
       7
  5
12A
 10
113.51348353
 20
70.68438758
 30
0.0
 11
121.51348353
 21
70.68438758
 31
0.0
  0
LINE
  8
0
  6
CONTINUOUS
 62
       7
  5
12B
 10
112.01348353
 20
67.88438758
 30
0.0
 11
112.01348353
 21
66.08438758
 31
0.0
  0
LINE
  8
0
  6
CONTINUOUS
 62
       7
  5
12C
 10
123.01348353
 20
67.88438758
 30
0.0
 11
123.01348353
 21
66.08438758
 31
0.0
  0
LINE
  8
0
  6
CONTINUOUS
 62
       7
  5
12D
 10
113.51348353
 20
68.68438758
 30
0.0
 11
113.81348353
 21
68.98438758
 31
0.0
  0
LINE
  8
0
  6
CONTINUOUS
 62
       7
  5
12E
 10
121.51348353
 20
68.68438758
 30
0.0
 11
121.21348353
 21
68.98438758
 31
0.0
  0
LINE
  8
0
  6
CONTINUOUS
 62
       7
  5
12F
 10
113.51348353
 20
66.08438758
 30
0.0
 11
113.51348353
 21
63.68438758
 31
0.0
  0
LINE
  8
0
  6
CONTINUOUS
 62
       7
  5
130
 10
121.51348353
 20
66.08438758
 30
0.0
 11
121.51348353
 21
63.68438758
 31
0.0
  0
LINE
  8
0
  6
CONTINUOUS
 62
       7
  5
131
 10
121.51348353
 20
67.88438758
 30
0.0
 11
123.01348353
 21
67.88438758
 31
0.0
  0
LINE
  8
0
  6
CONTINUOUS
 62
       2
  5
132
 10
113.56348353
 20
67.18438758
 30
0.0
 11
121.46348353
 21
67.18438758
 31
0.0
  0
LINE
  8
0
  6
CONTINUOUS
 62
       2
  5
133
 10
115.01348353
 20
68.53438758
 30
0.0
 11
115.01348353
 21
65.73438758
 31
0.0
  0
LINE
  8
0
  6
CONTINUOUS
 62
       2
  5
134
 10
120.01348353
 20
68.53438758
 30
0.0
 11
120.01348353
 21
65.73438758
 31
0.0
  0
LINE
  8
0
  6
CONTINUOUS
 62
       7
  5
135
 10
114.06348353
 20
68.13438758
 30
0.0
 11
115.96348353
 21
68.13438758
 31
0.0
  0
LINE
  8
0
  6
CONTINUOUS
 62
       7
  5
136
 10
114.06348353
 20
66.23438758
 30
0.0
 11
115.96348353
 21
66.23438758
 31
0.0
  0
LINE
  8
0
  6
CONTINUOUS
 62
       7
  5
137
 10
114.06348353
 20
68.33438758
 30
0.0
 11
114.06348353
 21
66.23438758
 31
0.0
  0
LINE
  8
0
  6
CONTINUOUS
 62
       7
  5
138
 10
115.96348353
 20
68.33438758
 30
0.0
 11
115.96348353
 21
66.23438758
 31
0.0
  0
LINE
  8
0
  6
CONTINUOUS
 62
       7
  5
139
 10
116.56348353
 20
68.33438758
 30
0.0
 11
116.56348353
 21
66.23438758
 31
0.0
  0
LINE
  8
0
  6
CONTINUOUS
 62
       7
  5
13A
 10
118.46348353
 20
68.33438758
 30
0.0
 11
118.46348353
 21
66.23438758
 31
0.0
  0
LINE
  8
0
  6
CONTINUOUS
 62
       7
  5
13B
 10
120.96348353
 20
68.33438758
 30
0.0
 11
120.96348353
 21
66.23438758
 31
0.0
  0
LINE
  8
0
  6
CONTINUOUS
 62
       7
  5
13C
 10
119.06348353
 20
68.33438758
 30
0.0
 11
119.06348353
 21
66.23438758
 31
0.0
  0
LINE
  8
0
  6
CONTINUOUS
 62
       7
  5
13D
 10
116.56348353
 20
68.13438758
 30
0.0
 11
118.46348353
 21
68.13438758
 31
0.0
  0
LINE
  8
0
  6
CONTINUOUS
 62
       7
  5
13E
 10
116.56348353
 20
66.23438758
 30
0.0
 11
118.46348353
 21
66.23438758
 31
0.0
  0
LINE
  8
0
  6
CONTINUOUS
 62
       7
  5
13F
 10
119.06348353
 20
66.23438758
 30
0.0
 11
120.96348353
 21
66.23438758
 31
0.0
  0
LINE
  8
0
  6
CONTINUOUS
 62
       7
  5
140
 10
119.06348353
 20
68.13438758
 30
0.0
 11
120.96348353
 21
68.13438758
 31
0.0
  0
LINE
  8
0
  6
CONTINUOUS
 62
       7
  5
141
 10
113.31348353
 20
68.68438758
 30
0.0
 11
121.71348353
 21
68.68438758
 31
0.0
  0
LINE
  8
0
  6
CONTINUOUS
 62
       7
  5
142
 10
113.81348353
 20
68.98438758
 30
0.0
 11
121.21348353
 21
68.98438758
 31
0.0
  0
LINE
  8
0
  6
CONTINUOUS
 62
       7
  5
143
 10
113.51348353
 20
71.68438758
 30
0.0
 11
121.51348353
 21
71.68438758
 31
0.0
  0
LINE
  8
0
  6
CONTINUOUS
 62
       7
  5
144
 10
121.51348353
 20
71.68438758
 30
0.0
 11
121.51348353
 21
67.88438758
 31
0.0
  0
LINE
  8
0
  6
CONTINUOUS
 62
       7
  5
145
 10
113.51348353
 20
71.68438758
 30
0.0
 11
113.51348353
 21
67.88438758
 31
0.0
  0
LINE
  8
0
  6
CONTINUOUS
 62
       7
  5
146
 10
114.06348353
 20
68.33438758
 30
0.0
 11
115.96348353
 21
68.33438758
 31
0.0
  0
LINE
  8
0
  6
CONTINUOUS
 62
       7
  5
147
 10
116.56348353
 20
68.33438758
 30
0.0
 11
118.46348353
 21
68.33438758
 31
0.0
  0
LINE
  8
0
  6
CONTINUOUS
 62
       7
  5
148
 10
119.06348353
 20
68.33438758
 30
0.0
 11
120.96348353
 21
68.33438758
 31
0.0
  0
LINE
  8
0
  6
CONTINUOUS
 62
       7
  5
149
 10
114.51348353
 20
65.93438758
 30
0.0
 11
115.51348353
 21
65.93438758
 31
0.0
  0
LINE
  8
0
  6
CONTINUOUS
 62
       7
  5
14A
 10
117.01348353
 20
65.93438758
 30
0.0
 11
118.01348353
 21
65.93438758
 31
0.0
  0
LINE
  8
0
  6
CONTINUOUS
 62
       7
  5
14B
 10
119.51348353
 20
65.93438758
 30
0.0
 11
120.51348353
 21
65.93438758
 31
0.0
  0
LINE
  8
0
  6
CONTINUOUS
 62
       7
  5
14C
 10
114.51348353
 20
66.23438758
 30
0.0
 11
114.51348353
 21
65.93438758
 31
0.0
  0
LINE
  8
0
  6
CONTINUOUS
 62
       7
  5
14D
 10
115.51348353
 20
66.23438758
 30
0.0
 11
115.51348353
 21
65.93438758
 31
0.0
  0
LINE
  8
0
  6
CONTINUOUS
 62
       7
  5
14E
 10
117.01348353
 20
66.23438758
 30
0.0
 11
117.01348353
 21
65.93438758
 31
0.0
  0
LINE
  8
0
  6
CONTINUOUS
 62
       7
  5
14F
 10
118.01348353
 20
66.23438758
 30
0.0
 11
118.01348353
 21
65.93438758
 31
0.0
  0
LINE
  8
0
  6
CONTINUOUS
 62
       7
  5
150
 10
120.51348353
 20
66.23438758
 30
0.0
 11
120.51348353
 21
65.93438758
 31
0.0
  0
LINE
  8
0
  6
CONTINUOUS
 62
       7
  5
151
 10
119.51348353
 20
66.23438758
 30
0.0
 11
119.51348353
 21
65.93438758
 31
0.0
  0
LINE
  8
0
  6
CONTINUOUS
 62
       7
  5
152
 10
124.01348353
 20
70.88438758
 30
0.0
 11
121.51348353
 21
70.88438758
 31
0.0
  0
LINE
  8
0
  6
CONTINUOUS
 62
       2
  5
153
 10
113.51348353
 20
55.18438758
 30
0.0
 11
121.51348353
 21
55.18438758
 31
0.0
  0
ARC
  8
0
  6
CONTINUOUS
 62
       7
  5
154
 10
-23.48651571
 20
-25.41561165
 30
0.0
 40
0.50000076
 50
180.00008743
 51
269.99991257
  0
ARC
  8
0
  6
CONTINUOUS
 62
       7
  5
155
 10
2.51348276
 20
-25.41561165
 30
0.0
 40
0.50000076
 50
270.00008743
 51
359.99991257
  0
ARC
  8
0
  6
CONTINUOUS
 62
       7
  5
156
 10
109.01348429
 20
-25.41561165
 30
0.0
 40
0.50000076
 50
180.00008743
 51
269.99991257
  0
ARC
  8
0
  6
CONTINUOUS
 62
       7
  5
157
 10
126.01348276
 20
-25.41561165
 30
0.0
 40
0.50000076
 50
270.00008743
 51
359.99991257
  0
CIRCLE
  8
0
  6
CONTINUOUS
 62
       7
  5
158
 10
111.01348353
 20
-11.51560936
 30
0.0
 40
1.59999943
  0
CIRCLE
  8
0
  6
CONTINUOUS
 62
       7
  5
159
 10
124.01348353
 20
18.48439064
 30
0.0
 40
1.59999943
  0
ARC
  8
0
  6
CONTINUOUS
 62
       7
  5
15A
 10
124.01348004
 20
18.47938758
 30
0.0
 40
2.99817318
 50
33.50452246
 51
326.49547754
  0
ARC
  8
0
  6
CONTINUOUS
 62
       7
  5
15B
 10
111.01577786
 20
-11.51629795
 30
0.0
 40
2.99770574
 50
0.01310282
 51
146.58840871
  0
ARC
  8
0
  6
CONTINUOUS
 62
       7
  5
15C
 10
111.01301609
 20
-11.51575043
 30
0.0
 40
3.00046744
 50
213.58690239
 51
0.00263551
  0
CIRCLE
  8
0
  6
CONTINUOUS
 62
       7
  5
15D
 10
117.51348353
 20
39.18438758
 30
0.0
 40
1.64999962
  0
ARC
  8
0
  6
CONTINUOUS
 62
       7
  5
15E
 10
-113.98651571
 20
-25.41561165
 30
0.0
 40
0.50000076
 50
180.00008743
 51
269.99991257
  0
ARC
  8
0
  6
CONTINUOUS
 62
       7
  5
15F
 10
-96.98650961
 20
-25.41561928
 30
0.0
 40
0.49999313
 50
269.99921316
 51
0.00078684
  0
CIRCLE
  8
0
  6
CONTINUOUS
 62
       7
  5
160
 10
-98.98650122
 20
-11.51560936
 30
0.0
 40
1.59999943
  0
CIRCLE
  8
0
  6
CONTINUOUS
 62
       7
  5
161
 10
-111.98651647
 20
18.48439064
 30
0.0
 40
1.59999943
  0
CIRCLE
  8
0
  6
CONTINUOUS
 62
       7
  5
162
 10
-105.48651647
 20
34.38438453
 30
0.0
 40
2.64999962
  0
ARC
  8
0
  6
CONTINUOUS
 62
       7
  5
163
 10
-113.98651495
 20
-22.01561089
 30
0.0
 40
0.50000153
 50
180.00017485
 51
269.99982515
  0
ARC
  8
0
  6
CONTINUOUS
 62
       7
  5
164
 10
-108.78651647
 20
-23.01561242
 30
0.0
 40
0.5
 50
0.0
 51
90.0
  0
ARC
  8
0
  6
CONTINUOUS
 62
       7
  5
165
 10
-107.78651724
 20
-25.41561318
 30
0.0
 40
0.49999924
 50
179.99991257
 51
270.00008743
  0
ARC
  8
0
  6
CONTINUOUS
 62
       7
  5
166
 10
-2.6865241
 20
-23.01560479
 30
0.0
 40
0.49999237
 50
89.99912572
 51
180.00087428
  0
ARC
  8
0
  6
CONTINUOUS
 62
       7
  5
167
 10
2.513482
 20
-22.01561089
 30
0.0
 40
0.50000153
 50
270.00017485
 51
359.99982515
  0
ARC
  8
0
  6
CONTINUOUS
 62
       7
  5
168
 10
-3.68652334
 20
-25.41560555
 30
0.0
 40
0.50000687
 50
270.00078683
 51
359.99921317
  0
ARC
  8
0
  6
CONTINUOUS
 62
       7
  5
169
 10
114.21349115
 20
-23.01560479
 30
0.0
 40
0.49999237
 50
359.99912572
 51
90.00087428
  0
ARC
  8
0
  6
CONTINUOUS
 62
       7
  5
16A
 10
109.01348505
 20
-22.01561089
 30
0.0
 40
0.50000153
 50
180.00017485
 51
269.99982515
  0
ARC
  8
0
  6
CONTINUOUS
 62
       7
  5
16B
 10
115.21349039
 20
-25.41560555
 30
0.0
 40
0.50000687
 50
180.00078683
 51
269.99921317
  0
CIRCLE
  8
0
  6
CONTINUOUS
 62
       2
  5
16C
 10
-104.98651647
 20
16.68438758
 30
0.0
 40
4.86434937
  0
CIRCLE
  8
0
  6
CONTINUOUS
 62
       7
  5
16D
 10
-104.98651647
 20
16.68438758
 30
0.0
 40
4.28324986
  0
CIRCLE
  8
0
  6
CONTINUOUS
 62
       2
  5
16E
 10
-105.48651647
 20
3.48439064
 30
0.0
 40
4.86434937
  0
CIRCLE
  8
0
  6
CONTINUOUS
 62
       7
  5
16F
 10
-105.48651647
 20
3.48439064
 30
0.0
 40
4.28324986
  0
CIRCLE
  8
0
  6
CONTINUOUS
 62
       2
  5
170
 10
117.51348353
 20
10.48439064
 30
0.0
 40
4.86434937
  0
CIRCLE
  8
0
  6
CONTINUOUS
 62
       7
  5
171
 10
117.51348353
 20
10.48439064
 30
0.0
 40
4.28324986
  0
ARC
  8
0
  6
CONTINUOUS
 62
       7
  5
172
 10
-111.48151647
 20
-19.91560872
 30
0.0
 40
5.00857837
 50
240.51763693
 51
299.48236307
  0
ARC
  8
0
  6
CONTINUOUS
 62
       7
  5
173
 10
-113.61676322
 20
-23.69265361
 30
0.0
 40
0.66975979
 50
180.25311719
 51
240.50513484
  0
ARC
  8
0
  6
CONTINUOUS
 62
       7
  5
174
 10
-109.35873066
 20
-23.69702504
 30
0.0
 40
0.67221567
 50
300.60282892
 51
0.1204037
  0
ARC
  8
0
  6
CONTINUOUS
 62
       7
  5
175
 10
0.00848353
 20
-19.91560872
 30
0.0
 40
5.00857837
 50
240.51763693
 51
299.48236307
  0
ARC
  8
0
  6
CONTINUOUS
 62
       7
  5
176
 10
-2.11430229
 20
-23.69702504
 30
0.0
 40
0.67221567
 50
179.8795963
 51
239.39717108
  0
ARC
  8
0
  6
CONTINUOUS
 62
       7
  5
177
 10
2.14373027
 20
-23.69265361
 30
0.0
 40
0.66975979
 50
299.49486516
 51
359.74688281
  0
ARC
  8
0
  6
CONTINUOUS
 62
       7
  5
178
 10
111.50848353
 20
-19.91560872
 30
0.0
 40
5.00857837
 50
240.51763693
 51
299.48236307
  0
ARC
  8
0
  6
CONTINUOUS
 62
       7
  5
179
 10
109.38569771
 20
-23.69702504
 30
0.0
 40
0.67221567
 50
179.8795963
 51
239.39717108
  0
ARC
  8
0
  6
CONTINUOUS
 62
       7
  5
17A
 10
113.64373027
 20
-23.69265361
 30
0.0
 40
0.66975979
 50
299.49486516
 51
359.74688281
  0
CIRCLE
  8
0
  6
CONTINUOUS
 62
       7
  5
17B
 10
-105.48651647
 20
34.38438453
 30
0.0
 40
2.0
  0
CIRCLE
  8
0
  6
CONTINUOUS
 62
       7
  5
17C
 10
-2.98651647
 20
18.48439064
 30
0.0
 40
1.59999943
  0
CIRCLE
  8
0
  6
CONTINUOUS
 62
       7
  5
17D
 10
-2.98651647
 20
-1.51560936
 30
0.0
 40
1.59999943
  0
CIRCLE
  8
0
  6
CONTINUOUS
 62
       2
  5
17E
 10
-105.48651647
 20
-9.71562157
 30
0.0
 40
2.5
  0
ARC
  8
0
  6
CONTINUOUS
 62
       7
  5
17F
 10
10.71348047
 20
62.88438453
 30
0.0
 40
0.80000305
 50
0.00021857
 51
89.99978143
  0
ARC
  8
0
  6
CONTINUOUS
 62
       7
  5
180
 10
10.71348047
 20
43.48439064
 30
0.0
 40
0.80000305
 50
270.00021857
 51
359.99978143
  0
ARC
  8
0
  6
CONTINUOUS
 62
       7
  5
181
 10
-1.49151647
 20
65.18438558
 30
0.0
 40
5.99860384
 50
73.78564794
 51
106.21435206
  0
ARC
  8
0
  6
CONTINUOUS
 62
       7
  5
182
 10
-0.03512702
 20
70.17627835
 30
0.0
 40
0.79861278
 50
359.86434887
 51
74.1131879
  0
ARC
  8
0
  6
CONTINUOUS
 62
       7
  5
183
 10
-2.93651368
 20
70.17815175
 30
0.0
 40
0.80001165
 50
106.70830232
 51
180.26958544
  0
ARC
  8
0
  6
CONTINUOUS
 62
       7
  5
184
 10
-19.49151647
 20
65.18437032
 30
0.0
 40
5.99861849
 50
73.78568864
 51
106.21431136
  0
ARC
  8
0
  6
CONTINUOUS
 62
       7
  5
185
 10
-20.94554068
 20
70.1744481
 30
0.0
 40
0.80102254
 50
106.01369642
 51
117.58912255
  0
ARC
  8
0
  6
CONTINUOUS
 62
       7
  5
186
 10
-18.03608802
 20
70.17795873
 30
0.0
 40
0.79726084
 50
62.38347547
 51
74.01370555
  0
ARC
  8
0
  6
CONTINUOUS
 62
       7
  5
187
 10
3.51348353
 20
70.18438758
 30
0.0
 40
0.5
 50
90.0
 51
180.0
  0
ARC
  8
0
  6
CONTINUOUS
 62
       7
  5
188
 10
14.51348353
 20
69.18438758
 30
0.0
 40
0.5
 50
90.0
 51
270.0
  0
ARC
  8
0
  6
CONTINUOUS
 62
       7
  5
189
 10
12.51348353
 20
69.18438758
 30
0.0
 40
0.5
 50
270.0
 51
90.0
  0
ARC
  8
0
  6
CONTINUOUS
 62
       7
  5
18A
 10
-109.98151647
 20
65.18437032
 30
0.0
 40
5.99861849
 50
73.78568864
 51
106.21431136
  0
ARC
  8
0
  6
CONTINUOUS
 62
       7
  5
18B
 10
-108.53652913
 20
70.17814445
 30
0.0
 40
0.80002147
 50
359.73094046
 51
73.29117178
  0
ARC
  8
0
  6
CONTINUOUS
 62
       7
  5
18C
 10
-111.43789862
 20
70.17627284
 30
0.0
 40
0.79862008
 50
105.88720841
 51
180.13525482
  0
ARC
  8
0
  6
CONTINUOUS
 62
       7
  5
18D
 10
-100.98151647
 20
65.18437034
 30
0.0
 40
5.99861848
 50
73.7856886
 51
106.2143114
  0
ARC
  8
0
  6
CONTINUOUS
 62
       7
  5
18E
 10
-102.43693967
 20
70.17794558
 30
0.0
 40
0.79727493
 50
105.98639758
 51
117.61642139
  0
ARC
  8
0
  6
CONTINUOUS
 62
       7
  5
18F
 10
-99.52748703
 20
70.17446119
 30
0.0
 40
0.80100851
 50
62.41077576
 51
73.98640527
  0
ARC
  8
0
  6
CONTINUOUS
 62
       7
  5
190
 10
111.31348658
 20
62.88438453
 30
0.0
 40
0.80000305
 50
90.00021857
 51
179.99978143
  0
ARC
  8
0
  6
CONTINUOUS
 62
       7
  5
191
 10
123.71348047
 20
62.88438453
 30
0.0
 40
0.80000305
 50
0.00021857
 51
89.99978143
  0
ARC
  8
0
  6
CONTINUOUS
 62
       7
  5
192
 10
111.31348658
 20
43.48439064
 30
0.0
 40
0.80000305
 50
180.00021857
 51
269.99978143
  0
ARC
  8
0
  6
CONTINUOUS
 62
       7
  5
193
 10
123.71348047
 20
43.48439064
 30
0.0
 40
0.80000305
 50
270.00021857
 51
359.99978143
  0
ARC
  8
0
  6
CONTINUOUS
 62
       7
  5
194
 10
112.98869553
 20
65.18194865
 30
0.0
 40
5.99545072
 50
84.97841498
 51
106.02626587
  0
ARC
  8
0
  6
CONTINUOUS
 62
       7
  5
195
 10
111.56349618
 20
70.17814445
 30
0.0
 40
0.80002147
 50
106.70882822
 51
180.26905954
  0
ARC
  8
0
  6
CONTINUOUS
 62
       7
  5
196
 10
122.03073742
 20
65.18267782
 30
0.0
 40
5.99406949
 50
73.99446471
 51
94.95045499
  0
ARC
  8
0
  6
CONTINUOUS
 62
       7
  5
197
 10
123.46391198
 20
70.17795873
 30
0.0
 40
0.79726084
 50
62.38347547
 51
74.01370555
  0
CIRCLE
  8
0
  6
CONTINUOUS
 62
       7
  5
198
 10
115.01348353
 20
67.18438758
 30
0.0
 40
0.85000002
  0
CIRCLE
  8
0
  6
CONTINUOUS
 62
       7
  5
199
 10
120.01348353
 20
67.18438758
 30
0.0
 40
0.85000002
  0
TEXT
  8
0
  6
CONTINUOUS
 62
       7
  5
19A
 10
-185.7
 20
114.87433122
 30
0.0
 40
4.5
  1
MODEL:V182E1-PLL
 41
1.06666666
  7
MX_NOTE_STANDARD
 11
-185.7
 21
117.12433122
 31
0.0
 73
       2
  0
LINE
  8
0
  6
CONTINUOUS
 62
       7
  5
19B
 10
-194.25
 20
132.6000061
 30
0.0
 11
194.80000305
 21
132.6000061
 31
0.0
  0
LINE
  8
0
  6
CONTINUOUS
 62
       7
  5
19C
 10
194.80000305
 20
132.6000061
 30
0.0
 11
194.80000305
 21
-133.5
 31
0.0
  0
LINE
  8
0
  6
CONTINUOUS
 62
       7
  5
19D
 10
-194.25
 20
132.6000061
 30
0.0
 11
-194.25
 21
-133.5
 31
0.0
  0
LINE
  8
0
  6
CONTINUOUS
 62
       7
  5
19E
 10
-194.25
 20
-133.5
 30
0.0
 11
194.80000305
 21
-133.5
 31
0.0
  0
ENDSEC
  0
EOF
