  0
SECTION
  2
HEADER
  9
$ACADVER
  1
AC1015
  9
$ACADMAINTVER
 70
    20
  9
$DWGCODEPAGE
  3
ANSI_932
  9
$INSBASE
 10
0.0
 20
0.0
 30
0.0
  9
$EXTMIN
 10
-194.25
 20
-133.5
 30
0.0
  9
$EXTMAX
 10
194.80000305
 20
132.6000061
 30
0.0
  9
$LIMMIN
 10
-194.25
 20
-133.5
  9
$LIMMAX
 10
194.80000305
 20
132.6000061
  9
$ORTHOMODE
 70
     0
  9
$REGENMODE
 70
     1
  9
$FILLMODE
 70
     1
  9
$QTEXTMODE
 70
     0
  9
$MIRRTEXT
 70
     1
  9
$LTSCALE
 40
1.0
  9
$ATTMODE
 70
     1
  9
$TEXTSIZE
 40
3.200000049999999
  9
$TRACEWID
 40
0.05
  9
$TEXTSTYLE
  7
MX_NOTE_STANDARD
  9
$CLAYER
  8
0
  9
$CELTYPE
  6
CONTINUOUS
  9
$CECOLOR
 62
   256
  9
$CELTSCALE
 40
1.0
  9
$DISPSILH
 70
     0
  9
$DIMSCALE
 40
1.0
  9
$DIMASZ
 40
2.5
  9
$DIMEXO
 40
1.5
  9
$DIMDLI
 40
3.75
  9
$DIMRND
 40
0.0
  9
$DIMDLE
 40
0.0
  9
$DIMEXE
 40
1.5
  9
$DIMTP
 40
0.0
  9
$DIMTM
 40
0.0
  9
$DIMTXT
 40
3.200000049999999
  9
$DIMCEN
 40
2.5
  9
$DIMTSZ
 40
0.0
  9
$DIMTOL
 70
     0
  9
$DIMLIM
 70
     0
  9
$DIMTIH
 70
     0
  9
$DIMTOH
 70
     0
  9
$DIMSE1
 70
     0
  9
$DIMSE2
 70
     0
  9
$DIMTAD
 70
     1
  9
$DIMZIN
 70
     8
  9
$DIMBLK
  1

  9
$DIMASO
 70
     1
  9
$DIMSHO
 70
     1
  9
$DIMPOST
  1

  9
$DIMAPOST
  1

  9
$DIMALT
 70
     0
  9
$DIMALTD
 70
     4
  9
$DIMALTF
 40
0.03937008
  9
$DIMLFAC
 40
1.0
  9
$DIMTOFL
 70
     1
  9
$DIMTVP
 40
0.0
  9
$DIMTIX
 70
     0
  9
$DIMSOXD
 70
     0
  9
$DIMSAH
 70
     0
  9
$DIMBLK1
  1

  9
$DIMBLK2
  1

  9
$DIMSTYLE
  2
MXDIMSTYLE
  9
$DIMCLRD
 70
     0
  9
$DIMCLRE
 70
     0
  9
$DIMCLRT
 70
     0
  9
$DIMTFAC
 40
1.0
  9
$DIMGAP
 40
1.0
  9
$DIMJUST
 70
     0
  9
$DIMSD1
 70
     0
  9
$DIMSD2
 70
     0
  9
$DIMTOLJ
 70
     1
  9
$DIMTZIN
 70
     0
  9
$DIMALTZ
 70
     0
  9
$DIMALTTZ
 70
     0
  9
$DIMUPT
 70
     0
  9
$DIMDEC
 70
     4
  9
$DIMTDEC
 70
     4
  9
$DIMALTU
 70
     2
  9
$DIMALTTD
 70
     2
  9
$DIMTXSTY
  7
Standard
  9
$DIMAUNIT
 70
     0
  9
$DIMADEC
 70
     0
  9
$DIMALTRND
 40
0.0
  9
$DIMAZIN
 70
     0
  9
$DIMDSEP
 70
    46
  9
$DIMATFIT
 70
     3
  9
$DIMFRAC
 70
     0
  9
$DIMLDRBLK
  1

  9
$DIMLUNIT
 70
     2
  9
$DIMLWD
 70
    -2
  9
$DIMLWE
 70
    -2
  9
$DIMTMOVE
 70
     0
  9
$LUNITS
 70
     2
  9
$LUPREC
 70
     4
  9
$SKETCHINC
 40
0.1
  9
$FILLETRAD
 40
0.0
  9
$AUNITS
 70
     0
  9
$AUPREC
 70
     0
  9
$MENU
  1
acad
  9
$ELEVATION
 40
0.0
  9
$PELEVATION
 40
0.0
  9
$THICKNESS
 40
0.0
  9
$LIMCHECK
 70
     0
  9
$CHAMFERA
 40
0.0
  9
$CHAMFERB
 40
0.0
  9
$CHAMFERC
 40
0.0
  9
$CHAMFERD
 40
0.0
  9
$SKPOLY
 70
     0
  9
$TDCREATE
 40
2453419.802824074
  9
$TDUCREATE
 40
2453419.427824074
  9
$TDUPDATE
 40
2454407.735342674
  9
$TDUUPDATE
 40
2454407.360342674
  9
$TDINDWG
 40
0.0189620486
  9
$TDUSRTIMER
 40
0.0189188194
  9
$USRTIMER
 70
     1
  9
$ANGBASE
 50
0.0
  9
$ANGDIR
 70
     0
  9
$PDMODE
 70
     0
  9
$PDSIZE
 40
0.0
  9
$PLINEWID
 40
0.0
  9
$SPLFRAME
 70
     0
  9
$SPLINETYPE
 70
     6
  9
$SPLINESEGS
 70
     8
  9
$HANDSEED
  5
242
  9
$SURFTAB1
 70
     6
  9
$SURFTAB2
 70
     6
  9
$SURFTYPE
 70
     6
  9
$SURFU
 70
     6
  9
$SURFV
 70
     6
  9
$UCSBASE
  2

  9
$UCSNAME
  2

  9
$UCSORG
 10
0.0
 20
0.0
 30
0.0
  9
$UCSXDIR
 10
1.0
 20
0.0
 30
0.0
  9
$UCSYDIR
 10
0.0
 20
1.0
 30
0.0
  9
$UCSORTHOREF
  2

  9
$UCSORTHOVIEW
 70
     0
  9
$UCSORGTOP
 10
0.0
 20
0.0
 30
0.0
  9
$UCSORGBOTTOM
 10
0.0
 20
0.0
 30
0.0
  9
$UCSORGLEFT
 10
0.0
 20
0.0
 30
0.0
  9
$UCSORGRIGHT
 10
0.0
 20
0.0
 30
0.0
  9
$UCSORGFRONT
 10
0.0
 20
0.0
 30
0.0
  9
$UCSORGBACK
 10
0.0
 20
0.0
 30
0.0
  9
$PUCSBASE
  2

  9
$PUCSNAME
  2

  9
$PUCSORG
 10
0.0
 20
0.0
 30
0.0
  9
$PUCSXDIR
 10
1.0
 20
0.0
 30
0.0
  9
$PUCSYDIR
 10
0.0
 20
1.0
 30
0.0
  9
$PUCSORTHOREF
  2

  9
$PUCSORTHOVIEW
 70
     0
  9
$PUCSORGTOP
 10
0.0
 20
0.0
 30
0.0
  9
$PUCSORGBOTTOM
 10
0.0
 20
0.0
 30
0.0
  9
$PUCSORGLEFT
 10
0.0
 20
0.0
 30
0.0
  9
$PUCSORGRIGHT
 10
0.0
 20
0.0
 30
0.0
  9
$PUCSORGFRONT
 10
0.0
 20
0.0
 30
0.0
  9
$PUCSORGBACK
 10
0.0
 20
0.0
 30
0.0
  9
$USERI1
 70
     0
  9
$USERI2
 70
     0
  9
$USERI3
 70
     0
  9
$USERI4
 70
     0
  9
$USERI5
 70
     0
  9
$USERR1
 40
0.0
  9
$USERR2
 40
0.0
  9
$USERR3
 40
0.0
  9
$USERR4
 40
0.0
  9
$USERR5
 40
0.0
  9
$WORLDVIEW
 70
     1
  9
$SHADEDGE
 70
     3
  9
$SHADEDIF
 70
    70
  9
$TILEMODE
 70
     1
  9
$MAXACTVP
 70
    16
  9
$PINSBASE
 10
0.0
 20
0.0
 30
0.0
  9
$PLIMCHECK
 70
     0
  9
$PEXTMIN
 10
1.000000000000000E+20
 20
1.000000000000000E+20
 30
1.000000000000000E+20
  9
$PEXTMAX
 10
-1.000000000000000E+20
 20
-1.000000000000000E+20
 30
-1.000000000000000E+20
  9
$PLIMMIN
 10
0.0
 20
0.0
  9
$PLIMMAX
 10
12.0
 20
9.0
  9
$UNITMODE
 70
     0
  9
$VISRETAIN
 70
     0
  9
$PLINEGEN
 70
     1
  9
$PSLTSCALE
 70
     0
  9
$TREEDEPTH
 70
  3020
  9
$CMLSTYLE
  2
Standard
  9
$CMLJUST
 70
     0
  9
$CMLSCALE
 40
1.0
  9
$PROXYGRAPHICS
 70
     1
  9
$MEASUREMENT
 70
     0
  9
$CELWEIGHT
370
    -1
  9
$ENDCAPS
280
     0
  9
$JOINSTYLE
280
     0
  9
$LWDISPLAY
290
     0
  9
$INSUNITS
 70
     0
  9
$HYPERLINKBASE
  1

  9
$STYLESHEET
  1

  9
$XEDIT
290
     1
  9
$CEPSNTYPE
380
     0
  9
$PSTYLEMODE
290
     1
  9
$FINGERPRINTGUID
  2
{901623CB-1E05-41ED-B0C0-D16D8FB01A31}
  9
$VERSIONGUID
  2
{F6C75929-7BD9-4B8B-B84A-403654AB82D6}
  9
$EXTNAMES
290
     1
  9
$PSVPSCALE
 40
0.0
  9
$OLESTARTUP
290
     0
  0
ENDSEC
  0
SECTION
  2
CLASSES
  0
CLASS
  1
ACDBDICTIONARYWDFLT
  2
AcDbDictionaryWithDefault
  3
ObjectDBX Classes
 90
        0
280
     0
281
     0
  0
CLASS
  1
TABLESTYLE
  2
AcDbTableStyle
  3
ObjectDBX Classes
 90
     2047
280
     0
281
     0
  0
CLASS
  1
DICTIONARYVAR
  2
AcDbDictionaryVar
  3
ObjectDBX Classes
 90
        0
280
     0
281
     0
  0
CLASS
  1
SORTENTSTABLE
  2
AcDbSortentsTable
  3
ObjectDBX Classes
 90
        0
280
     0
281
     0
  0
CLASS
  1
ACDBPLACEHOLDER
  2
AcDbPlaceHolder
  3
ObjectDBX Classes
 90
        0
280
     0
281
     0
  0
CLASS
  1
LAYOUT
  2
AcDbLayout
  3
ObjectDBX Classes
 90
        0
280
     0
281
     0
  0
ENDSEC
  0
SECTION
  2
TABLES
  0
TABLE
  2
VPORT
  5
1DD
330
0
100
AcDbSymbolTable
 70
     7
  0
VPORT
  5
23B
330
1DD
100
AcDbSymbolTableRecord
100
AcDbViewportTableRecord
  2
*Active
 70
     0
 10
0.0
 20
0.0
 11
1.0
 21
1.0
 12
-13.87478071536679
 22
-2.155609259391269
 13
0.0
 23
0.0
 14
1.0
 24
1.0
 15
0.0
 25
0.0
 16
0.0
 26
0.0
 36
1.0
 17
0.0
 27
0.0
 37
0.0
 40
378.0997940637684
 41
1.530456852791878
 42
50.0
 43
0.0
 44
0.0
 50
0.0
 51
0.0
 71
     0
 72
   100
 73
     1
 74
     1
 75
     0
 76
     0
 77
     0
 78
     0
281
     0
 65
     0
110
0.0
120
0.0
130
0.0
111
1.0
121
0.0
131
0.0
112
0.0
122
1.0
132
0.0
 79
     0
146
0.0
  0
ENDTAB
  0
TABLE
  2
LTYPE
  5
1DA
330
0
100
AcDbSymbolTable
 70
     4
  0
LTYPE
  5
1E8
330
1DA
100
AcDbSymbolTableRecord
100
AcDbLinetypeTableRecord
  2
ByBlock
 70
     0
  3

 72
    65
 73
     0
 40
0.0
  0
LTYPE
  5
1E9
330
1DA
100
AcDbSymbolTableRecord
100
AcDbLinetypeTableRecord
  2
ByLayer
 70
     0
  3

 72
    65
 73
     0
 40
0.0
  0
LTYPE
  5
1EA
330
1DA
100
AcDbSymbolTableRecord
100
AcDbLinetypeTableRecord
  2
CONTINUOUS
 70
     0
  3
Solid line
 72
    65
 73
     0
 40
0.0
  0
LTYPE
  5
1FD
330
1DA
100
AcDbSymbolTableRecord
100
AcDbLinetypeTableRecord
  2
PHANTOM
 70
     0
  3
Phantom ______  __  __  ______  __  __  ______
 72
    65
 73
     6
 40
30.0
 49
20.0
 74
     0
 49
-2.0
 74
     0
 49
2.0
 74
     0
 49
-2.0
 74
     0
 49
2.0
 74
     0
 49
-2.0
 74
     0
  0
LTYPE
  5
1FE
330
1DA
100
AcDbSymbolTableRecord
100
AcDbLinetypeTableRecord
  2
DASHED
 70
     0
  3
Dashed __ __ __ __ __ __ __ __ __ __ __ __ __ _
 72
    65
 73
     2
 40
4.0
 49
2.0
 74
     0
 49
-2.0
 74
     0
  0
ENDTAB
  0
TABLE
  2
LAYER
  5
1D7
330
0
100
AcDbSymbolTable
 70
     2
  0
LAYER
  5
1E5
330
1D7
100
AcDbSymbolTableRecord
100
AcDbLayerTableRecord
  2
0
 70
     0
 62
     7
  6
CONTINUOUS
370
    -3
390
1E4
  0
LAYER
  5
1FF
330
1D7
100
AcDbSymbolTableRecord
100
AcDbLayerTableRecord
  2
DEFPOINTS
 70
     0
 62
     7
  6
CONTINUOUS
290
     0
370
    -3
390
1E4
  0
ENDTAB
  0
TABLE
  2
STYLE
  5
1D8
330
0
100
AcDbSymbolTable
 70
     2
  0
STYLE
  5
1E6
330
1D8
100
AcDbSymbolTableRecord
100
AcDbTextStyleTableRecord
  2
Standard
 70
     0
 40
0.0
 41
1.0
 50
0.0
 71
     0
 42
0.2
  3
txt
  4

  0
STYLE
  5
1FB
330
1D8
100
AcDbSymbolTableRecord
100
AcDbTextStyleTableRecord
  2
MX_NOTE_STANDARD
 70
     0
 40
0.0
 41
1.0
 50
0.0
 71
     0
 42
3.200000049999999
  3
txt.shx
  4
extfont.shx
  0
ENDTAB
  0
TABLE
  2
VIEW
  5
1DB
330
0
100
AcDbSymbolTable
 70
     0
  0
ENDTAB
  0
TABLE
  2
UCS
  5
1DC
330
0
100
AcDbSymbolTable
 70
     0
  0
ENDTAB
  0
TABLE
  2
APPID
  5
1DE
330
0
100
AcDbSymbolTable
 70
     2
  0
APPID
  5
1E7
330
1DE
100
AcDbSymbolTableRecord
100
AcDbRegAppTableRecord
  2
ACAD
 70
     0
  0
APPID
  5
206
330
1DE
100
AcDbSymbolTableRecord
100
AcDbRegAppTableRecord
  2
ACAD_EXEMPT_FROM_CAD_STANDARDS
 70
     0
  0
ENDTAB
  0
TABLE
  2
DIMSTYLE
  5
1DF
330
0
100
AcDbSymbolTable
 70
     2
100
AcDbDimStyleTable
 71
     1
340
200
  0
DIMSTYLE
105
200
330
1DF
100
AcDbSymbolTableRecord
100
AcDbDimStyleTableRecord
  2
MXDIMSTYLE
 70
     0
 41
2.5
 42
1.5
 43
3.75
 44
1.5
 73
     0
 74
     0
 77
     1
 78
     8
140
3.200000049999999
141
2.5
143
0.03937008
147
1.0
171
     4
172
     1
274
     4
279
     2
284
     8
285
     8
286
     8
340
1FB
  0
ENDTAB
  0
TABLE
  2
BLOCK_RECORD
  5
1D6
330
0
100
AcDbSymbolTable
 70
     5
  0
BLOCK_RECORD
  5
1F7
102
{ACAD_XDICTIONARY
360
21D
102
}
330
1D6
100
AcDbSymbolTableRecord
100
AcDbBlockTableRecord
  2
*Model_Space
340
1FA
  0
BLOCK_RECORD
  5
1F3
330
1D6
100
AcDbSymbolTableRecord
100
AcDbBlockTableRecord
  2
*Paper_Space
340
1F6
  0
BLOCK_RECORD
  5
203
330
1D6
100
AcDbSymbolTableRecord
100
AcDbBlockTableRecord
  2
_OPEN30
340
0
  0
BLOCK_RECORD
  5
210
330
1D6
100
AcDbSymbolTableRecord
100
AcDbBlockTableRecord
  2
A$C5F0D0825
340
0
1001
ACAD
1000
DesignCenter Data
1002
{
1070
     1
1070
     0
1002
}
  0
ENDTAB
  0
ENDSEC
  0
SECTION
  2
BLOCKS
  0
BLOCK
  5
1F8
330
1F7
100
AcDbEntity
  8
0
100
AcDbBlockBegin
  2
*Model_Space
 70
     0
 10
0.0
 20
0.0
 30
0.0
  3
*Model_Space
  1

  0
ENDBLK
  5
1F9
330
1F7
100
AcDbEntity
  8
0
100
AcDbBlockEnd
  0
BLOCK
  5
1F4
330
1F3
100
AcDbEntity
 67
     1
  8
0
100
AcDbBlockBegin
  2
*Paper_Space
 70
     0
 10
0.0
 20
0.0
 30
0.0
  3
*Paper_Space
  1

  0
ENDBLK
  5
1F5
330
1F3
100
AcDbEntity
 67
     1
  8
0
100
AcDbBlockEnd
  0
BLOCK
  5
33
330
203
100
AcDbEntity
  8
0
  6
ByBlock
 62
     0
100
AcDbBlockBegin
  2
_OPEN30
 70
     2
 10
0.0
 20
0.0
 30
0.0
  3
_OPEN30
  1

  0
LINE
  5
34
330
203
100
AcDbEntity
  8
0
  6
ByBlock
 62
     0
100
AcDbLine
 10
-1.0
 20
0.267949
 30
0.0
 11
0.0
 21
0.0
 31
0.0
  0
LINE
  5
35
330
203
100
AcDbEntity
  8
0
  6
ByBlock
 62
     0
100
AcDbLine
 10
0.0
 20
0.0
 30
0.0
 11
-1.0
 21
-0.267949
 31
0.0
  0
LINE
  5
36
330
203
100
AcDbEntity
  8
0
  6
ByBlock
 62
     0
100
AcDbLine
 10
0.0
 20
0.0
 30
0.0
 11
-1.0
 21
0.0
 31
0.0
  0
ENDBLK
  5
37
330
203
100
AcDbEntity
  8
0
  6
ByBlock
 62
     0
100
AcDbBlockEnd
  0
BLOCK
  5
212
330
210
100
AcDbEntity
  8
0
100
AcDbBlockBegin
  2
A$C5F0D0825
 70
     0
 10
0.0
 20
0.0
 30
0.0
  3
A$C5F0D0825
  1

  0
CIRCLE
  5
211
330
210
100
AcDbEntity
  8
0
  6
Continuous
 62
     7
100
AcDbCircle
 10
0.0
 20
0.0
 30
0.0
 40
7.5
  0
ENDBLK
  5
213
330
210
100
AcDbEntity
  8
0
100
AcDbBlockEnd
  0
ENDSEC
  0
SECTION
  2
ENTITIES
  0
TEXT
  5
1E
330
1F7
100
AcDbEntity
  8
0
  6
Continuous
 62
     7
100
AcDbText
 10
-158.77027027
 20
105.3500061
 30
0.0
 40
4.5
  1
-
 41
0.97297297
  7
MX_NOTE_STANDARD
 11
-158.77027027
 21
107.6000061
 31
0.0
100
AcDbText
 73
     2
  0
LINE
  5
1F
330
1F7
100
AcDbEntity
  8
0
  6
Continuous
 62
     7
100
AcDbLine
 10
116.37835543
 20
-8.67956848
 30
0.0
 11
115.92819466
 21
-8.67956848
 31
0.0
  0
LINE
  5
20
330
1F7
100
AcDbEntity
  8
0
  6
Continuous
 62
     7
100
AcDbLine
 10
-31.31733384
 20
-8.67956848
 30
0.0
 11
-31.76749461
 21
-8.67956848
 31
0.0
  0
LINE
  5
21
330
1F7
100
AcDbEntity
  8
0
  6
Continuous
 62
     7
100
AcDbLine
 10
123.38317859
 20
-13.68135483
 30
0.0
 11
123.38317859
 21
-12.48092611
 31
0.0
  0
LINE
  5
22
330
1F7
100
AcDbEntity
  8
0
  6
Continuous
 62
     7
100
AcDbLine
 10
66.38317859
 20
-13.68135483
 30
0.0
 11
66.38317859
 21
-12.48092611
 31
0.0
  0
LINE
  5
23
330
1F7
100
AcDbEntity
  8
0
  6
Continuous
 62
     7
100
AcDbLine
 10
-81.31251068999999
 20
-13.68135483
 30
0.0
 11
-81.31251068999999
 21
-12.48092611
 31
0.0
  0
LINE
  5
24
330
1F7
100
AcDbEntity
  8
0
  6
Continuous
 62
     7
100
AcDbLine
 10
-24.31251069
 20
-13.68135483
 30
0.0
 11
-24.31251069
 21
-12.48092611
 31
0.0
  0
ARC
  5
25
330
1F7
100
AcDbEntity
  8
0
  6
Continuous
 62
     7
100
AcDbCircle
 10
-32.31251069000001
 20
-110.69429924
 30
0.0
 40
8.0
100
AcDbArc
 50
270.0
 51
0.0
  0
ARC
  5
26
330
1F7
100
AcDbEntity
  8
0
  6
Continuous
 62
     7
100
AcDbCircle
 10
-73.31251069
 20
-110.69429924
 30
0.0
 40
8.0
100
AcDbArc
 50
180.0
 51
270.0
  0
ARC
  5
27
330
1F7
100
AcDbEntity
  8
0
  6
Continuous
 62
     7
100
AcDbCircle
 10
-73.31251069
 20
-69.69429924
 30
0.0
 40
8.0
100
AcDbArc
 50
90.0
 51
180.0
  0
ARC
  5
28
330
1F7
100
AcDbEntity
  8
0
  6
Continuous
 62
     7
100
AcDbCircle
 10
-32.31251069000001
 20
-69.69429924
 30
0.0
 40
8.0
100
AcDbArc
 50
0.0
 51
90.0
  0
LINE
  5
29
330
1F7
100
AcDbEntity
  8
0
  6
Continuous
 62
     2
100
AcDbLine
 10
-32.81251069
 20
-116.19429924
 30
0.0
 11
-32.81251069
 21
-104.19429924
 31
0.0
  0
LINE
  5
2A
330
1F7
100
AcDbEntity
  8
0
  6
Continuous
 62
     2
100
AcDbLine
 10
-38.81251069000001
 20
-110.19429924
 30
0.0
 11
-26.81251069
 21
-110.19429924
 31
0.0
  0
CIRCLE
  5
2B
330
1F7
100
AcDbEntity
  8
0
  6
Continuous
 62
     7
100
AcDbCircle
 10
-32.81251069
 20
-110.19429924
 30
0.0
 40
2.751585669999999
  0
LINE
  5
2C
330
1F7
100
AcDbEntity
  8
0
  6
Continuous
 62
     2
100
AcDbLine
 10
-72.81251068999999
 20
-116.19429924
 30
0.0
 11
-72.81251068999999
 21
-104.19429924
 31
0.0
  0
LINE
  5
2D
330
1F7
100
AcDbEntity
  8
0
  6
Continuous
 62
     2
100
AcDbLine
 10
-66.81251068999999
 20
-110.19429924
 30
0.0
 11
-78.81251069
 21
-110.19429924
 31
0.0
  0
CIRCLE
  5
2E
330
1F7
100
AcDbEntity
  8
0
  6
Continuous
 62
     7
100
AcDbCircle
 10
-72.81251068999999
 20
-110.19429924
 30
0.0
 40
2.751585669999999
  0
LINE
  5
2F
330
1F7
100
AcDbEntity
  8
0
  6
Continuous
 62
     2
100
AcDbLine
 10
-72.81251068999999
 20
-64.19429924000001
 30
0.0
 11
-72.81251068999999
 21
-76.19429924000001
 31
0.0
  0
LINE
  5
30
330
1F7
100
AcDbEntity
  8
0
  6
Continuous
 62
     2
100
AcDbLine
 10
-66.81251068999999
 20
-70.19429924
 30
0.0
 11
-78.81251069
 21
-70.19429924
 31
0.0
  0
CIRCLE
  5
31
330
1F7
100
AcDbEntity
  8
0
  6
Continuous
 62
     7
100
AcDbCircle
 10
-72.81251068999999
 20
-70.19429924
 30
0.0
 40
2.751585669999999
  0
LINE
  5
3B
330
1F7
100
AcDbEntity
  8
0
  6
Continuous
 62
     7
100
AcDbLine
 10
-73.31251069
 20
-118.69429924
 30
0.0
 11
-32.31251069000001
 21
-118.69429924
 31
0.0
  0
LINE
  5
3C
330
1F7
100
AcDbEntity
  8
0
  6
Continuous
 62
     7
100
AcDbLine
 10
-73.31251069
 20
-61.69429924
 30
0.0
 11
-32.31251069000001
 21
-61.69429924
 31
0.0
  0
LINE
  5
3D
330
1F7
100
AcDbEntity
  8
0
  6
Continuous
 62
     7
100
AcDbLine
 10
-81.31251068999999
 20
-69.69429924
 30
0.0
 11
-81.31251068999999
 21
-110.69429924
 31
0.0
  0
LINE
  5
3E
330
1F7
100
AcDbEntity
  8
0
  6
Continuous
 62
     7
100
AcDbLine
 10
-24.31251069
 20
-69.69429924
 30
0.0
 11
-24.31251069
 21
-110.69429924
 31
0.0
  0
LINE
  5
3F
330
1F7
100
AcDbEntity
  8
0
  6
Continuous
 62
     2
100
AcDbLine
 10
-87.81251068999999
 20
-90.19429924
 30
0.0
 11
-17.81251069
 21
-90.19429924
 31
0.0
  0
LINE
  5
40
330
1F7
100
AcDbEntity
  8
0
  6
Continuous
 62
     2
100
AcDbLine
 10
-52.81251069
 20
-55.19429924
 30
0.0
 11
-52.81251069
 21
-125.19429924
 31
0.0
  0
LINE
  5
41
330
1F7
100
AcDbEntity
  8
0
  6
Continuous
 62
     2
100
AcDbLine
 10
-32.81251069
 20
-64.19429924000001
 30
0.0
 11
-32.81251069
 21
-76.19429924000001
 31
0.0
  0
LINE
  5
42
330
1F7
100
AcDbEntity
  8
0
  6
Continuous
 62
     2
100
AcDbLine
 10
-38.81251069000001
 20
-70.19429924
 30
0.0
 11
-26.81251069
 21
-70.19429924
 31
0.0
  0
LINE
  5
43
330
1F7
100
AcDbEntity
  8
0
  6
Continuous
 62
     7
100
AcDbLine
 10
-40.23025875
 20
-91.19487593
 30
0.0
 11
-44.97049083999999
 21
-91.19487593
 31
0.0
  0
LINE
  5
44
330
1F7
100
AcDbEntity
  8
0
  6
Continuous
 62
     7
100
AcDbLine
 10
-40.23025875
 20
-89.19372254
 30
0.0
 11
-44.97049083999999
 21
-89.19372254
 31
0.0
  0
LINE
  5
45
330
1F7
100
AcDbEntity
  8
0
  6
Continuous
 62
     7
100
AcDbLine
 10
-45.47077919
 20
-89.69401088999999
 30
0.0
 11
-45.47077919
 21
-90.69458758000001
 31
0.0
  0
LINE
  5
46
330
1F7
100
AcDbEntity
  8
0
  6
Continuous
 62
     7
100
AcDbLine
 10
-44.97049083999999
 20
-89.19372254
 30
0.0
 11
-45.47077919
 21
-89.69401088999999
 31
0.0
  0
LINE
  5
47
330
1F7
100
AcDbEntity
  8
0
  6
Continuous
 62
     7
100
AcDbLine
 10
-44.97049083999999
 20
-91.19487593
 30
0.0
 11
-45.47077919
 21
-90.69458758000001
 31
0.0
  0
LINE
  5
48
330
1F7
100
AcDbEntity
  8
0
  6
Continuous
 62
     7
100
AcDbLine
 10
-51.81193399
 20
-77.59954009000001
 30
0.0
 11
-51.81193399
 21
-82.33977217999999
 31
0.0
  0
LINE
  5
49
330
1F7
100
AcDbEntity
  8
0
  6
Continuous
 62
     7
100
AcDbLine
 10
-51.81193399
 20
-82.33977217999999
 30
0.0
 11
-52.31222234
 21
-82.84006053
 31
0.0
  0
LINE
  5
4A
330
1F7
100
AcDbEntity
  8
0
  6
Continuous
 62
     7
100
AcDbLine
 10
-53.31279904
 20
-82.84006053
 30
0.0
 11
-52.31222234
 21
-82.84006053
 31
0.0
  0
LINE
  5
4B
330
1F7
100
AcDbEntity
  8
0
  6
Continuous
 62
     7
100
AcDbLine
 10
-53.81308738
 20
-82.33977217999999
 30
0.0
 11
-53.31279904
 21
-82.84006053
 31
0.0
  0
LINE
  5
4C
330
1F7
100
AcDbEntity
  8
0
  6
Continuous
 62
     7
100
AcDbLine
 10
-53.81308738
 20
-77.59954009000001
 30
0.0
 11
-53.81308738
 21
-82.33977217999999
 31
0.0
  0
LINE
  5
4D
330
1F7
100
AcDbEntity
  8
0
  6
Continuous
 62
     7
100
AcDbLine
 10
-65.40726983999999
 20
-89.19372254
 30
0.0
 11
-60.66703775
 21
-89.19372254
 31
0.0
  0
LINE
  5
4E
330
1F7
100
AcDbEntity
  8
0
  6
Continuous
 62
     7
100
AcDbLine
 10
-60.66703775
 20
-89.19372254
 30
0.0
 11
-60.16674939999999
 21
-89.69401088999999
 31
0.0
  0
LINE
  5
4F
330
1F7
100
AcDbEntity
  8
0
  6
Continuous
 62
     7
100
AcDbLine
 10
-60.16674939999999
 20
-90.69458758000001
 30
0.0
 11
-60.16674939999999
 21
-89.69401088999999
 31
0.0
  0
LINE
  5
50
330
1F7
100
AcDbEntity
  8
0
  6
Continuous
 62
     7
100
AcDbLine
 10
-60.66703775
 20
-91.19487593
 30
0.0
 11
-60.16674939999999
 21
-90.69458758000001
 31
0.0
  0
LINE
  5
51
330
1F7
100
AcDbEntity
  8
0
  6
Continuous
 62
     7
100
AcDbLine
 10
-65.40726983999999
 20
-91.19487593
 30
0.0
 11
-60.66703775
 21
-91.19487593
 31
0.0
  0
LINE
  5
52
330
1F7
100
AcDbEntity
  8
0
  6
Continuous
 62
     7
100
AcDbLine
 10
-53.81308738
 20
-102.78905839
 30
0.0
 11
-53.81308738
 21
-98.04882628999999
 31
0.0
  0
LINE
  5
53
330
1F7
100
AcDbEntity
  8
0
  6
Continuous
 62
     7
100
AcDbLine
 10
-53.81308738
 20
-98.04882628999999
 30
0.0
 11
-53.31279904
 21
-97.54853795
 31
0.0
  0
LINE
  5
54
330
1F7
100
AcDbEntity
  8
0
  6
Continuous
 62
     7
100
AcDbLine
 10
-52.31222234
 20
-97.54853795
 30
0.0
 11
-53.31279904
 21
-97.54853795
 31
0.0
  0
LINE
  5
55
330
1F7
100
AcDbEntity
  8
0
  6
Continuous
 62
     7
100
AcDbLine
 10
-51.81193399
 20
-98.04882628999999
 30
0.0
 11
-52.31222234
 21
-97.54853795
 31
0.0
  0
LINE
  5
56
330
1F7
100
AcDbEntity
  8
0
  6
Continuous
 62
     7
100
AcDbLine
 10
-51.81193399
 20
-102.78905839
 30
0.0
 11
-51.81193399
 21
-98.04882628999999
 31
0.0
  0
CIRCLE
  5
57
330
1F7
100
AcDbEntity
  8
0
  6
Continuous
 62
     7
100
AcDbCircle
 10
-32.81251069
 20
-70.19429924
 30
0.0
 40
2.751585669999999
  0
CIRCLE
  5
58
330
1F7
100
AcDbEntity
  8
0
  6
Continuous
 62
     7
100
AcDbCircle
 10
-52.81251069
 20
-90.19429924
 30
0.0
 40
19.86144754
  0
CIRCLE
  5
59
330
1F7
100
AcDbEntity
  8
0
  6
Continuous
 62
     7
100
AcDbCircle
 10
-52.81811638
 20
-90.20037421000001
 30
0.0
 40
15.95919857
  0
CIRCLE
  5
5A
330
1F7
100
AcDbEntity
  8
0
  6
Continuous
 62
     7
100
AcDbCircle
 10
-52.81251069
 20
-90.19429924
 30
0.0
 40
18.76081303
  0
CIRCLE
  5
5B
330
1F7
100
AcDbEntity
  8
0
  6
Continuous
 62
     7
100
AcDbCircle
 10
-52.81251069
 20
-90.19429924
 30
0.0
 40
6.35366192
  0
ARC
  5
5C
330
1F7
100
AcDbEntity
  8
0
  6
Continuous
 62
     7
100
AcDbCircle
 10
-52.81797565
 20
-91.70123536
 30
0.0
 40
14.74972258
100
AcDbArc
 50
318.88236606
 51
221.1821562099999
  0
CIRCLE
  5
5D
330
1F7
100
AcDbEntity
  8
0
  6
Continuous
 62
     7
100
AcDbCircle
 10
-46.93056797999999
 20
-102.92211161
 30
0.0
 40
1.25072087
  0
CIRCLE
  5
5E
330
1F7
100
AcDbEntity
  8
0
  6
Continuous
 62
     7
100
AcDbCircle
 10
-58.70566477
 20
-102.92211161
 30
0.0
 40
1.25072087
  0
ARC
  5
5F
330
1F7
100
AcDbEntity
  8
0
  6
Continuous
 62
     7
100
AcDbCircle
 10
-52.79773162
 20
-90.1909747
 30
0.0
 40
13.74963201
100
AcDbArc
 50
289.65777843
 51
299.76857533
  0
ARC
  5
60
330
1F7
100
AcDbEntity
  8
0
  6
Continuous
 62
     7
100
AcDbCircle
 10
-52.81922189
 20
-90.19065032
 30
0.0
 40
13.75498327
100
AcDbArc
 50
140.48838247
 51
232.56765729
  0
ARC
  5
61
330
1F7
100
AcDbEntity
  8
0
  6
Continuous
 62
     7
100
AcDbCircle
 10
-40.22020568
 20
-88.20101312
 30
0.0
 40
0.9927603299999999
100
AcDbArc
 50
269.41979142
 51
9.886911749999999
  0
ARC
  5
62
330
1F7
100
AcDbEntity
  8
0
  6
Continuous
 62
     7
100
AcDbCircle
 10
-40.22624312
 20
-92.19271392999999
 30
0.0
 40
0.99784608
100
AcDbArc
 50
350.4627211500001
 51
90.23057568
  0
ARC
  5
63
330
1F7
100
AcDbEntity
  8
0
  6
Continuous
 62
     7
100
AcDbCircle
 10
-54.81792602
 20
-77.60484744999999
 30
0.0
 40
1.004852649999999
100
AcDbArc
 50
0.3026227
 51
37.96466372
  0
ARC
  5
64
330
1F7
100
AcDbEntity
  8
0
  6
Continuous
 62
     7
100
AcDbCircle
 10
-50.81710235
 20
-77.60137564
 30
0.0
 40
0.9948333399999999
100
AcDbArc
 50
141.83842947
 51
179.89428412
  0
ARC
  5
65
330
1F7
100
AcDbEntity
  8
0
  6
Continuous
 62
     7
100
AcDbCircle
 10
-65.41053393999999
 20
-92.19335233
 30
0.0
 40
0.9984817299999999
100
AcDbArc
 50
89.81269632
 51
189.49400685
  0
ARC
  5
66
330
1F7
100
AcDbEntity
  8
0
  6
Continuous
 62
     7
100
AcDbCircle
 10
-65.41656518
 20
-88.20036945
 30
0.0
 40
0.9933965799999999
100
AcDbArc
 50
170.15716518
 51
270.53613165
  0
ARC
  5
67
330
1F7
100
AcDbEntity
  8
0
  6
Continuous
 62
     7
100
AcDbCircle
 10
-50.81962888
 20
-102.79750372
 30
0.0
 40
0.9923410499999999
100
AcDbArc
 50
179.5123776
 51
279.18253622
  0
ARC
  5
68
330
1F7
100
AcDbEntity
  8
0
  6
Continuous
 62
     7
100
AcDbCircle
 10
-54.81112723999999
 20
-102.79283639
 30
0.0
 40
0.9980469999999998
100
AcDbArc
 50
260.47640903
 51
0.2168877999999999
  0
ARC
  5
69
330
1F7
100
AcDbEntity
  8
0
  6
Continuous
 62
     7
100
AcDbCircle
 10
-52.83956798
 20
-90.19047714
 30
0.0
 40
13.7501776
100
AcDbArc
 50
240.23162579
 51
250.34202045
  0
ARC
  5
6A
330
1F7
100
AcDbEntity
  8
0
  6
Continuous
 62
     7
100
AcDbCircle
 10
-52.81032943
 20
-90.20034409
 30
0.0
 40
13.74864486
100
AcDbArc
 50
255.55693807
 51
284.85526001
  0
ARC
  5
6B
330
1F7
100
AcDbEntity
  8
0
  6
Continuous
 62
     7
100
AcDbCircle
 10
-52.81701812
 20
-90.19079778
 30
0.0
 40
13.75408298
100
AcDbArc
 50
307.42845359
 51
39.51550665
  0
LWPOLYLINE
  5
6C
330
1F7
100
AcDbEntity
  8
0
  6
Continuous
 62
     7
100
AcDbPolyline
 90
       97
 70
     0
 43
0.0
 10
-41.69256768
 20
-101.403206
 10
-41.77320935
 20
-101.43507123
 10
-41.85492675999999
 20
-101.46564912
 10
-41.93759929
 20
-101.49476974
 10
-42.02110634
 20
-101.52226317
 10
-42.10532728999999
 20
-101.54795947
 10
-42.19014152999999
 20
-101.57168873
 10
-42.27542845
 20
-101.59328101
 10
-42.36106743999999
 20
-101.61256638
 10
-42.44693789999999
 20
-101.62937492
 10
-42.5329192
 20
-101.64353671
 10
-42.61889075
 20
-101.65488181
 10
-42.70473191999999
 20
-101.6632403
 10
-42.79032210999999
 20
-101.66844225
 10
-42.87554071999999
 20
-101.67031774
 10
-42.96026711999999
 20
-101.66869683
 10
-43.0443807
 20
-101.6634096
 10
-43.19099023999999
 20
-101.64501232
 10
-43.33562026
 20
-101.6158644
 10
-43.47848162
 20
-101.57707547
 10
-43.61978515999999
 20
-101.52975511
 10
-43.75974172
 20
-101.47501293
 10
-43.89856214
 20
-101.41395853
 10
-44.03645725999999
 20
-101.34770151
 10
-44.17363791999999
 20
-101.27735146
 10
-44.31031497
 20
-101.204018
 10
-44.44669925
 20
-101.12881073
 10
-44.5830016
 20
-101.05283923
 10
-44.71943286
 20
-100.97721312
 10
-44.85620386999999
 20
-100.903042
 10
-44.99352548
 20
-100.83143546
 10
-45.13160853
 20
-100.7635031
 10
-45.27066385
 20
-100.70035454
 10
-45.37596459
 20
-100.65657957
 10
-45.48195653999999
 20
-100.61608747
 10
-45.58869913
 20
-100.5789118
 10
-45.69625177999999
 20
-100.5450861
 10
-45.80467394
 20
-100.51464393
 10
-45.91402503
 20
-100.48761884
 10
-46.02436448
 20
-100.46404438
 10
-46.13575173
 20
-100.4439541
 10
-46.2482462
 20
-100.42738156
 10
-46.36190732
 20
-100.41436031
 10
-46.47679453
 20
-100.40492389
 10
-46.59296724999999
 20
-100.39910587
 10
-46.71048491999999
 20
-100.39693979
 10
-46.82940696
 20
-100.39845921
 10
-46.94979281
 20
-100.40369767
 10
-47.07170189999999
 20
-100.41268874
 10
-47.25308538
 20
-100.43248934
 10
-47.43650061
 20
-100.45999904
 10
-47.62055102
 20
-100.49523359
 10
-47.80384003
 20
-100.53820874
 10
-47.98497106
 20
-100.58894023
 10
-48.16254752999999
 20
-100.64744382
 10
-48.33517287
 20
-100.71373525
 10
-48.50145049
 20
-100.78783027
 10
-48.65998382
 20
-100.86974464
 10
-48.80937627
 20
-100.95949409
 10
-48.94823128
 20
-101.05709438
 10
-49.07515226000001
 20
-101.16256126
 10
-49.18874264
 20
-101.27591047
 10
-49.28760582999999
 20
-101.39715777
 10
-49.37034526
 20
-101.52631889
 10
-49.43556434
 20
-101.6634096
 10
-49.46943599
 20
-101.76120452
 10
-49.4952358
 20
-101.86251916
 10
-49.51348
 20
-101.96704361
 10
-49.52468484
 20
-102.07446799
 10
-49.52936655
 20
-102.18448241
 10
-49.5280414
 20
-102.29677698
 10
-49.52122561
 20
-102.41104181
 10
-49.50943543000001
 20
-102.52696701
 10
-49.4931871
 20
-102.64424268
 10
-49.47299686
 20
-102.76255893
 10
-49.44938097
 20
-102.88160588
 10
-49.42285565
 20
-103.00107364
 10
-49.39393716
 20
-103.1206523
 10
-49.36314173
 20
-103.24003199
 10
-49.33098561
 20
-103.35890281
 10
-49.29798505
 20
-103.47695486
 10
-49.25751186
 20
-103.61846415
 10
-49.21654196
 20
-103.75837509
 10
-49.1749675
 20
-103.89672112
 10
-49.13268062
 20
-104.03353571
 10
-49.08957345000001
 20
-104.1688523
 10
-49.04553814999999
 20
-104.30270435
 10
-49.00046685
 20
-104.43512529
 10
-48.95425169
 20
-104.5661486
 10
-48.90678483
 20
-104.6958077
 10
-48.85795839
 20
-104.82413607
 10
-48.80766452999999
 20
-104.95116714
 10
-48.75579538
 20
-105.07693437
 10
-48.70224309000001
 20
-105.2014712
 10
-48.64689979999999
 20
-105.3248111
 10
-48.58965765
 20
-105.4469875
 10
-48.53040878
 20
-105.56803387
  0
LWPOLYLINE
  5
6D
330
1F7
100
AcDbEntity
  8
0
  6
Continuous
 62
     7
100
AcDbPolyline
 90
       97
 70
     0
 43
0.0
 10
-63.94496091
 20
-101.403206
 10
-63.86431924
 20
-101.43507123
 10
-63.78260183
 20
-101.46564912
 10
-63.69992929999999
 20
-101.49476974
 10
-63.61642225
 20
-101.52226317
 10
-63.53220129999999
 20
-101.54795947
 10
-63.44738706
 20
-101.57168873
 10
-63.36210014
 20
-101.59328101
 10
-63.27646115
 20
-101.61256638
 10
-63.19059069
 20
-101.62937492
 10
-63.10460939
 20
-101.64353671
 10
-63.01863784
 20
-101.65488181
 10
-62.93279667
 20
-101.6632403
 10
-62.84720647
 20
-101.66844225
 10
-62.76198787
 20
-101.67031774
 10
-62.67726147
 20
-101.66869683
 10
-62.59314788
 20
-101.6634096
 10
-62.44653835
 20
-101.64501232
 10
-62.30190833
 20
-101.6158644
 10
-62.15904695999999
 20
-101.57707547
 10
-62.01774343
 20
-101.52975511
 10
-61.87778687
 20
-101.47501293
 10
-61.73896645
 20
-101.41395853
 10
-61.60107133
 20
-101.34770151
 10
-61.46389066
 20
-101.27735146
 10
-61.32721361
 20
-101.204018
 10
-61.19082933
 20
-101.12881073
 10
-61.05452699
 20
-101.05283923
 10
-60.91809572999999
 20
-100.97721312
 10
-60.78132470999999
 20
-100.903042
 10
-60.64400310999999
 20
-100.83143546
 10
-60.50592006
 20
-100.7635031
 10
-60.36686473999999
 20
-100.70035454
 10
-60.261564
 20
-100.65657957
 10
-60.15557205
 20
-100.61608747
 10
-60.04882946
 20
-100.5789118
 10
-59.94127679999999
 20
-100.5450861
 10
-59.83285465
 20
-100.51464393
 10
-59.72350355999999
 20
-100.48761884
 10
-59.61316410000001
 20
-100.46404438
 10
-59.50177685999999
 20
-100.4439541
 10
-59.38928238999999
 20
-100.42738156
 10
-59.27562127
 20
-100.41436031
 10
-59.16073406
 20
-100.40492389
 10
-59.04456134
 20
-100.39910587
 10
-58.92704367
 20
-100.39693979
 10
-58.80812163
 20
-100.39845921
 10
-58.68773577999999
 20
-100.40369767
 10
-58.56582669
 20
-100.41268874
 10
-58.38444321
 20
-100.43248934
 10
-58.20102798
 20
-100.45999904
 10
-58.01697757
 20
-100.49523359
 10
-57.83368856
 20
-100.53820874
 10
-57.65255753
 20
-100.58894023
 10
-57.47498106
 20
-100.64744382
 10
-57.30235572
 20
-100.71373525
 10
-57.1360781
 20
-100.78783027
 10
-56.97754477
 20
-100.86974464
 10
-56.82815231
 20
-100.95949409
 10
-56.6892973
 20
-101.05709438
 10
-56.56237631999999
 20
-101.16256126
 10
-56.44878595
 20
-101.27591047
 10
-56.34992276
 20
-101.39715777
 10
-56.26718333
 20
-101.52631889
 10
-56.20196424
 20
-101.6634096
 10
-56.16809259
 20
-101.76120452
 10
-56.14229278999999
 20
-101.86251916
 10
-56.12404859
 20
-101.96704361
 10
-56.11284375
 20
-102.07446799
 10
-56.10816203
 20
-102.18448241
 10
-56.10948719
 20
-102.29677698
 10
-56.11630298
 20
-102.41104181
 10
-56.12809315999999
 20
-102.52696701
 10
-56.14434149
 20
-102.64424268
 10
-56.16453173
 20
-102.76255893
 10
-56.18814762
 20
-102.88160588
 10
-56.21467294
 20
-103.00107364
 10
-56.24359143
 20
-103.1206523
 10
-56.27438686
 20
-103.24003199
 10
-56.30654297
 20
-103.35890281
 10
-56.33954354
 20
-103.47695486
 10
-56.38001675
 20
-103.61846423
 10
-56.42098666999999
 20
-103.75837524
 10
-56.46256114999999
 20
-103.89672135
 10
-56.50484806
 20
-104.03353601
 10
-56.54795525
 20
-104.16885267
 10
-56.59199059
 20
-104.30270479
 10
-56.63706191
 20
-104.4351258
 10
-56.6832771
 20
-104.56614917
 10
-56.73074399999999
 20
-104.69580835
 10
-56.77957047
 20
-104.82413678
 10
-56.82986436
 20
-104.95116791
 10
-56.88173354999999
 20
-105.0769352
 10
-56.93528588
 20
-105.2014721
 10
-56.99062922
 20
-105.32481206
 10
-57.04787141
 20
-105.44698852
 10
-57.10712033
 20
-105.56803494
  0
LINE
  5
6E
330
1F7
100
AcDbEntity
  8
0
  6
Continuous
 62
     2
100
AcDbLine
 10
-3.211998059999999
 20
93.72265905
 30
0.0
 11
-56.29737913999999
 21
40.63727797
 31
0.0
  0
LINE
  5
6F
330
1F7
100
AcDbEntity
  8
0
  6
Continuous
 62
     7
100
AcDbLine
 10
-34.06831633
 20
34.31864517000001
 30
0.0
 11
-71.56920951
 21
34.31864517000001
 31
0.0
  0
LINE
  5
70
330
1F7
100
AcDbEntity
  8
0
  6
Continuous
 62
     7
100
AcDbLine
 10
-33.06795906
 20
33.31828789999999
 30
0.0
 11
-33.06795906
 21
23.31471519
 31
0.0
  0
LINE
  5
71
330
1F7
100
AcDbEntity
  8
0
  6
Continuous
 62
     2
100
AcDbLine
 10
-25.44184077
 20
11.81864517
 30
0.0
 11
-80.18318061
 21
11.81864517
 31
0.0
  0
LINE
  5
72
330
1F7
100
AcDbEntity
  8
0
  6
Continuous
 62
     7
100
AcDbLine
 10
-31.76749461
 20
0.32364695
 30
0.0
 11
-73.87003122999999
 21
0.32364695
 31
0.0
  0
LINE
  5
73
330
1F7
100
AcDbEntity
  8
0
  6
Continuous
 62
     2
100
AcDbLine
 10
-27.91611912
 20
-5.178318029999999
 30
0.0
 11
-32.58028489
 21
-5.178318029999999
 31
0.0
  0
LINE
  5
74
330
1F7
100
AcDbEntity
  8
0
  6
Continuous
 62
     7
100
AcDbLine
 10
-31.81251069
 20
23.31471519
 30
0.0
 11
-73.81251069
 21
23.31471519
 31
0.0
  0
LINE
  5
75
330
1F7
100
AcDbEntity
  8
0
  6
Continuous
 62
     7
100
AcDbLine
 10
-33.06795906
 20
33.31828789999999
 30
0.0
 11
-34.06831633
 21
34.31864517000001
 31
0.0
  0
LINE
  5
76
330
1F7
100
AcDbEntity
  8
0
  6
Continuous
 62
     7
100
AcDbLine
 10
-72.56956678
 20
33.31828789999999
 30
0.0
 11
-71.56920951
 21
34.31864517000001
 31
0.0
  0
LINE
  5
77
330
1F7
100
AcDbEntity
  8
0
  6
Continuous
 62
     7
100
AcDbLine
 10
-72.56956678
 20
33.31828789999999
 30
0.0
 11
-72.56956678
 21
23.31471519
 31
0.0
  0
LINE
  5
78
330
1F7
100
AcDbEntity
  8
0
  6
Continuous
 62
     2
100
AcDbLine
 10
-77.72140672
 20
-5.178318029999999
 30
0.0
 11
-73.10725881
 21
-5.178318029999999
 31
0.0
  0
LINE
  5
79
330
1F7
100
AcDbEntity
  8
0
  6
Continuous
 62
     7
100
AcDbLine
 10
-31.76749461
 20
0.32364695
 30
0.0
 11
-31.76749461
 21
-10.48021157
 31
0.0
  0
LINE
  5
7A
330
1F7
100
AcDbEntity
  8
0
  6
Continuous
 62
     7
100
AcDbLine
 10
-24.31251069
 20
-13.68135483
 30
0.0
 11
-81.31251068999999
 21
-13.68135483
 31
0.0
  0
LINE
  5
7B
330
1F7
100
AcDbEntity
  8
0
  6
Continuous
 62
     7
100
AcDbLine
 10
-24.31251069
 20
-12.48092611
 30
0.0
 11
-81.31251068999999
 21
-12.48092611
 31
0.0
  0
LINE
  5
7C
330
1F7
100
AcDbEntity
  8
0
  6
Continuous
 62
     2
100
AcDbLine
 10
-31.81751248
 20
28.81668018
 30
0.0
 11
-35.68702412
 21
28.81668018
 31
0.0
  0
LINE
  5
7D
330
1F7
100
AcDbEntity
  8
0
  6
Continuous
 62
     2
100
AcDbLine
 10
-73.82001337
 20
28.81668018
 30
0.0
 11
-70.30625845999999
 21
28.81668018
 31
0.0
  0
LINE
  5
7E
330
1F7
100
AcDbEntity
  8
0
  6
Continuous
 62
     7
100
AcDbLine
 10
-73.87003122999999
 20
0.32364695
 30
0.0
 11
-73.87003122999999
 21
-10.48021157
 31
0.0
  0
LINE
  5
7F
330
1F7
100
AcDbEntity
  8
0
  6
Continuous
 62
     7
100
AcDbLine
 10
-33.06795906
 20
33.31828789999999
 30
0.0
 11
-72.56956678
 21
33.31828789999999
 31
0.0
  0
LINE
  5
80
330
1F7
100
AcDbEntity
  8
0
  6
Continuous
 62
     7
100
AcDbLine
 10
-74.320192
 20
-1.67706759
 30
0.0
 11
-74.320192
 21
-8.67956848
 31
0.0
  0
LINE
  5
81
330
1F7
100
AcDbEntity
  8
0
  6
Continuous
 62
     7
100
AcDbLine
 10
-76.92112091
 20
-4.277996489999999
 30
0.0
 11
-76.92112091
 21
-6.078639579999999
 31
0.0
  0
LINE
  5
82
330
1F7
100
AcDbEntity
  8
0
  6
Continuous
 62
     7
100
AcDbLine
 10
-74.320192
 20
-1.67706759
 30
0.0
 11
-73.87003122999999
 21
-1.67706759
 31
0.0
  0
LINE
  5
83
330
1F7
100
AcDbEntity
  8
0
  6
Continuous
 62
     7
100
AcDbLine
 10
-74.320192
 20
-8.67956848
 30
0.0
 11
-73.87003122999999
 21
-8.67956848
 31
0.0
  0
LINE
  5
84
330
1F7
100
AcDbEntity
  8
0
  6
Continuous
 62
     2
100
AcDbLine
 10
-48.68603695
 20
-5.178318029999999
 30
0.0
 11
-56.93898443
 21
-5.178318029999999
 31
0.0
  0
LINE
  5
85
330
1F7
100
AcDbEntity
  8
0
  6
Continuous
 62
     7
100
AcDbLine
 10
-53.94684711
 20
-6.30671552
 30
0.0
 11
-51.67817427
 21
-4.04992055
 31
0.0
  0
LINE
  5
86
330
1F7
100
AcDbEntity
  8
0
  6
Continuous
 62
     7
100
AcDbLine
 10
-53.94388154
 20
-4.04694718
 30
0.0
 11
-51.68113984
 21
-6.30968888
 31
0.0
  0
LINE
  5
87
330
1F7
100
AcDbEntity
  8
0
  6
Continuous
 62
     7
100
AcDbLine
 10
-31.31733384
 20
-1.67706759
 30
0.0
 11
-31.31733384
 21
-8.67956848
 31
0.0
  0
LINE
  5
88
330
1F7
100
AcDbEntity
  8
0
  6
Continuous
 62
     7
100
AcDbLine
 10
-31.31733384
 20
-1.67706759
 30
0.0
 11
-31.76749461
 21
-1.67706759
 31
0.0
  0
LINE
  5
89
330
1F7
100
AcDbEntity
  8
0
  6
Continuous
 62
     7
100
AcDbLine
 10
-28.71640494
 20
-4.277996489999999
 30
0.0
 11
-28.71640494
 21
-6.078639579999999
 31
0.0
  0
LINE
  5
8A
330
1F7
100
AcDbEntity
  8
0
  6
Continuous
 62
     2
100
AcDbLine
 10
-49.63250952
 20
28.81668018
 30
0.0
 11
-56.03515376
 21
28.81668018
 31
0.0
  0
ARC
  5
8B
330
1F7
100
AcDbEntity
  8
0
  6
Continuous
 62
     7
100
AcDbCircle
 10
-29.75844718
 20
-10.47187868
 30
0.0
 40
2.00906471
100
AcDbArc
 50
180.23764326
 51
269.76235674
  0
ARC
  5
8C
330
1F7
100
AcDbEntity
  8
0
  6
Continuous
 62
     7
100
AcDbCircle
 10
-75.87844577
 20
-10.47251157
 30
0.0
 40
2.008429299999999
100
AcDbArc
 50
270.21966347
 51
359.78033653
  0
ARC
  5
8D
330
1F7
100
AcDbEntity
  8
0
  6
Continuous
 62
     7
100
AcDbCircle
 10
-74.31958086
 20
-6.078028429999999
 30
0.0
 40
2.60154012
100
AcDbArc
 50
180.01345977
 51
269.98654023
  0
ARC
  5
8E
330
1F7
100
AcDbEntity
  8
0
  6
Continuous
 62
     7
100
AcDbCircle
 10
-74.32937986
 20
-4.268808629999999
 30
0.0
 40
2.59175733
100
AcDbArc
 50
89.79688427000001
 51
180.20311573
  0
CIRCLE
  5
8F
330
1F7
100
AcDbEntity
  8
0
  6
Continuous
 62
     7
100
AcDbCircle
 10
-52.81251069
 20
-5.178318029999999
 30
0.0
 40
3.50124949
  0
ARC
  5
90
330
1F7
100
AcDbEntity
  8
0
  6
Continuous
 62
     7
100
AcDbCircle
 10
-31.31729483
 20
-6.078678589999999
 30
0.0
 40
2.600889889999999
100
AcDbArc
 50
269.99914058
 51
0.00085942
  0
ARC
  5
91
330
1F7
100
AcDbEntity
  8
0
  6
Continuous
 62
     7
100
AcDbCircle
 10
-31.30749337
 20
-4.26815602
 30
0.0
 40
2.59110712
100
AcDbArc
 50
359.78240229
 51
90.21759770999999
  0
CIRCLE
  5
92
330
1F7
100
AcDbEntity
  8
0
  6
Continuous
 62
     2
100
AcDbCircle
 10
-52.81811515
 20
28.8264783
 30
0.0
 40
2.00071383
  0
CIRCLE
  5
93
330
1F7
100
AcDbEntity
  8
0
  6
Continuous
 62
     7
100
AcDbCircle
 10
-52.81811515
 20
28.8264783
 30
0.0
 40
1.50053567
  0
LINE
  5
94
330
1F7
100
AcDbEntity
  8
0
  6
Continuous
 62
     2
100
AcDbLine
 10
-37.25934543000001
 20
44.12214642
 30
0.0
 11
-69.35276037
 21
44.12214642
 31
0.0
  0
ARC
  5
95
330
1F7
100
AcDbEntity
  8
0
  6
Continuous
 62
     7
100
AcDbCircle
 10
-52.81251069
 20
44.12214642
 30
0.0
 40
13.00464452
100
AcDbArc
 50
349.47454063
 51
190.52545937
  0
LINE
  5
96
330
1F7
100
AcDbEntity
  8
0
  6
Continuous
 62
     7
100
AcDbLine
 10
-41.40678073
 20
34.31864517000001
 30
0.0
 11
-40.02668448
 21
41.74655657999999
 31
0.0
  0
LINE
  5
97
330
1F7
100
AcDbEntity
  8
0
  6
Continuous
 62
     7
100
AcDbLine
 10
-64.21824064
 20
34.31864517000001
 30
0.0
 11
-65.59833689999999
 21
41.74655657999999
 31
0.0
  0
LINE
  5
98
330
1F7
100
AcDbEntity
  8
0
  6
Continuous
 62
     7
100
AcDbLine
 10
-24.51813431
 20
61.09877225
 30
0.0
 11
-35.83588486
 21
72.4165228
 31
0.0
  0
LINE
  5
99
330
1F7
100
AcDbEntity
  8
0
  6
Continuous
 62
     7
100
AcDbLine
 10
-26.64021254
 20
63.22085048
 30
0.0
 11
-36.30960149
 21
53.55146151999999
 31
0.0
  0
LINE
  5
9A
330
1F7
100
AcDbEntity
  8
0
  6
Continuous
 62
     7
100
AcDbLine
 10
-33.71380663
 20
70.29444457
 30
0.0
 11
-43.38319559
 21
60.62505562
 31
0.0
  0
ARC
  5
9B
330
1F7
100
AcDbEntity
  8
0
  6
Continuous
 62
     7
100
AcDbCircle
 10
-51.8715085
 20
69.11336853
 30
0.0
 40
12.00428725
100
AcDbArc
 50
267.84364304
 51
315.0
  0
ARC
  5
9C
330
1F7
100
AcDbEntity
  8
0
  6
Continuous
 62
     7
100
AcDbCircle
 10
-27.82128858
 20
45.06314860999999
 30
0.0
 40
12.00428725
100
AcDbArc
 50
135.0
 51
182.15635696
  0
LINE
  5
9D
330
1F7
100
AcDbEntity
  8
0
  6
Continuous
 62
     2
100
AcDbLine
 10
-93.00828976
 20
101.52766818
 30
0.0
 11
-49.78199832
 21
39.79412622
 31
0.0
  0
LINE
  5
9F
330
1F7
100
AcDbEntity
  8
0
  6
PHANTOM
 62
     2
100
AcDbLine
 10
-67.07629063999999
 20
73.21328370999999
 30
0.0
 11
-59.2328732
 21
62.01172273
 31
0.0
  0
LINE
  5
A0
330
1F7
100
AcDbEntity
  8
0
  6
PHANTOM
 62
     2
100
AcDbLine
 10
-75.27073767
 20
67.47547013000001
 30
0.0
 11
-67.42732023000001
 21
56.27390915
 31
0.0
  0
LINE
  5
A1
330
1F7
100
AcDbEntity
  8
0
  6
PHANTOM
 62
     2
100
AcDbLine
 10
-64.61795653
 20
74.93462778
 30
0.0
 11
-77.72907178
 21
65.75412605
 31
0.0
  0
ARC
  5
A2
330
1F7
100
AcDbEntity
  8
0
  6
PHANTOM
 62
     2
100
AcDbCircle
 10
-77.26065667
 20
49.38853285
 30
0.0
 40
12.00428725
100
AcDbArc
 50
347.84364304
 51
35.0
  0
ARC
  5
A3
330
1F7
100
AcDbEntity
  8
0
  6
PHANTOM
 62
     2
100
AcDbCircle
 10
-49.39953676
 20
68.89709903
 30
0.0
 40
12.00428725
100
AcDbArc
 50
215.0
 51
262.15635696
  0
ARC
  5
A4
330
1F7
100
AcDbEntity
  8
0
  6
PHANTOM
 62
     2
100
AcDbCircle
 10
-79.78023453
 20
82.63604747
 30
0.0
 40
17.0060736
100
AcDbArc
 50
333.07248694
 51
276.92751306
  0
ARC
  5
A5
330
1F7
100
AcDbEntity
  8
0
  6
Continuous
 62
     7
100
AcDbCircle
 10
-19.56661844
 20
77.36803867
 30
0.0
 40
17.0060736
100
AcDbArc
 50
253.07248694
 51
196.92751306
  0
LINE
  5
A6
330
1F7
100
AcDbEntity
  8
0
  6
Continuous
 62
     7
100
AcDbLine
 10
-38.7970463
 20
48.82198691
 30
0.0
 11
-37.46566465
 21
51.5115696
 31
0.0
  0
LINE
  5
A7
330
1F7
100
AcDbEntity
  8
0
  6
Continuous
 62
     7
100
AcDbLine
 10
-38.7970463
 20
48.82198694
 30
0.0
 11
-39.16092970000001
 21
49.00211439999999
 31
0.0
  0
LINE
  5
A8
330
1F7
100
AcDbEntity
  8
0
  6
Continuous
 62
     7
100
AcDbLine
 10
-37.46566464
 20
51.51156961
 30
0.0
 11
-37.82954805
 21
51.69169706
 31
0.0
  0
LINE
  5
A9
330
1F7
100
AcDbEntity
  8
0
  6
PHANTOM
 62
     2
100
AcDbLine
 10
-55.00719022
 20
58.74080316
 30
0.0
 11
-55.24776883
 21
58.41372676999999
 31
0.0
  0
LINE
  5
AA
330
1F7
100
AcDbEntity
  8
0
  6
PHANTOM
 62
     2
100
AcDbLine
 10
-57.42472009
 20
60.51899926
 30
0.0
 11
-57.66529869
 21
60.19192287
 31
0.0
  0
LINE
  5
AB
330
1F7
100
AcDbEntity
  8
0
  6
PHANTOM
 62
     2
100
AcDbLine
 10
-55.0071902
 20
58.74080315
 30
0.0
 11
-57.42472008
 21
60.51899925
 31
0.0
  0
CIRCLE
  5
AC
330
1F7
100
AcDbEntity
  8
0
  6
Continuous
 62
     7
100
AcDbCircle
 10
-52.81251069
 20
44.12214642
 30
0.0
 40
3.00107181
  0
CIRCLE
  5
AE
330
1F7
100
AcDbEntity
  8
0
  6
DASHED
 62
     2
100
AcDbCircle
 10
-52.81251069
 20
44.12214642
 30
0.0
 40
4.00142908
  0
LINE
  5
AF
330
1F7
100
AcDbEntity
  8
0
  6
Continuous
 62
     7
100
AcDbLine
 10
83.47744863
 20
34.31864517000001
 30
0.0
 11
82.09735237
 21
41.74655657999999
 31
0.0
  0
LINE
  5
B0
330
1F7
100
AcDbEntity
  8
0
  6
Continuous
 62
     7
100
AcDbLine
 10
106.28890854
 20
34.31864517000001
 30
0.0
 11
107.6690048
 21
41.74655657999999
 31
0.0
  0
ARC
  5
B1
330
1F7
100
AcDbEntity
  8
0
  6
Continuous
 62
     7
100
AcDbCircle
 10
94.88317859
 20
44.12214642
 30
0.0
 40
13.00464452
100
AcDbArc
 50
349.47454063
 51
71.62276637000001
  0
LINE
  5
B2
330
1F7
100
AcDbEntity
  8
0
  6
Continuous
 62
     2
100
AcDbLine
 10
111.911369
 20
44.12214642
 30
0.0
 11
77.80911567
 21
44.12214642
 31
0.0
  0
CIRCLE
  5
B3
330
1F7
100
AcDbEntity
  8
0
  6
Continuous
 62
     7
100
AcDbCircle
 10
94.88317859
 20
28.81668018
 30
0.0
 40
1.50053567
  0
CIRCLE
  5
B4
330
1F7
100
AcDbEntity
  8
0
  6
Continuous
 62
     2
100
AcDbCircle
 10
94.88317859
 20
28.81668018
 30
0.0
 40
2.00071383
  0
LINE
  5
B5
330
1F7
100
AcDbEntity
  8
0
  6
Continuous
 62
     2
100
AcDbLine
 10
97.32154943000001
 20
28.81668018
 30
0.0
 11
92.44480774000001
 21
28.81668018
 31
0.0
  0
LINE
  5
B6
330
1F7
100
AcDbEntity
  8
0
  6
Continuous
 62
     7
100
AcDbLine
 10
114.62773021
 20
33.31828789999999
 30
0.0
 11
75.12612249
 21
33.31828789999999
 31
0.0
  0
LINE
  5
B7
330
1F7
100
AcDbEntity
  8
0
  6
Continuous
 62
     2
100
AcDbLine
 10
73.87567590999999
 20
28.81668018
 30
0.0
 11
77.38943082
 21
28.81668018
 31
0.0
  0
LINE
  5
B8
330
1F7
100
AcDbEntity
  8
0
  6
Continuous
 62
     2
100
AcDbLine
 10
115.8781768
 20
28.81668018
 30
0.0
 11
113.38978809
 21
28.81668018
 31
0.0
  0
LINE
  5
B9
330
1F7
100
AcDbEntity
  8
0
  6
Continuous
 62
     7
100
AcDbLine
 10
75.12612249
 20
33.31828789999999
 30
0.0
 11
75.12612249
 21
23.31471519
 31
0.0
  0
LINE
  5
BA
330
1F7
100
AcDbEntity
  8
0
  6
Continuous
 62
     7
100
AcDbLine
 10
75.12612249
 20
33.31828789999999
 30
0.0
 11
76.12647975999999
 21
34.31864517000001
 31
0.0
  0
LINE
  5
BB
330
1F7
100
AcDbEntity
  8
0
  6
Continuous
 62
     7
100
AcDbLine
 10
114.62773021
 20
33.31828789999999
 30
0.0
 11
113.62737294
 21
34.31864517000001
 31
0.0
  0
LINE
  5
BC
330
1F7
100
AcDbEntity
  8
0
  6
Continuous
 62
     7
100
AcDbLine
 10
113.62737294
 20
34.31864517000001
 30
0.0
 11
76.12647975999999
 21
34.31864517000001
 31
0.0
  0
LINE
  5
BD
330
1F7
100
AcDbEntity
  8
0
  6
Continuous
 62
     7
100
AcDbLine
 10
114.62773021
 20
33.31828789999999
 30
0.0
 11
114.62773021
 21
23.31471519
 31
0.0
  0
CIRCLE
  5
BE
330
1F7
100
AcDbEntity
  8
0
  6
Continuous
 62
     7
100
AcDbCircle
 10
94.88317859
 20
77.37411226999999
 30
0.0
 40
17.0
  0
LINE
  5
BF
330
1F7
100
AcDbEntity
  8
0
  6
Continuous
 62
     7
100
AcDbLine
 10
90.78317859
 20
35.62214642
 30
0.0
 11
90.78317859
 21
60.87593055
 31
0.0
  0
LINE
  5
C0
330
1F7
100
AcDbEntity
  8
0
  6
Continuous
 62
     7
100
AcDbLine
 10
98.98317859
 20
35.62214642
 30
0.0
 11
98.98317859
 21
60.87593055
 31
0.0
  0
LINE
  5
C1
330
1F7
100
AcDbEntity
  8
0
  6
Continuous
 62
     7
100
AcDbLine
 10
98.98317859
 20
35.62214642
 30
0.0
 11
90.78317859
 21
35.62214642
 31
0.0
  0
ARC
  5
C2
330
1F7
100
AcDbEntity
  8
0
  6
Continuous
 62
     7
100
AcDbCircle
 10
94.88317859
 20
44.12214642
 30
0.0
 40
13.00464452
100
AcDbArc
 50
108.37723363
 51
190.52545937
  0
LINE
  5
C3
330
1F7
100
AcDbEntity
  8
0
  6
Continuous
 62
     2
100
AcDbLine
 10
73.09734435
 20
77.37411226999999
 30
0.0
 11
116.66901282
 21
77.37411226999999
 31
0.0
  0
LINE
  5
C4
330
1F7
100
AcDbEntity
  8
0
  6
Continuous
 62
     7
100
AcDbLine
 10
107.8878231
 20
40.12214641999999
 30
0.0
 11
107.8878231
 21
48.12214642
 31
0.0
  0
LINE
  5
C5
330
1F7
100
AcDbEntity
  8
0
  6
Continuous
 62
     7
100
AcDbLine
 10
80.37853407
 20
41.12214642
 30
0.0
 11
80.37853407
 21
47.12214642
 31
0.0
  0
LINE
  5
C6
330
1F7
100
AcDbEntity
  8
0
  6
Continuous
 62
     7
100
AcDbLine
 10
108.80423097
 20
40.12214641999999
 30
0.0
 11
107.8878231
 21
40.12214641999999
 31
0.0
  0
LINE
  5
C7
330
1F7
100
AcDbEntity
  8
0
  6
Continuous
 62
     7
100
AcDbLine
 10
108.80423097
 20
48.12214642
 30
0.0
 11
107.8878231
 21
48.12214642
 31
0.0
  0
ARC
  5
C8
330
1F7
100
AcDbEntity
  8
0
  6
Continuous
 62
     7
100
AcDbCircle
 10
95.3878231
 20
44.12214642
 30
0.0
 40
14.0
100
AcDbArc
 50
343.3984504
 51
16.6015496
  0
LINE
  5
C9
330
1F7
100
AcDbEntity
  8
0
  6
Continuous
 62
     7
100
AcDbLine
 10
107.8878231
 20
41.62214642
 30
0.0
 11
107.64588955
 21
41.62214642
 31
0.0
  0
LINE
  5
CA
330
1F7
100
AcDbEntity
  8
0
  6
Continuous
 62
     7
100
AcDbLine
 10
107.8878231
 20
46.62214642
 30
0.0
 11
107.64526223
 21
46.62214642
 31
0.0
  0
LINE
  5
CB
330
1F7
100
AcDbEntity
  8
0
  6
Continuous
 62
     7
100
AcDbLine
 10
81.37853406999999
 20
48.12214642
 30
0.0
 11
82.50898046999999
 21
48.12214642
 31
0.0
  0
LINE
  5
CC
330
1F7
100
AcDbEntity
  8
0
  6
Continuous
 62
     7
100
AcDbLine
 10
81.37853406999999
 20
40.12214641999999
 30
0.0
 11
82.39916565999999
 21
40.12214641999999
 31
0.0
  0
ARC
  5
CD
330
1F7
100
AcDbEntity
  8
0
  6
Continuous
 62
     7
100
AcDbCircle
 10
81.37853406999999
 20
47.12214642
 30
0.0
 40
1.0
100
AcDbArc
 50
90.0
 51
180.0
  0
ARC
  5
CE
330
1F7
100
AcDbEntity
  8
0
  6
Continuous
 62
     7
100
AcDbCircle
 10
81.37853406999999
 20
41.12214642
 30
0.0
 40
1.0
100
AcDbArc
 50
180.0
 51
270.0
  0
LINE
  5
CF
330
1F7
100
AcDbEntity
  8
0
  6
Continuous
 62
     7
100
AcDbLine
 10
-31.81251069
 20
0.32364695
 30
0.0
 11
-31.81251069
 21
23.31471519
 31
0.0
  0
LINE
  5
D2
330
1F7
100
AcDbEntity
  8
0
  6
Continuous
 62
     7
100
AcDbLine
 10
-73.81251069
 20
0.32364695
 30
0.0
 11
-73.81251069
 21
23.31471519
 31
0.0
  0
LINE
  5
D3
330
1F7
100
AcDbEntity
  8
0
  6
Continuous
 62
     7
100
AcDbLine
 10
-33.06795906
 20
23.31471519
 30
0.0
 11
-33.06795906
 21
0.32364695
 31
0.0
  0
LINE
  5
D4
330
1F7
100
AcDbEntity
  8
0
  6
Continuous
 62
     7
100
AcDbLine
 10
-72.56956678
 20
23.31471519
 30
0.0
 11
-72.56956678
 21
0.32364695
 31
0.0
  0
LINE
  5
D5
330
1F7
100
AcDbEntity
  8
0
  6
Continuous
 62
     7
100
AcDbLine
 10
73.88317859
 20
0.32364695
 30
0.0
 11
73.88317859
 21
23.31471519
 31
0.0
  0
LINE
  5
D6
330
1F7
100
AcDbEntity
  8
0
  6
Continuous
 62
     7
100
AcDbLine
 10
75.12612249
 20
23.31471519
 30
0.0
 11
75.12612249
 21
0.32364695
 31
0.0
  0
LINE
  5
D7
330
1F7
100
AcDbEntity
  8
0
  6
Continuous
 62
     7
100
AcDbLine
 10
115.88317859
 20
23.31471519
 30
0.0
 11
73.88317859
 21
23.31471519
 31
0.0
  0
LINE
  5
D8
330
1F7
100
AcDbEntity
  8
0
  6
Continuous
 62
     7
100
AcDbLine
 10
115.88317859
 20
0.32364695
 30
0.0
 11
115.88317859
 21
23.31471519
 31
0.0
  0
LINE
  5
D9
330
1F7
100
AcDbEntity
  8
0
  6
Continuous
 62
     7
100
AcDbLine
 10
114.62773021
 20
23.31471519
 30
0.0
 11
114.62773021
 21
0.32364695
 31
0.0
  0
LINE
  5
DC
330
1F7
100
AcDbEntity
  8
0
  6
Continuous
 62
     7
100
AcDbLine
 10
115.92819466
 20
0.32364695
 30
0.0
 11
73.82565803999999
 21
0.32364695
 31
0.0
  0
LINE
  5
DD
330
1F7
100
AcDbEntity
  8
0
  6
Continuous
 62
     7
100
AcDbLine
 10
115.92819466
 20
0.32364695
 30
0.0
 11
115.92819466
 21
-10.48021157
 31
0.0
  0
LINE
  5
DE
330
1F7
100
AcDbEntity
  8
0
  6
Continuous
 62
     7
100
AcDbLine
 10
116.37835543
 20
-1.67706759
 30
0.0
 11
116.37835543
 21
-8.67956848
 31
0.0
  0
ARC
  5
DF
330
1F7
100
AcDbEntity
  8
0
  6
Continuous
 62
     7
100
AcDbCircle
 10
116.37839445
 20
-6.078678589999999
 30
0.0
 40
2.600889889999999
100
AcDbArc
 50
269.99914058
 51
0.00085942
  0
ARC
  5
E0
330
1F7
100
AcDbEntity
  8
0
  6
Continuous
 62
     7
100
AcDbCircle
 10
116.38819591
 20
-4.26815602
 30
0.0
 40
2.59110712
100
AcDbArc
 50
359.78240229
 51
90.21759770999999
  0
LINE
  5
E1
330
1F7
100
AcDbEntity
  8
0
  6
Continuous
 62
     7
100
AcDbLine
 10
118.97928434
 20
-4.277996489999999
 30
0.0
 11
118.97928434
 21
-6.078639579999999
 31
0.0
  0
LINE
  5
E2
330
1F7
100
AcDbEntity
  8
0
  6
Continuous
 62
     7
100
AcDbLine
 10
116.37835543
 20
-1.67706759
 30
0.0
 11
115.92819466
 21
-1.67706759
 31
0.0
  0
LINE
  5
E3
330
1F7
100
AcDbEntity
  8
0
  6
Continuous
 62
     2
100
AcDbLine
 10
119.77957015
 20
-5.178318029999999
 30
0.0
 11
115.11540438
 21
-5.178318029999999
 31
0.0
  0
CIRCLE
  5
E4
330
1F7
100
AcDbEntity
  8
0
  6
Continuous
 62
     7
100
AcDbCircle
 10
94.88317859
 20
-5.178318029999999
 30
0.0
 40
3.50124949
  0
LINE
  5
E5
330
1F7
100
AcDbEntity
  8
0
  6
Continuous
 62
     7
100
AcDbLine
 10
93.75180774
 20
-4.04694718
 30
0.0
 11
96.01454944
 21
-6.30968888
 31
0.0
  0
LINE
  5
E6
330
1F7
100
AcDbEntity
  8
0
  6
Continuous
 62
     7
100
AcDbLine
 10
93.74884216999999
 20
-6.30671552
 30
0.0
 11
96.01751501
 21
-4.04992055
 31
0.0
  0
LINE
  5
E7
330
1F7
100
AcDbEntity
  8
0
  6
Continuous
 62
     2
100
AcDbLine
 10
99.00965233
 20
-5.178318029999999
 30
0.0
 11
90.75670483999999
 21
-5.178318029999999
 31
0.0
  0
LINE
  5
E8
330
1F7
100
AcDbEntity
  8
0
  6
Continuous
 62
     7
100
AcDbLine
 10
73.82565803999999
 20
0.32364695
 30
0.0
 11
73.82565803999999
 21
-10.48021157
 31
0.0
  0
ARC
  5
E9
330
1F7
100
AcDbEntity
  8
0
  6
Continuous
 62
     7
100
AcDbCircle
 10
73.36630941
 20
-4.268808629999999
 30
0.0
 40
2.59175733
100
AcDbArc
 50
89.79688427000001
 51
180.20311573
  0
ARC
  5
EA
330
1F7
100
AcDbEntity
  8
0
  6
Continuous
 62
     7
100
AcDbCircle
 10
73.37610842
 20
-6.078028429999999
 30
0.0
 40
2.60154012
100
AcDbArc
 50
180.01345977
 51
269.98654023
  0
LINE
  5
EB
330
1F7
100
AcDbEntity
  8
0
  6
Continuous
 62
     7
100
AcDbLine
 10
73.37549726999999
 20
-8.67956848
 30
0.0
 11
73.82565803999999
 21
-8.67956848
 31
0.0
  0
LINE
  5
EC
330
1F7
100
AcDbEntity
  8
0
  6
Continuous
 62
     7
100
AcDbLine
 10
73.37549726999999
 20
-1.67706759
 30
0.0
 11
73.82565803999999
 21
-1.67706759
 31
0.0
  0
LINE
  5
ED
330
1F7
100
AcDbEntity
  8
0
  6
Continuous
 62
     7
100
AcDbLine
 10
70.77456836999999
 20
-4.277996489999999
 30
0.0
 11
70.77456836999999
 21
-6.078639579999999
 31
0.0
  0
LINE
  5
EE
330
1F7
100
AcDbEntity
  8
0
  6
Continuous
 62
     7
100
AcDbLine
 10
73.37549726999999
 20
-1.67706759
 30
0.0
 11
73.37549726999999
 21
-8.67956848
 31
0.0
  0
LINE
  5
EF
330
1F7
100
AcDbEntity
  8
0
  6
Continuous
 62
     2
100
AcDbLine
 10
69.97428254999999
 20
-5.178318029999999
 30
0.0
 11
74.58843046
 21
-5.178318029999999
 31
0.0
  0
LINE
  5
F0
330
1F7
100
AcDbEntity
  8
0
  6
Continuous
 62
     7
100
AcDbLine
 10
123.38317859
 20
-13.68135483
 30
0.0
 11
66.38317859
 21
-13.68135483
 31
0.0
  0
LINE
  5
F1
330
1F7
100
AcDbEntity
  8
0
  6
Continuous
 62
     7
100
AcDbLine
 10
123.38317859
 20
-12.48092611
 30
0.0
 11
66.38317859
 21
-12.48092611
 31
0.0
  0
ARC
  5
F2
330
1F7
100
AcDbEntity
  8
0
  6
Continuous
 62
     7
100
AcDbCircle
 10
71.8172435
 20
-10.47251157
 30
0.0
 40
2.008429299999999
100
AcDbArc
 50
270.21966347
 51
359.78033653
  0
ARC
  5
F3
330
1F7
100
AcDbEntity
  8
0
  6
Continuous
 62
     7
100
AcDbCircle
 10
117.93724209
 20
-10.47187868
 30
0.0
 40
2.00906471
100
AcDbArc
 50
180.23764326
 51
269.76235674
  0
LINE
  5
F4
330
1F7
100
AcDbEntity
  8
0
  6
Continuous
 62
     2
100
AcDbLine
 10
48.9717579
 20
11.81864517
 30
0.0
 11
120.35898162
 21
11.81864517
 31
0.0
  0
LINE
  5
F5
330
1F7
100
AcDbEntity
  8
0
  6
Continuous
 62
     2
100
AcDbLine
 10
94.88317859
 20
-18.07321664
 30
0.0
 11
94.88317859
 21
99.15994650000001
 31
0.0
  0
LINE
  5
F6
330
1F7
100
AcDbEntity
  8
0
  6
Continuous
 62
     7
100
AcDbLine
 10
-44.82501069
 20
23.31864517
 30
0.0
 11
-44.82501069
 21
14.25223177211629
 31
0.0
  0
LINE
  5
F7
330
1F7
100
AcDbEntity
  8
0
  6
Continuous
 62
     7
100
AcDbLine
 10
-60.81251069
 20
23.31864517
 30
0.0
 11
-60.81251069
 21
14.21081991278116
 31
0.0
  0
LINE
  5
106
330
1F7
100
AcDbEntity
  8
0
  6
Continuous
 62
     2
100
AcDbLine
 10
-52.81251069
 20
-18.87820917
 30
0.0
 11
-52.81251069
 21
114.26786409
 31
0.0
  0
TEXT
  5
107
330
1F7
100
AcDbEntity
  8
0
  6
Continuous
 62
     7
100
AcDbText
 10
-185.71052632
 20
115.3500061
 30
0.0
 40
4.5
  1
MODEL:V2503V
 41
1.052631579999999
  7
MX_NOTE_STANDARD
 11
-185.71052632
 21
117.6000061
 31
0.0
100
AcDbText
 73
     2
  0
LINE
  5
108
330
1F7
100
AcDbEntity
  8
0
  6
Continuous
 62
     7
100
AcDbLine
 10
-194.25
 20
132.6000061
 30
0.0
 11
194.80000305
 21
132.6000061
 31
0.0
  0
LINE
  5
109
330
1F7
100
AcDbEntity
  8
0
  6
Continuous
 62
     7
100
AcDbLine
 10
194.80000305
 20
132.6000061
 30
0.0
 11
194.80000305
 21
-133.5
 31
0.0
  0
LINE
  5
10A
330
1F7
100
AcDbEntity
  8
0
  6
Continuous
 62
     7
100
AcDbLine
 10
-194.25
 20
132.6000061
 30
0.0
 11
-194.25
 21
-133.5
 31
0.0
  0
LINE
  5
10B
330
1F7
100
AcDbEntity
  8
0
  6
Continuous
 62
     7
100
AcDbLine
 10
-194.25
 20
-133.5
 30
0.0
 11
194.80000305
 21
-133.5
 31
0.0
  0
CIRCLE
  5
215
330
1F7
100
AcDbEntity
  8
0
  6
Continuous
 62
     7
100
AcDbCircle
 10
-52.81251069
 20
11.81864517
 30
0.0
 40
7.5
  0
CIRCLE
  5
21B
330
1F7
100
AcDbEntity
  8
0
  6
Continuous
 62
     2
100
AcDbCircle
 10
-52.81251069
 20
11.81864517
 30
0.0
 40
8.349999999999999
  0
LINE
  5
21C
330
1F7
100
AcDbEntity
  8
0
  6
Continuous
 62
     7
100
AcDbLine
 10
-60.81251069
 20
9.426470427218864
 30
0.0
 11
-60.81251069
 21
0.31864517
 31
0.0
  0
LINE
  5
222
330
1F7
100
AcDbEntity
  8
0
  6
Continuous
 62
     7
100
AcDbLine
 10
-44.82501069000001
 20
9.385058567883689
 30
0.0
 11
-44.82501069
 21
0.31864517
 31
0.0
  0
LINE
  5
232
330
1F7
100
AcDbEntity
  8
0
  6
Continuous
 62
     7
100
AcDbLine
 10
102.87067859
 20
23.31864517
 30
0.0
 11
102.87067859
 21
14.25223177211629
 31
0.0
  0
LINE
  5
233
330
1F7
100
AcDbEntity
  8
0
  6
Continuous
 62
     7
100
AcDbLine
 10
102.87067859
 20
9.385058567883685
 30
0.0
 11
102.87067859
 21
0.3186451699999964
 31
0.0
  0
LINE
  5
234
330
1F7
100
AcDbEntity
  8
0
  6
Continuous
 62
     7
100
AcDbLine
 10
86.88317858999999
 20
23.31864517
 30
0.0
 11
86.88317858999999
 21
14.21081991278115
 31
0.0
  0
LINE
  5
235
330
1F7
100
AcDbEntity
  8
0
  6
Continuous
 62
     7
100
AcDbLine
 10
86.88317858999999
 20
9.426470427218861
 30
0.0
 11
86.88317858999999
 21
0.3186451699999964
 31
0.0
  0
CIRCLE
  5
236
330
1F7
100
AcDbEntity
  8
0
  6
Continuous
 62
     7
100
AcDbCircle
 10
94.88317859
 20
11.81864516999999
 30
0.0
 40
7.5
  0
CIRCLE
  5
237
330
1F7
100
AcDbEntity
  8
0
  6
Continuous
 62
     2
100
AcDbCircle
 10
94.88317859
 20
11.81864516999999
 30
0.0
 40
8.349999999999999
  0
ENDSEC
  0
SECTION
  2
OBJECTS
  0
DICTIONARY
  5
1E1
330
0
100
AcDbDictionary
281
     1
  3
ACAD_COLOR
350
1F0
  3
ACAD_GROUP
350
1E2
  3
ACAD_LAYOUT
350
1EE
  3
ACAD_MATERIAL
350
1EF
  3
ACAD_MLINESTYLE
350
1EB
  3
ACAD_PLOTSETTINGS
350
1ED
  3
ACAD_PLOTSTYLENAME
350
1E3
  3
ACAD_TABLESTYLE
350
1F1
  3
ACDBHEADERROUNDTRIPXREC
350
23D
  3
AcDbVariableDictionary
350
20E
  3
DWGPROPS
350
23C
  0
DICTIONARY
  5
21D
330
1F7
100
AcDbDictionary
280
     1
281
     1
  3
ACAD_SORTENTS
360
21E
  0
DICTIONARY
  5
1F0
102
{ACAD_REACTORS
330
1E1
102
}
330
1E1
100
AcDbDictionary
281
     1
  0
DICTIONARY
  5
1E2
102
{ACAD_REACTORS
330
1E1
102
}
330
1E1
100
AcDbDictionary
281
     1
  0
DICTIONARY
  5
1EE
102
{ACAD_REACTORS
330
1E1
102
}
330
1E1
100
AcDbDictionary
281
     1
  3
Model
350
1FA
  3
レイアウト1
350
1F6
  0
DICTIONARY
  5
1EF
102
{ACAD_REACTORS
330
1E1
102
}
330
1E1
100
AcDbDictionary
281
     1
  0
DICTIONARY
  5
1EB
102
{ACAD_REACTORS
330
1E1
102
}
330
1E1
100
AcDbDictionary
281
     1
  3
Standard
350
1EC
  0
DICTIONARY
  5
1ED
102
{ACAD_REACTORS
330
1E1
102
}
330
1E1
100
AcDbDictionary
281
     1
  0
ACDBDICTIONARYWDFLT
  5
1E3
102
{ACAD_REACTORS
330
1E1
102
}
330
1E1
100
AcDbDictionary
281
     1
  3
Normal
350
1E4
100
AcDbDictionaryWithDefault
340
1E4
  0
DICTIONARY
  5
1F1
102
{ACAD_REACTORS
330
1E1
102
}
330
1E1
100
AcDbDictionary
281
     1
  3
Standard
350
1F2
  0
DICTIONARY
  5
23D
102
{ACAD_REACTORS
330
1E1
102
}
330
1E1
100
AcDbDictionary
281
     1
  0
DICTIONARY
  5
20E
102
{ACAD_REACTORS
330
1E1
102
}
330
1E1
100
AcDbDictionary
281
     1
  3
CTABLESTYLE
350
20F
  3
DIMASSOC
350
239
  3
PROJECTNAME
350
23A
  0
XRECORD
  5
23C
102
{ACAD_REACTORS
330
1E1
102
}
330
1E1
100
AcDbXrecord
280
     1
  1
DWGPROPS COOKIE
  2

  3

  4

  6

  7

  8

  9

300
=
301
=
302
=
303
=
304
=
305
=
306
=
307
=
308
=
309
=
 40
0.0189618634259259
 41
2453419.802824074
 42
2454407.735342674
  1

 90
        0
  0
SORTENTSTABLE
  5
21E
102
{ACAD_REACTORS
330
21D
102
}
330
21D
100
AcDbSortentsTable
330
1F7
331
108
  5
10B
331
B1
  5
B1
331
F5
  5
F5
331
D3
  5
D3
331
7E
  5
7E
331
52
  5
52
331
A0
  5
A0
331
C2
  5
C2
331
106
  5
109
331
E4
  5
E4
331
8F
  5
8F
331
63
  5
63
331
41
  5
41
331
27
  5
27
331
F3
  5
F3
331
215
  5
221
331
7C
  5
7C
331
50
  5
50
331
C0
  5
C0
331
E2
  5
E2
331
8D
  5
8D
331
61
  5
61
331
AF
  5
AF
331
3E
  5
3E
331
25
  5
25
331
F1
  5
F1
331
7A
  5
7A
331
BE
  5
BE
331
9C
  5
9C
331
E0
  5
E0
331
8B
  5
8B
331
5F
  5
5F
331
CF
  5
CF
331
4E
  5
4E
331
3C
  5
3C
331
23
  5
23
331
EF
  5
EF
331
78
  5
78
331
31
  5
31
331
BC
  5
BC
331
9A
  5
9A
331
DE
  5
DE
331
222
  5
F8
331
89
  5
89
331
5D
  5
5D
331
AB
  5
AB
331
CD
  5
CD
331
6E
  5
6E
331
4C
  5
4C
331
21
  5
21
331
ED
  5
ED
331
76
  5
76
331
BA
  5
BA
331
98
  5
98
331
DC
  5
DC
331
87
  5
87
331
5B
  5
5B
331
A9
  5
A9
331
CB
  5
CB
331
6C
  5
6C
331
4A
  5
4A
331
1F
  5
1F
331
EB
  5
EB
331
B8
  5
B8
331
96
  5
96
331
74
  5
74
331
85
  5
85
331
59
  5
59
331
A7
  5
A7
331
C9
  5
C9
331
6A
  5
6A
331
48
  5
48
331
2E
  5
2E
331
E9
  5
E9
331
B6
  5
B6
331
94
  5
94
331
72
  5
72
331
D8
  5
D8
331
21C
  5
FA
331
83
  5
83
331
57
  5
57
331
A5
  5
A5
331
C7
  5
C7
331
68
  5
68
331
46
  5
46
331
2C
  5
2C
331
10B
  5
21C
331
B4
  5
B4
331
92
  5
92
331
70
  5
70
331
D6
  5
D6
331
81
  5
81
331
55
  5
55
331
A3
  5
A3
331
C5
  5
C5
331
E7
  5
E7
331
66
  5
66
331
44
  5
44
331
2A
  5
2A
331
109
  5
215
331
B2
  5
B2
331
90
  5
90
331
F6
  5
F6
331
D4
  5
D4
331
7F
  5
7F
331
53
  5
53
331
A1
  5
A1
331
C3
  5
C3
331
107
  5
10A
331
E5
  5
E5
331
64
  5
64
331
42
  5
42
331
28
  5
28
331
B0
  5
B0
331
F4
  5
F4
331
D2
  5
D2
331
7D
  5
7D
331
51
  5
51
331
9F
  5
9F
331
C1
  5
C1
331
E3
  5
E3
331
8E
  5
8E
331
62
  5
62
331
40
  5
40
331
3F
  5
3F
331
26
  5
26
331
F2
  5
F2
331
7B
  5
7B
331
BF
  5
BF
331
9D
  5
9D
331
E1
  5
E1
331
8C
  5
8C
331
60
  5
60
331
AE
  5
AE
331
4F
  5
4F
331
3D
  5
3D
331
24
  5
24
331
F0
  5
F0
331
79
  5
79
331
BD
  5
BD
331
9B
  5
9B
331
DF
  5
DF
331
8A
  5
8A
331
5E
  5
5E
331
AC
  5
AC
331
CE
  5
CE
331
6F
  5
6F
331
4D
  5
4D
331
3B
  5
3B
331
22
  5
22
331
EE
  5
EE
331
77
  5
77
331
30
  5
30
331
BB
  5
BB
331
99
  5
99
331
DD
  5
DD
331
88
  5
88
331
5C
  5
5C
331
AA
  5
AA
331
CC
  5
CC
331
6D
  5
6D
331
4B
  5
4B
331
20
  5
20
331
EC
  5
EC
331
75
  5
75
331
B9
  5
B9
331
97
  5
97
331
86
  5
86
331
5A
  5
5A
331
A8
  5
A8
331
CA
  5
CA
331
6B
  5
6B
331
49
  5
49
331
2F
  5
2F
331
1E
  5
1E
331
EA
  5
EA
331
B7
  5
B7
331
95
  5
95
331
73
  5
73
331
D9
  5
D9
331
84
  5
84
331
58
  5
58
331
A6
  5
A6
331
C8
  5
C8
331
69
  5
69
331
47
  5
47
331
2D
  5
2D
331
E8
  5
E8
331
B5
  5
B5
331
93
  5
93
331
71
  5
71
331
D7
  5
D7
331
21B
  5
222
331
82
  5
82
331
56
  5
56
331
A4
  5
A4
331
C6
  5
C6
331
67
  5
67
331
45
  5
45
331
2B
  5
2B
331
10A
  5
21B
331
B3
  5
B3
331
91
  5
91
331
F7
  5
F9
331
D5
  5
D5
331
80
  5
80
331
54
  5
54
331
A2
  5
A2
331
C4
  5
C4
331
E6
  5
E6
331
65
  5
65
331
43
  5
43
331
29
  5
29
  0
LAYOUT
  5
1FA
102
{ACAD_XDICTIONARY
360
240
102
}
102
{ACAD_REACTORS
330
1EE
102
}
330
1EE
100
AcDbPlotSettings
  1

  2
Microsoft Office Document Image Writer
  4

  6

 40
0.0
 41
0.0
 42
0.0
 43
0.0
 44
0.0
 45
0.0
 46
0.0
 47
0.0
 48
0.0
 49
0.0
140
0.0
141
0.0
142
1.0
143
1.0
 70
  1712
 72
     0
 73
     0
 74
     0
  7

 75
     0
147
1.0
148
0.0
149
0.0
100
AcDbLayout
  1
Model
 70
     1
 71
     0
 10
0.0
 20
0.0
 11
12.0
 21
9.0
 12
0.0
 22
0.0
 32
0.0
 14
0.0
 24
0.0
 34
0.0
 15
0.0
 25
0.0
 35
0.0
146
0.0
 13
0.0
 23
0.0
 33
0.0
 16
1.0
 26
0.0
 36
0.0
 17
0.0
 27
1.0
 37
0.0
 76
     0
330
1F7
  0
LAYOUT
  5
1F6
102
{ACAD_XDICTIONARY
360
23E
102
}
102
{ACAD_REACTORS
330
1EE
102
}
330
1EE
100
AcDbPlotSettings
  1

  2
Microsoft Office Document Image Writer
  4

  6

 40
0.0
 41
0.0
 42
0.0
 43
0.0
 44
0.0
 45
0.0
 46
0.0
 47
0.0
 48
0.0
 49
0.0
140
0.0
141
0.0
142
1.0
143
1.0
 70
   688
 72
     0
 73
     0
 74
     5
  7

 75
    16
147
1.0
148
0.0
149
0.0
100
AcDbLayout
  1
レイアウト1
 70
     0
 71
     1
 10
0.0
 20
0.0
 11
12.0
 21
9.0
 12
0.0
 22
0.0
 32
0.0
 14
1.000000000000000E+20
 24
1.000000000000000E+20
 34
1.000000000000000E+20
 15
-1.000000000000000E+20
 25
-1.000000000000000E+20
 35
-1.000000000000000E+20
146
0.0
 13
0.0
 23
0.0
 33
0.0
 16
1.0
 26
0.0
 36
0.0
 17
0.0
 27
1.0
 37
0.0
 76
     0
330
1F3
  0
MLINESTYLE
  5
1EC
102
{ACAD_REACTORS
330
1EB
102
}
330
1EB
100
AcDbMlineStyle
  2
STANDARD
 70
     0
  3

 62
   256
 51
90.0
 52
90.0
 71
     2
 49
0.5
 62
   256
  6
BYLAYER
 49
-0.5
 62
   256
  6
BYLAYER
  0
ACDBPLACEHOLDER
  5
1E4
102
{ACAD_REACTORS
330
1E3
102
}
330
1E3
  0
TABLESTYLE
  5
1F2
102
{ACAD_REACTORS
330
1F1
102
}
330
1F1
100
AcDbTableStyle
  3
Standard
 70
     0
 71
     0
 40
0.06
 41
0.06
280
     0
281
     0
  7
Standard
140
0.18
170
     2
 62
     0
 63
     7
283
     0
274
    -2
284
     1
 64
     0
275
    -2
285
     1
 65
     0
276
    -2
286
     1
 66
     0
277
    -2
287
     1
 67
     0
278
    -2
288
     1
 68
     0
279
    -2
289
     1
 69
     0
  7
Standard
140
0.25
170
     5
 62
     0
 63
     7
283
     0
274
    -2
284
     1
 64
     0
275
    -2
285
     1
 65
     0
276
    -2
286
     1
 66
     0
277
    -2
287
     1
 67
     0
278
    -2
288
     1
 68
     0
279
    -2
289
     1
 69
     0
  7
Standard
140
0.18
170
     5
 62
     0
 63
     7
283
     0
274
    -2
284
     1
 64
     0
275
    -2
285
     1
 65
     0
276
    -2
286
     1
 66
     0
277
    -2
287
     1
 67
     0
278
    -2
288
     1
 68
     0
279
    -2
289
     1
 69
     0
  0
DICTIONARYVAR
  5
20F
102
{ACAD_REACTORS
330
20E
102
}
330
20E
100
DictionaryVariables
280
     0
  1
STANDARD
  0
DICTIONARYVAR
  5
239
102
{ACAD_REACTORS
330
20E
102
}
330
20E
100
DictionaryVariables
280
     0
  1
1
  0
DICTIONARYVAR
  5
23A
102
{ACAD_REACTORS
330
20E
102
}
330
20E
100
DictionaryVariables
280
     0
  1

  0
DICTIONARY
  5
240
330
1FA
100
AcDbDictionary
280
     1
281
     1
  3
ACAD_XREC_ROUNDTRIP
360
241
  0
DICTIONARY
  5
23E
330
1F6
100
AcDbDictionary
280
     1
281
     1
  3
ACAD_XREC_ROUNDTRIP
360
23F
  0
XRECORD
  5
241
102
{ACAD_REACTORS
330
240
102
}
330
240
100
AcDbXrecord
280
     1
102
SHADEPLOT
 70
     0
102
SHADEPLOTRESLEVEL
 70
     2
102
SHADEPLOTCUSTOMDPI
 70
   300
  0
XRECORD
  5
23F
102
{ACAD_REACTORS
330
23E
102
}
330
23E
100
AcDbXrecord
280
     1
102
SHADEPLOT
 70
     0
102
SHADEPLOTRESLEVEL
 70
     2
102
SHADEPLOTCUSTOMDPI
 70
   300
  0
ENDSEC
  0
EOF
