  0
SECTION
  2
HEADER
  9
$ACADVER
  1
AC1009
  9
$DWGCODEPAGE
  3
dos932
  9
$INSBASE
 10
0.0
 20
0.0
 30
0.0
  9
$EXTMIN
 10
-138.3999939
 20
-94.80000305
 30
0.0
  9
$EXTMAX
 10
138.3500061
 20
94.5
 30
0.0
  9
$LIMMIN
 10
-148.5
 20
-105.0
  9
$LIMMAX
 10
148.5
 20
105.0
  9
$ORTHOMODE
 70
       0
  9
$REGENMODE
 70
       1
  9
$FILLMODE
 70
       1
  9
$QTEXTMODE
 70
       0
  9
$MIRRTEXT
 70
       1
  9
$DRAGMODE
 70
       2
  9
$LTSCALE
 40
1.0
  9
$OSMODE
 70
       0
  9
$ATTMODE
 70
       1
  9
$TEXTSIZE
 40
3.20000005
  9
$TRACEWID
 40
0.05
  9
$TEXTSTYLE
  7
MX_NOTE_STANDARD
  9
$CLAYER
  8
0
  9
$CELTYPE
  6
CONTINUOUS
  9
$CECOLOR
 62
     256
  9
$DIMSCALE
 40
1.0
  9
$DIMASZ
 40
2.5
  9
$DIMEXO
 40
1.5
  9
$DIMDLI
 40
3.75
  9
$DIMRND
 40
0.0
  9
$DIMDLE
 40
0.0
  9
$DIMEXE
 40
1.5
  9
$DIMTP
 40
0.0
  9
$DIMTM
 40
0.0
  9
$DIMTXT
 40
3.20000005
  9
$DIMCEN
 40
2.5
  9
$DIMTSZ
 40
0.0
  9
$DIMTOL
 70
       0
  9
$DIMLIM
 70
       0
  9
$DIMTIH
 70
       0
  9
$DIMTOH
 70
       0
  9
$DIMSE1
 70
       0
  9
$DIMSE2
 70
       0
  9
$DIMTAD
 70
       1
  9
$DIMZIN
 70
       8
  9
$DIMBLK
  1

  9
$DIMASO
 70
       1
  9
$DIMSHO
 70
       1
  9
$DIMPOST
  1

  9
$DIMAPOST
  1

  9
$DIMALT
 70
       0
  9
$DIMALTD
 70
       4
  9
$DIMALTF
 40
0.03937008
  9
$DIMLFAC
 40
1.0
  9
$DIMTOFL
 70
       1
  9
$DIMTVP
 40
0.0
  9
$DIMTIX
 70
       0
  9
$DIMSOXD
 70
       0
  9
$DIMSAH
 70
       1
  9
$DIMBLK1
  1
_OPEN30
  9
$DIMBLK2
  1
_OPEN30
  9
$DIMSTYLE
  2
MXDIMSTYLE
  9
$DIMCLRD
 70
       0
  9
$DIMCLRE
 70
       0
  9
$DIMCLRT
 70
       0
  9
$DIMTFAC
 40
1.0
  9
$DIMGAP
 40
1.0
  9
$LUNITS
 70
       2
  9
$LUPREC
 70
       4
  9
$AXISMODE
 70
       0
  9
$AXISUNIT
 10
0.0
 20
0.0
  9
$SKETCHINC
 40
0.1
  9
$FILLETRAD
 40
0.0
  9
$AUNITS
 70
       0
  9
$AUPREC
 70
       0
  9
$MENU
  1
acad
  9
$ELEVATION
 40
0.0
  9
$PELEVATION
 40
0.0
  9
$THICKNESS
 40
0.0
  9
$LIMCHECK
 70
       0
  9
$BLIPMODE
 70
       1
  9
$CHAMFERA
 40
0.0
  9
$CHAMFERB
 40
0.0
  9
$SKPOLY
 70
       0
  9
$TDCREATE
 40
2454068.406724537
  9
$TDUPDATE
 40
2454068.406724537
  9
$TDINDWG
 40
0.0000000000
  9
$TDUSRTIMER
 40
0.0000000000
  9
$USRTIMER
 70
       1
  9
$ANGBASE
 50
0.0
  9
$ANGDIR
 70
       0
  9
$PDMODE
 70
       0
  9
$PDSIZE
 40
0.0
  9
$PLINEWID
 40
0.0
  9
$COORDS
 70
       1
  9
$SPLFRAME
 70
       0
  9
$SPLINETYPE
 70
       6
  9
$SPLINESEGS
 70
       8
  9
$ATTDIA
 70
       0
  9
$ATTREQ
 70
       1
  9
$HANDLING
 70
       1
  9
$HANDSEED
  5
E6
  9
$SURFTAB1
 70
       6
  9
$SURFTAB2
 70
       6
  9
$SURFTYPE
 70
       6
  9
$SURFU
 70
       6
  9
$SURFV
 70
       6
  9
$UCSNAME
  2

  9
$UCSORG
 10
0.0
 20
0.0
 30
0.0
  9
$UCSXDIR
 10
1.0
 20
0.0
 30
0.0
  9
$UCSYDIR
 10
0.0
 20
1.0
 30
0.0
  9
$PUCSNAME
  2

  9
$PUCSORG
 10
0.0
 20
0.0
 30
0.0
  9
$PUCSXDIR
 10
1.0
 20
0.0
 30
0.0
  9
$PUCSYDIR
 10
0.0
 20
1.0
 30
0.0
  9
$USERI1
 70
       0
  9
$USERI2
 70
       0
  9
$USERI3
 70
       0
  9
$USERI4
 70
       0
  9
$USERI5
 70
       0
  9
$USERR1
 40
0.0
  9
$USERR2
 40
0.0
  9
$USERR3
 40
0.0
  9
$USERR4
 40
0.0
  9
$USERR5
 40
0.0
  9
$WORLDVIEW
 70
       1
  9
$SHADEDGE
 70
       3
  9
$SHADEDIF
 70
      70
  9
$TILEMODE
 70
       1
  9
$MAXACTVP
 70
      16
  9
$PINSBASE
 10
0.0
 20
0.0
 30
0.0
  9
$PLIMCHECK
 70
       0
  9
$PEXTMIN
 10
1.00000000E+20
 20
1.00000000E+20
 30
1.00000000E+20
  9
$PEXTMAX
 10
-1.00000000E+20
 20
-1.00000000E+20
 30
-1.00000000E+20
  9
$PLIMMIN
 10
0.0
 20
0.0
  9
$PLIMMAX
 10
12.0
 20
9.0
  9
$UNITMODE
 70
       0
  9
$VISRETAIN
 70
       0
  9
$PLINEGEN
 70
       1
  9
$PSLTSCALE
 70
       0
  9
$TREEDEPTH
 70
    3020
  0
ENDSEC
  0
SECTION
  2
TABLES
  0
TABLE
  2
VPORT
 70
       1
  0
VPORT
  2
*ACTIVE
 70
       0
 10
0.0
 20
0.0
 11
1.0
 21
1.0
 12
0.0
 22
0.0
 13
0.0
 23
0.0
 14
1.0
 24
1.0
 15
0.0
 25
0.0
 16
0.0
 26
0.0
 36
1.0
 17
0.0
 27
0.0
 37
0.0
 40
212.1
 41
1.73205081
 42
50.0
 43
0.0
 44
0.0
 50
0.0
 51
0.0
 71
       0
 72
     100
 73
       1
 74
       1
 75
       0
 76
       0
 77
       0
 78
       0
  0
ENDTAB
  0
TABLE
  2
LTYPE
 70
       1
  0
LTYPE
  2
CONTINUOUS
 70
      64
  3
Solid line
 72
      65
 73
       0
 40
0.0
  0
ENDTAB
  0
TABLE
  2
LAYER
 70
       2
  0
LAYER
  2
0
 70
       0
 62
       7
  6
CONTINUOUS
  0
LAYER
  2
DEFPOINTS
 70
       0
 62
       7
  6
CONTINUOUS
  0
ENDTAB
  0
TABLE
  2
STYLE
 70
       1
  0
STYLE
  2
MX_NOTE_STANDARD
 70
       0
 40
0.0
 41
1.0
 50
0.0
 71
       0
 42
3.20000005
  3
txt.shx
  4
extfont.shx
  0
ENDTAB
  0
TABLE
  2
VIEW
 70
       0
  0
ENDTAB
  0
TABLE
  2
UCS
 70
       0
  0
ENDTAB
  0
TABLE
  2
APPID
 70
       1
  0
APPID
  2
ACAD
 70
       0
  0
ENDTAB
  0
TABLE
  2
DIMSTYLE
 70
       1
  0
DIMSTYLE
  2
MXDIMSTYLE
 70
       0
  3

  4

  5

  6
_OPEN30
  7
_OPEN30
 40
1.0
 41
2.5
 42
1.5
 43
3.75
 44
1.5
 45
0.0
 46
0.0
 47
0.0
 48
0.0
 71
       0
 72
       0
 73
       0
 74
       0
 75
       0
 76
       0
 77
       1
 78
       8
140
3.20000005
141
2.5
142
0.0
143
0.03937008
144
1.0
145
0.0
146
1.0
147
1.0
170
       0
171
       4
172
       1
173
       1
174
       0
175
       0
176
       0
177
       0
178
       0
  0
ENDTAB
  0
ENDSEC
  0
SECTION
  2
BLOCKS
  0
BLOCK
  8
0
  6
BYBLOCK
 62
       0
  5
1F
  2
_OPEN30
 70
       2
 10
0.0
 20
0.0
 30
0.0
  3
_OPEN30
  0
LINE
  8
0
  6
BYBLOCK
 62
       0
  5
20
 10
-1.0
 20
0.267949
 30
0.0
 11
0.0
 21
0.0
 31
0.0
  0
LINE
  8
0
  6
BYBLOCK
 62
       0
  5
21
 10
0.0
 20
0.0
 30
0.0
 11
-1.0
 21
-0.267949
 31
0.0
  0
LINE
  8
0
  6
BYBLOCK
 62
       0
  5
22
 10
0.0
 20
0.0
 30
0.0
 11
-1.0
 21
0.0
 31
0.0
  0
ENDBLK
  8
0
  6
BYBLOCK
 62
       0
  5
23
  0
ENDSEC
  0
SECTION
  2
ENTITIES
  0
TEXT
  8
0
  6
CONTINUOUS
 62
       7
  5
24
 10
-129.43528803
 20
82.89999998
 30
0.0
 40
3.20000005
  1
MODEL:VA125A
 41
1.05882352
  7
MX_NOTE_STANDARD
 11
-129.43528803
 21
84.5
 31
0.0
 73
       2
  0
LINE
  8
0
  6
CONTINUOUS
 62
       7
  5
25
 10
-138.3999939
 20
-94.80000305
 30
0.0
 11
138.3500061
 21
-94.80000305
 31
0.0
  0
LINE
  8
0
  6
CONTINUOUS
 62
       7
  5
26
 10
44.0
 20
49.4
 30
0.0
 11
56.0
 21
49.4
 31
0.0
  0
LINE
  8
0
  6
CONTINUOUS
 62
       7
  5
27
 10
-17.5
 20
12.6
 30
0.0
 11
-17.5
 21
10.0
 31
0.0
  0
LINE
  8
0
  6
CONTINUOUS
 62
       7
  5
28
 10
37.0
 20
39.5
 30
0.0
 11
37.0
 21
32.5
 31
0.0
  0
LINE
  8
0
  6
CONTINUOUS
 62
       7
  5
29
 10
38.0
 20
40.5
 30
0.0
 11
62.0
 21
40.5
 31
0.0
  0
LINE
  8
0
  6
CONTINUOUS
 62
       7
  5
2A
 10
37.0
 20
19.5
 30
0.0
 11
63.0
 21
19.5
 31
0.0
  0
LINE
  8
0
  6
CONTINUOUS
 62
       7
  5
2B
 10
37.0
 20
32.5
 30
0.0
 11
63.0
 21
32.5
 31
0.0
  0
LINE
  8
0
  6
CONTINUOUS
 62
       7
  5
2C
 10
63.0
 20
39.5
 30
0.0
 11
63.0
 21
32.5
 31
0.0
  0
LINE
  8
0
  6
CONTINUOUS
 62
       7
  5
2D
 10
65.0
 20
20.04
 30
0.0
 11
65.0
 21
31.96
 31
0.0
  0
LINE
  8
0
  6
CONTINUOUS
 62
       7
  5
2E
 10
37.0
 20
39.5
 30
0.0
 11
38.0
 21
40.5
 31
0.0
  0
LINE
  8
0
  6
CONTINUOUS
 62
       7
  5
2F
 10
62.0
 20
40.5
 30
0.0
 11
63.0
 21
39.5
 31
0.0
  0
LINE
  8
0
  6
CONTINUOUS
 62
       7
  5
30
 10
63.0
 20
32.5
 30
0.0
 11
65.0
 21
31.96
 31
0.0
  0
LINE
  8
0
  6
CONTINUOUS
 62
       7
  5
31
 10
35.0
 20
31.96
 30
0.0
 11
65.0
 21
31.96
 31
0.0
  0
LINE
  8
0
  6
CONTINUOUS
 62
       7
  5
32
 10
37.0
 20
32.5
 30
0.0
 11
35.0
 21
31.96
 31
0.0
  0
LINE
  8
0
  6
CONTINUOUS
 62
       7
  5
33
 10
37.0
 20
19.5
 30
0.0
 11
37.0
 21
18.0
 31
0.0
  0
LINE
  8
0
  6
CONTINUOUS
 62
       7
  5
34
 10
63.0
 20
19.5
 30
0.0
 11
63.0
 21
18.0
 31
0.0
  0
LINE
  8
0
  6
CONTINUOUS
 62
       7
  5
35
 10
37.0
 20
39.5
 30
0.0
 11
63.0
 21
39.5
 31
0.0
  0
LINE
  8
0
  6
CONTINUOUS
 62
       2
  5
36
 10
62.25
 20
40.25
 30
0.0
 11
62.25
 21
33.5
 31
0.0
  0
LINE
  8
0
  6
CONTINUOUS
 62
       2
  5
37
 10
37.75
 20
40.25
 30
0.0
 11
37.75
 21
33.5
 31
0.0
  0
LINE
  8
0
  6
CONTINUOUS
 62
       7
  5
38
 10
37.0
 20
33.5
 30
0.0
 11
63.0
 21
33.5
 31
0.0
  0
LINE
  8
0
  6
CONTINUOUS
 62
       7
  5
39
 10
37.0
 20
19.5
 30
0.0
 11
35.0
 21
20.04
 31
0.0
  0
LINE
  8
0
  6
CONTINUOUS
 62
       7
  5
3A
 10
63.0
 20
19.5
 30
0.0
 11
65.0
 21
20.04
 31
0.0
  0
LINE
  8
0
  6
CONTINUOUS
 62
       7
  5
3B
 10
35.15
 20
18.0
 30
0.0
 11
64.85
 21
18.0
 31
0.0
  0
LINE
  8
0
  6
CONTINUOUS
 62
       7
  5
3C
 10
27.5
 20
10.0
 30
0.0
 11
72.5
 21
10.0
 31
0.0
  0
LINE
  8
0
  6
CONTINUOUS
 62
       7
  5
3D
 10
27.5
 20
12.6
 30
0.0
 11
72.5
 21
12.6
 31
0.0
  0
LINE
  8
0
  6
CONTINUOUS
 62
       7
  5
3E
 10
72.5
 20
12.6
 30
0.0
 11
72.5
 21
10.0
 31
0.0
  0
LINE
  8
0
  6
CONTINUOUS
 62
       7
  5
3F
 10
27.5
 20
12.6
 30
0.0
 11
27.5
 21
10.0
 31
0.0
  0
LINE
  8
0
  6
CONTINUOUS
 62
       7
  5
40
 10
35.15
 20
18.0
 30
0.0
 11
35.15
 21
14.6
 31
0.0
  0
LINE
  8
0
  6
CONTINUOUS
 62
       7
  5
41
 10
64.85
 20
18.0
 30
0.0
 11
64.85
 21
14.6
 31
0.0
  0
LINE
  8
0
  6
CONTINUOUS
 62
       2
  5
42
 10
29.39
 20
15.4
 30
0.0
 11
36.28
 21
15.4
 31
0.0
  0
LINE
  8
0
  6
CONTINUOUS
 62
       7
  5
43
 10
56.3
 20
41.4
 30
0.0
 11
56.3
 21
40.5
 31
0.0
  0
LINE
  8
0
  6
CONTINUOUS
 62
       7
  5
44
 10
37.0
 20
18.5
 30
0.0
 11
63.0
 21
18.5
 31
0.0
  0
LINE
  8
0
  6
CONTINUOUS
 62
       2
  5
45
 10
62.25
 20
18.0
 30
0.0
 11
62.25
 21
18.5
 31
0.0
  0
LINE
  8
0
  6
CONTINUOUS
 62
       2
  5
46
 10
37.75
 20
18.0
 30
0.0
 11
37.75
 21
18.5
 31
0.0
  0
LINE
  8
0
  6
CONTINUOUS
 62
       7
  5
47
 10
35.0
 20
20.04
 30
0.0
 11
65.0
 21
20.04
 31
0.0
  0
LINE
  8
0
  6
CONTINUOUS
 62
       7
  5
48
 10
43.7
 20
41.4
 30
0.0
 11
43.7
 21
40.5
 31
0.0
  0
LINE
  8
0
  6
CONTINUOUS
 62
       7
  5
49
 10
32.0
 20
16.9
 30
0.0
 11
35.15
 21
16.9
 31
0.0
  0
LINE
  8
0
  6
CONTINUOUS
 62
       7
  5
4A
 10
32.0
 20
13.9
 30
0.0
 11
35.02
 21
13.9
 31
0.0
  0
LINE
  8
0
  6
CONTINUOUS
 62
       7
  5
4B
 10
30.0
 20
15.7
 30
0.0
 11
30.0
 21
15.1
 31
0.0
  0
LINE
  8
0
  6
CONTINUOUS
 62
       2
  5
4C
 10
32.0
 20
16.5
 30
0.0
 11
35.15
 21
16.5
 31
0.0
  0
LINE
  8
0
  6
CONTINUOUS
 62
       2
  5
4D
 10
32.0
 20
14.3
 30
0.0
 11
35.12
 21
14.3
 31
0.0
  0
LINE
  8
0
  6
CONTINUOUS
 62
       7
  5
4E
 10
32.0
 20
17.7
 30
0.0
 11
32.0
 21
13.1
 31
0.0
  0
CIRCLE
  8
0
  6
CONTINUOUS
 62
       7
  5
4F
 10
50.0
 20
26.0
 30
0.0
 40
4.0
  0
CIRCLE
  8
0
  6
CONTINUOUS
 62
       2
  5
50
 10
50.0
 20
26.0
 30
0.0
 40
5.0
  0
ARC
  8
0
  6
CONTINUOUS
 62
       7
  5
51
 10
33.14780082
 20
14.60219918
 30
0.0
 40
2.00220039
 50
270.06293262
 51
359.93706738
  0
ARC
  8
0
  6
CONTINUOUS
 62
       7
  5
52
 10
66.85199767
 20
14.60199767
 30
0.0
 40
2.00199867
 50
180.0571719
 51
269.9428281
  0
ARC
  8
0
  6
CONTINUOUS
 62
       7
  5
53
 10
31.99780282
 20
15.70219718
 30
0.0
 40
1.99780403
 50
89.93698631
 51
180.06301369
  0
ARC
  8
0
  6
CONTINUOUS
 62
       7
  5
54
 10
32.00200224
 20
15.10200224
 30
0.0
 40
2.00200324
 50
180.05730263
 51
269.94269737
  0
POLYLINE
  8
0
  6
CONTINUOUS
 62
       7
  5
55
 66
       1
 10
0.0
 20
0.0
 30
0.0
  0
VERTEX
  8
0
  6
CONTINUOUS
 62
       7
  5
BB
 10
35.0
 20
31.0
 30
0.0
  0
VERTEX
  8
0
  6
CONTINUOUS
 62
       7
  5
BC
 10
35.24960387
 20
30.19148808
 30
0.0
  0
VERTEX
  8
0
  6
CONTINUOUS
 62
       7
  5
BD
 10
35.45762623
 20
29.36943699
 30
0.0
  0
VERTEX
  8
0
  6
CONTINUOUS
 62
       7
  5
BE
 10
35.62237205
 20
28.53655469
 30
0.0
  0
VERTEX
  8
0
  6
CONTINUOUS
 62
       7
  5
BF
 10
35.74214631
 20
27.69554913
 30
0.0
  0
VERTEX
  8
0
  6
CONTINUOUS
 62
       7
  5
C0
 10
35.81525397
 20
26.84912825
 30
0.0
  0
VERTEX
  8
0
  6
CONTINUOUS
 62
       7
  5
C1
 10
35.84
 20
26.0
 30
0.0
  0
VERTEX
  8
0
  6
CONTINUOUS
 62
       7
  5
C2
 10
35.81525432
 20
25.15087192
 30
0.0
  0
VERTEX
  8
0
  6
CONTINUOUS
 62
       7
  5
C3
 10
35.74214686
 20
24.30445141
 30
0.0
  0
VERTEX
  8
0
  6
CONTINUOUS
 62
       7
  5
C4
 10
35.62237267
 20
23.46344621
 30
0.0
  0
VERTEX
  8
0
  6
CONTINUOUS
 62
       7
  5
C5
 10
35.45762678
 20
22.63056408
 30
0.0
  0
VERTEX
  8
0
  6
CONTINUOUS
 62
       7
  5
C6
 10
35.24960421
 20
21.80851276
 30
0.0
  0
VERTEX
  8
0
  6
CONTINUOUS
 62
       7
  5
C7
 10
35.0
 20
21.0
 30
0.0
  0
SEQEND
  8
0
  6
CONTINUOUS
 62
       7
  5
C8
  0
LINE
  8
0
  6
CONTINUOUS
 62
       7
  5
56
 10
35.0
 20
31.96
 30
0.0
 11
35.0
 21
31.0
 31
0.0
  0
LINE
  8
0
  6
CONTINUOUS
 62
       7
  5
57
 10
35.0
 20
21.0
 30
0.0
 11
35.0
 21
20.04
 31
0.0
  0
LINE
  8
0
  6
CONTINUOUS
 62
       7
  5
58
 10
43.70000003
 20
41.4
 30
0.0
 11
44.0
 21
41.4
 31
0.0
  0
LINE
  8
0
  6
CONTINUOUS
 62
       7
  5
59
 10
56.0
 20
41.4
 30
0.0
 11
56.29999999
 21
41.4
 31
0.0
  0
LINE
  8
0
  6
CONTINUOUS
 62
       2
  5
5A
 10
32.72468564
 20
26.0
 30
0.0
 11
67.27531436
 21
26.0
 31
0.0
  0
LINE
  8
0
  6
CONTINUOUS
 62
       7
  5
5B
 10
44.0
 20
49.4
 30
0.0
 11
44.0
 21
41.4
 31
0.0
  0
LINE
  8
0
  6
CONTINUOUS
 62
       7
  5
5C
 10
56.0
 20
49.4
 30
0.0
 11
56.0
 21
41.4
 31
0.0
  0
LINE
  8
0
  6
CONTINUOUS
 62
       2
  5
5D
 10
50.0
 20
52.4
 30
0.0
 11
50.0
 21
7.0
 31
0.0
  0
LINE
  8
0
  6
CONTINUOUS
 62
       7
  5
5E
 10
-53.0
 20
39.5
 30
0.0
 11
-53.0
 21
32.5
 31
0.0
  0
LINE
  8
0
  6
CONTINUOUS
 62
       7
  5
5F
 10
-52.0
 20
40.5
 30
0.0
 11
-28.0
 21
40.5
 31
0.0
  0
LINE
  8
0
  6
CONTINUOUS
 62
       7
  5
60
 10
-53.0
 20
19.5
 30
0.0
 11
-27.0
 21
19.5
 31
0.0
  0
LINE
  8
0
  6
CONTINUOUS
 62
       7
  5
61
 10
-53.0
 20
32.5
 30
0.0
 11
-27.0
 21
32.5
 31
0.0
  0
LINE
  8
0
  6
CONTINUOUS
 62
       7
  5
62
 10
-27.0
 20
39.5
 30
0.0
 11
-27.0
 21
32.5
 31
0.0
  0
LINE
  8
0
  6
CONTINUOUS
 62
       7
  5
63
 10
-55.0
 20
31.96
 30
0.0
 11
-55.0
 21
31.0
 31
0.0
  0
LINE
  8
0
  6
CONTINUOUS
 62
       7
  5
64
 10
-25.0
 20
31.96
 30
0.0
 11
-25.0
 21
31.0
 31
0.0
  0
LINE
  8
0
  6
CONTINUOUS
 62
       7
  5
65
 10
-53.0
 20
39.5
 30
0.0
 11
-52.0
 21
40.5
 31
0.0
  0
LINE
  8
0
  6
CONTINUOUS
 62
       7
  5
66
 10
-28.0
 20
40.5
 30
0.0
 11
-27.0
 21
39.5
 31
0.0
  0
LINE
  8
0
  6
CONTINUOUS
 62
       7
  5
67
 10
-27.0
 20
32.5
 30
0.0
 11
-25.0
 21
31.96
 31
0.0
  0
LINE
  8
0
  6
CONTINUOUS
 62
       7
  5
68
 10
-55.0
 20
31.96
 30
0.0
 11
-25.0
 21
31.96
 31
0.0
  0
LINE
  8
0
  6
CONTINUOUS
 62
       7
  5
69
 10
-53.0
 20
32.5
 30
0.0
 11
-55.0
 21
31.96
 31
0.0
  0
LINE
  8
0
  6
CONTINUOUS
 62
       7
  5
6A
 10
-27.0
 20
19.5
 30
0.0
 11
-27.0
 21
18.0
 31
0.0
  0
LINE
  8
0
  6
CONTINUOUS
 62
       7
  5
6B
 10
-53.0
 20
39.5
 30
0.0
 11
-27.0
 21
39.5
 31
0.0
  0
LINE
  8
0
  6
CONTINUOUS
 62
       2
  5
6C
 10
-27.75
 20
40.25
 30
0.0
 11
-27.75
 21
33.5
 31
0.0
  0
LINE
  8
0
  6
CONTINUOUS
 62
       2
  5
6D
 10
-52.25
 20
40.25
 30
0.0
 11
-52.25
 21
33.5
 31
0.0
  0
LINE
  8
0
  6
CONTINUOUS
 62
       7
  5
6E
 10
-53.0
 20
19.5
 30
0.0
 11
-55.0
 21
20.04
 31
0.0
  0
LINE
  8
0
  6
CONTINUOUS
 62
       7
  5
6F
 10
-55.0
 20
20.04
 30
0.0
 11
-25.0
 21
20.04
 31
0.0
  0
LINE
  8
0
  6
CONTINUOUS
 62
       7
  5
70
 10
-27.0
 20
19.5
 30
0.0
 11
-25.0
 21
20.04
 31
0.0
  0
LINE
  8
0
  6
CONTINUOUS
 62
       7
  5
71
 10
-54.85
 20
18.0
 30
0.0
 11
-25.15
 21
18.0
 31
0.0
  0
LINE
  8
0
  6
CONTINUOUS
 62
       7
  5
72
 10
-54.85
 20
18.0
 30
0.0
 11
-54.85
 21
14.6
 31
0.0
  0
LINE
  8
0
  6
CONTINUOUS
 62
       7
  5
73
 10
-25.15
 20
18.0
 30
0.0
 11
-25.15
 21
14.6
 31
0.0
  0
LINE
  8
0
  6
CONTINUOUS
 62
       2
  5
74
 10
-42.53
 20
15.4
 30
0.0
 11
-37.47
 21
15.4
 31
0.0
  0
LINE
  8
0
  6
CONTINUOUS
 62
       7
  5
75
 10
-55.0
 20
21.0
 30
0.0
 11
-55.0
 21
20.04
 31
0.0
  0
LINE
  8
0
  6
CONTINUOUS
 62
       7
  5
76
 10
-25.0
 20
21.0
 30
0.0
 11
-25.0
 21
20.04
 31
0.0
  0
LINE
  8
0
  6
CONTINUOUS
 62
       7
  5
77
 10
-40.855
 20
14.545
 30
0.0
 11
-39.095
 21
16.305
 31
0.0
  0
LINE
  8
0
  6
CONTINUOUS
 62
       7
  5
78
 10
-40.79697875
 20
16.19697875
 30
0.0
 11
-39.145
 21
14.545
 31
0.0
  0
LINE
  8
0
  6
CONTINUOUS
 62
       7
  5
79
 10
-62.5
 20
12.6
 30
0.0
 11
-62.5
 21
10.0
 31
0.0
  0
CIRCLE
  8
0
  6
CONTINUOUS
 62
       2
  5
7A
 10
-40.0
 20
26.0
 30
0.0
 40
5.0
  0
CIRCLE
  8
0
  6
CONTINUOUS
 62
       7
  5
7B
 10
-40.0
 20
26.0
 30
0.0
 40
4.0
  0
ARC
  8
0
  6
CONTINUOUS
 62
       7
  5
7C
 10
-56.85219156
 20
14.60219156
 30
0.0
 40
2.00219276
 50
270.06271475
 51
359.93728525
  0
CIRCLE
  8
0
  6
CONTINUOUS
 62
       7
  5
7D
 10
-40.0
 20
15.4
 30
0.0
 40
2.0
  0
ARC
  8
0
  6
CONTINUOUS
 62
       7
  5
7E
 10
-23.14799947
 20
14.60200053
 30
0.0
 40
2.00200153
 50
180.0572536
 51
269.9427464
  0
POLYLINE
  8
0
  6
CONTINUOUS
 62
       7
  5
7F
 66
       1
 10
0.0
 20
0.0
 30
0.0
  0
VERTEX
  8
0
  6
CONTINUOUS
 62
       7
  5
C9
 10
-25.0
 20
31.0
 30
0.0
  0
VERTEX
  8
0
  6
CONTINUOUS
 62
       7
  5
CA
 10
-25.25034464
 20
30.19148765
 30
0.0
  0
VERTEX
  8
0
  6
CONTINUOUS
 62
       7
  5
CB
 10
-25.46021892
 20
29.36943649
 30
0.0
  0
VERTEX
  8
0
  6
CONTINUOUS
 62
       7
  5
CC
 10
-25.62737221
 20
28.53655433
 30
0.0
  0
VERTEX
  8
0
  6
CONTINUOUS
 62
       7
  5
CD
 10
-25.7495539
 20
27.69554898
 30
0.0
  0
VERTEX
  8
0
  6
CONTINUOUS
 62
       7
  5
CE
 10
-25.82451337
 20
26.84912827
 30
0.0
  0
VERTEX
  8
0
  6
CONTINUOUS
 62
       7
  5
CF
 10
-25.85
 20
26.0
 30
0.0
  0
VERTEX
  8
0
  6
CONTINUOUS
 62
       7
  5
D0
 10
-25.82451337
 20
25.15087173
 30
0.0
  0
VERTEX
  8
0
  6
CONTINUOUS
 62
       7
  5
D1
 10
-25.7495539
 20
24.30445102
 30
0.0
  0
VERTEX
  8
0
  6
CONTINUOUS
 62
       7
  5
D2
 10
-25.62737221
 20
23.46344567
 30
0.0
  0
VERTEX
  8
0
  6
CONTINUOUS
 62
       7
  5
D3
 10
-25.46021892
 20
22.63056351
 30
0.0
  0
VERTEX
  8
0
  6
CONTINUOUS
 62
       7
  5
D4
 10
-25.25034464
 20
21.80851235
 30
0.0
  0
VERTEX
  8
0
  6
CONTINUOUS
 62
       7
  5
D5
 10
-25.0
 20
21.0
 30
0.0
  0
SEQEND
  8
0
  6
CONTINUOUS
 62
       7
  5
D6
  0
POLYLINE
  8
0
  6
CONTINUOUS
 62
       7
  5
80
 66
       1
 10
0.0
 20
0.0
 30
0.0
  0
VERTEX
  8
0
  6
CONTINUOUS
 62
       7
  5
D7
 10
-55.0
 20
31.0
 30
0.0
  0
VERTEX
  8
0
  6
CONTINUOUS
 62
       7
  5
D8
 10
-54.74965542
 20
30.19148822
 30
0.0
  0
VERTEX
  8
0
  6
CONTINUOUS
 62
       7
  5
D9
 10
-54.53978122
 20
29.36943739
 30
0.0
  0
VERTEX
  8
0
  6
CONTINUOUS
 62
       7
  5
DA
 10
-54.37262798
 20
28.53655533
 30
0.0
  0
VERTEX
  8
0
  6
CONTINUOUS
 62
       7
  5
DB
 10
-54.25044631
 20
27.69554987
 30
0.0
  0
VERTEX
  8
0
  6
CONTINUOUS
 62
       7
  5
DC
 10
-54.17548678
 20
26.84912881
 30
0.0
  0
VERTEX
  8
0
  6
CONTINUOUS
 62
       7
  5
DD
 10
-54.15
 20
26.0
 30
0.0
  0
VERTEX
  8
0
  6
CONTINUOUS
 62
       7
  5
DE
 10
-54.17548643
 20
25.15087135
 30
0.0
  0
VERTEX
  8
0
  6
CONTINUOUS
 62
       7
  5
DF
 10
-54.25044575
 20
24.30445067
 30
0.0
  0
VERTEX
  8
0
  6
CONTINUOUS
 62
       7
  5
E0
 10
-54.37262736
 20
23.46344557
 30
0.0
  0
VERTEX
  8
0
  6
CONTINUOUS
 62
       7
  5
E1
 10
-54.53978067
 20
22.63056368
 30
0.0
  0
VERTEX
  8
0
  6
CONTINUOUS
 62
       7
  5
E2
 10
-54.74965508
 20
21.80851261
 30
0.0
  0
VERTEX
  8
0
  6
CONTINUOUS
 62
       7
  5
E3
 10
-55.0
 20
21.0
 30
0.0
  0
SEQEND
  8
0
  6
CONTINUOUS
 62
       7
  5
E4
  0
LINE
  8
0
  6
CONTINUOUS
 62
       7
  5
81
 10
-45.3
 20
49.4
 30
0.0
 11
-34.7
 21
49.4
 31
0.0
  0
LINE
  8
0
  6
CONTINUOUS
 62
       7
  5
82
 10
-41.92093727
 20
42.4
 30
0.0
 11
-38.07906273
 21
42.4
 31
0.0
  0
LINE
  8
0
  6
CONTINUOUS
 62
       7
  5
83
 10
-41.92093727
 20
42.40000001
 30
0.0
 11
-41.92093727
 21
48.4
 31
0.0
  0
LINE
  8
0
  6
CONTINUOUS
 62
       7
  5
84
 10
-38.07906273
 20
42.40000001
 30
0.0
 11
-38.07906273
 21
48.4
 31
0.0
  0
LINE
  8
0
  6
CONTINUOUS
 62
       7
  5
85
 10
-45.3
 20
49.4
 30
0.0
 11
-46.3
 21
48.4
 31
0.0
  0
LINE
  8
0
  6
CONTINUOUS
 62
       7
  5
86
 10
-34.7
 20
49.4
 30
0.0
 11
-33.7
 21
48.4
 31
0.0
  0
LINE
  8
0
  6
CONTINUOUS
 62
       7
  5
87
 10
-46.3
 20
48.4
 30
0.0
 11
-41.92093727
 21
48.4
 31
0.0
  0
LINE
  8
0
  6
CONTINUOUS
 62
       7
  5
88
 10
-38.07906273
 20
48.4
 30
0.0
 11
-33.80391304
 21
48.4
 31
0.0
  0
LINE
  8
0
  6
CONTINUOUS
 62
       7
  5
89
 10
-41.92093727
 20
48.4
 30
0.0
 11
-40.92093727
 21
49.4
 31
0.0
  0
LINE
  8
0
  6
CONTINUOUS
 62
       7
  5
8A
 10
-38.07906273
 20
48.4
 30
0.0
 11
-39.07906273
 21
49.4
 31
0.0
  0
LINE
  8
0
  6
CONTINUOUS
 62
       2
  5
8B
 10
-41.56658208
 20
48.75435519
 30
0.0
 11
-38.07906273
 21
42.40000001
 31
0.0
  0
LINE
  8
0
  6
CONTINUOUS
 62
       2
  5
8C
 10
-38.43341792
 20
48.75435519
 30
0.0
 11
-41.92093727
 21
42.40000001
 31
0.0
  0
LINE
  8
0
  6
CONTINUOUS
 62
       7
  5
8D
 10
-33.80391304
 20
48.4
 30
0.0
 11
-33.7
 21
48.4
 31
0.0
  0
LINE
  8
0
  6
CONTINUOUS
 62
       7
  5
8E
 10
-33.7
 20
48.37376181
 30
0.0
 11
-33.7
 21
40.5
 31
0.0
  0
LINE
  8
0
  6
CONTINUOUS
 62
       7
  5
8F
 10
-46.3
 20
48.41586039
 30
0.0
 11
-46.3
 21
40.5
 31
0.0
  0
LINE
  8
0
  6
CONTINUOUS
 62
       7
  5
90
 10
-53.0
 20
33.5
 30
0.0
 11
-27.0
 21
33.5
 31
0.0
  0
LINE
  8
0
  6
CONTINUOUS
 62
       7
  5
91
 10
-53.0
 20
18.5
 30
0.0
 11
-27.0
 21
18.5
 31
0.0
  0
LINE
  8
0
  6
CONTINUOUS
 62
       2
  5
92
 10
-27.75
 20
17.95431428
 30
0.0
 11
-27.75
 21
18.5
 31
0.0
  0
LINE
  8
0
  6
CONTINUOUS
 62
       2
  5
93
 10
-52.25
 20
17.98706679
 30
0.0
 11
-52.25
 21
18.5
 31
0.0
  0
LINE
  8
0
  6
CONTINUOUS
 62
       7
  5
94
 10
-53.0
 20
17.95431428
 30
0.0
 11
-53.0
 21
19.5
 31
0.0
  0
LINE
  8
0
  6
CONTINUOUS
 62
       2
  5
95
 10
-55.45
 20
26.0
 30
0.0
 11
-24.55
 21
26.0
 31
0.0
  0
LINE
  8
0
  6
CONTINUOUS
 62
       7
  5
96
 10
-62.5
 20
12.6
 30
0.0
 11
-17.5
 21
12.6
 31
0.0
  0
LINE
  8
0
  6
CONTINUOUS
 62
       7
  5
97
 10
-62.5
 20
10.0
 30
0.0
 11
-17.5
 21
10.0
 31
0.0
  0
LINE
  8
0
  6
CONTINUOUS
 62
       2
  5
98
 10
-40.0
 20
52.4
 30
0.0
 11
-40.0
 21
7.0
 31
0.0
  0
LINE
  8
0
  6
CONTINUOUS
 62
       7
  5
99
 10
-62.5
 20
-17.51
 30
0.0
 11
-62.5
 21
-62.5
 31
0.0
  0
LINE
  8
0
  6
CONTINUOUS
 62
       7
  5
9A
 10
-17.5
 20
-17.51
 30
0.0
 11
-17.5
 21
-62.5
 31
0.0
  0
LINE
  8
0
  6
CONTINUOUS
 62
       7
  5
9B
 10
-62.5
 20
-17.51
 30
0.0
 11
-17.5
 21
-17.51
 31
0.0
  0
LINE
  8
0
  6
CONTINUOUS
 62
       7
  5
9C
 10
-62.5
 20
-62.5
 30
0.0
 11
-17.5
 21
-62.5
 31
0.0
  0
LINE
  8
0
  6
CONTINUOUS
 62
       2
  5
9D
 10
-40.0
 20
-14.5
 30
0.0
 11
-40.0
 21
-65.5
 31
0.0
  0
LINE
  8
0
  6
CONTINUOUS
 62
       2
  5
9E
 10
-24.0
 20
-20.01
 30
0.0
 11
-24.0
 21
-28.01
 31
0.0
  0
LINE
  8
0
  6
CONTINUOUS
 62
       2
  5
9F
 10
-56.0
 20
-20.01
 30
0.0
 11
-56.0
 21
-28.01
 31
0.0
  0
LINE
  8
0
  6
CONTINUOUS
 62
       2
  5
A0
 10
-60.0
 20
-24.01
 30
0.0
 11
-52.0
 21
-24.01
 31
0.0
  0
LINE
  8
0
  6
CONTINUOUS
 62
       2
  5
A1
 10
-28.0
 20
-24.01
 30
0.0
 11
-20.0
 21
-24.01
 31
0.0
  0
LINE
  8
0
  6
CONTINUOUS
 62
       2
  5
A2
 10
-56.0
 20
-60.0
 30
0.0
 11
-56.0
 21
-52.0
 31
0.0
  0
LINE
  8
0
  6
CONTINUOUS
 62
       2
  5
A3
 10
-60.0
 20
-56.0
 30
0.0
 11
-52.0
 21
-56.0
 31
0.0
  0
LINE
  8
0
  6
CONTINUOUS
 62
       2
  5
A4
 10
-24.0
 20
-60.0
 30
0.0
 11
-24.0
 21
-52.0
 31
0.0
  0
LINE
  8
0
  6
CONTINUOUS
 62
       2
  5
A5
 10
-28.0
 20
-56.0
 30
0.0
 11
-20.0
 21
-56.0
 31
0.0
  0
CIRCLE
  8
0
  6
CONTINUOUS
 62
       7
  5
A6
 10
-40.00019791
 20
-40.0067482
 30
0.0
 40
12.25
  0
CIRCLE
  8
0
  6
CONTINUOUS
 62
       7
  5
A7
 10
-40.00019791
 20
-40.0067482
 30
0.0
 40
13.0
  0
ARC
  8
0
  6
CONTINUOUS
 62
       7
  5
A8
 10
-40.0
 20
-40.0
 30
0.0
 40
10.29672596
 50
0.01822118
 51
269.98177882
  0
CIRCLE
  8
0
  6
CONTINUOUS
 62
       7
  5
A9
 10
-56.0
 20
-24.01
 30
0.0
 40
2.75
  0
CIRCLE
  8
0
  6
CONTINUOUS
 62
       7
  5
AA
 10
-24.0
 20
-24.01
 30
0.0
 40
2.75
  0
CIRCLE
  8
0
  6
CONTINUOUS
 62
       7
  5
AB
 10
-56.0
 20
-56.0
 30
0.0
 40
2.75
  0
CIRCLE
  8
0
  6
CONTINUOUS
 62
       7
  5
AC
 10
-24.0
 20
-56.0
 30
0.0
 40
2.75
  0
ARC
  8
0
  6
CONTINUOUS
 62
       7
  5
AD
 10
-40.0
 20
-40.0
 30
0.0
 40
10.29672596
 50
269.98177882
 51
0.01822118
  0
ARC
  8
0
  6
CONTINUOUS
 62
       7
  5
AE
 10
-40.00430278
 20
-40.84640999
 30
0.0
 40
9.84897179
 50
332.68117116
 51
206.82396623
  0
CIRCLE
  8
0
  6
CONTINUOUS
 62
       7
  5
AF
 10
-40.0
 20
-40.0
 30
0.0
 40
6.29999924
  0
CIRCLE
  8
0
  6
CONTINUOUS
 62
       7
  5
B0
 10
-35.00327456
 20
-47.83976074
 30
0.0
 40
1.0
  0
ARC
  8
0
  6
CONTINUOUS
 62
       7
  5
B1
 10
-35.00327456
 20
-47.83976074
 30
0.0
 40
2.0
 50
59.84864626
 51
237.30374962
  0
ARC
  8
0
  6
CONTINUOUS
 62
       7
  5
B2
 10
-32.99413071
 20
-44.38095445
 30
0.0
 40
2.0
 50
239.84864626
 51
333.23688126
  0
ARC
  8
0
  6
CONTINUOUS
 62
       7
  5
B3
 10
-45.00327456
 20
-47.83976074
 30
0.0
 40
2.0
 50
302.69625038
 51
120.15135374
  0
CIRCLE
  8
0
  6
CONTINUOUS
 62
       7
  5
B4
 10
-45.00327456
 20
-47.83976074
 30
0.0
 40
1.0
  0
ARC
  8
0
  6
CONTINUOUS
 62
       7
  5
B5
 10
-47.01241842
 20
-44.38095445
 30
0.0
 40
2.0
 50
206.76311874
 51
300.15135374
  0
LINE
  8
0
  6
CONTINUOUS
 62
       2
  5
B6
 10
-65.5
 20
-40.0
 30
0.0
 11
-14.5
 21
-40.0
 31
0.0
  0
LINE
  8
0
  6
CONTINUOUS
 62
       7
  5
B7
 10
-138.3999939
 20
94.5
 30
0.0
 11
138.3500061
 21
94.5
 31
0.0
  0
LINE
  8
0
  6
CONTINUOUS
 62
       7
  5
B8
 10
138.3500061
 20
94.5
 30
0.0
 11
138.3500061
 21
-94.80000305
 31
0.0
  0
LINE
  8
0
  6
CONTINUOUS
 62
       7
  5
B9
 10
-138.3999939
 20
94.5
 30
0.0
 11
-138.3999939
 21
-94.80000305
 31
0.0
  0
ENDSEC
  0
EOF
