  0
SECTION
  2
HEADER
  9
$ACADVER
  1
AC1009
  9
$DWGCODEPAGE
  3
dos932
  9
$INSBASE
 10
0.0
 20
0.0
 30
0.0
  9
$EXTMIN
 10
-138.3999939
 20
-94.80000305
 30
0.0
  9
$EXTMAX
 10
138.3500061
 20
94.5
 30
0.0
  9
$LIMMIN
 10
-148.5
 20
-105.0
  9
$LIMMAX
 10
148.5
 20
105.0
  9
$ORTHOMODE
 70
       0
  9
$REGENMODE
 70
       1
  9
$FILLMODE
 70
       1
  9
$QTEXTMODE
 70
       0
  9
$MIRRTEXT
 70
       1
  9
$DRAGMODE
 70
       2
  9
$LTSCALE
 40
1.0
  9
$OSMODE
 70
       0
  9
$ATTMODE
 70
       1
  9
$TEXTSIZE
 40
3.20000005
  9
$TRACEWID
 40
0.05
  9
$TEXTSTYLE
  7
MX_NOTE_STANDARD
  9
$CLAYER
  8
0
  9
$CELTYPE
  6
CONTINUOUS
  9
$CECOLOR
 62
     256
  9
$DIMSCALE
 40
1.0
  9
$DIMASZ
 40
2.5
  9
$DIMEXO
 40
1.5
  9
$DIMDLI
 40
3.75
  9
$DIMRND
 40
0.0
  9
$DIMDLE
 40
0.0
  9
$DIMEXE
 40
1.5
  9
$DIMTP
 40
0.0
  9
$DIMTM
 40
0.0
  9
$DIMTXT
 40
3.20000005
  9
$DIMCEN
 40
2.5
  9
$DIMTSZ
 40
0.0
  9
$DIMTOL
 70
       0
  9
$DIMLIM
 70
       0
  9
$DIMTIH
 70
       0
  9
$DIMTOH
 70
       0
  9
$DIMSE1
 70
       0
  9
$DIMSE2
 70
       0
  9
$DIMTAD
 70
       1
  9
$DIMZIN
 70
       8
  9
$DIMBLK
  1

  9
$DIMASO
 70
       1
  9
$DIMSHO
 70
       1
  9
$DIMPOST
  1

  9
$DIMAPOST
  1

  9
$DIMALT
 70
       0
  9
$DIMALTD
 70
       4
  9
$DIMALTF
 40
0.03937008
  9
$DIMLFAC
 40
1.0
  9
$DIMTOFL
 70
       1
  9
$DIMTVP
 40
0.0
  9
$DIMTIX
 70
       0
  9
$DIMSOXD
 70
       0
  9
$DIMSAH
 70
       1
  9
$DIMBLK1
  1
_OPEN30
  9
$DIMBLK2
  1
_OPEN30
  9
$DIMSTYLE
  2
MXDIMSTYLE
  9
$DIMCLRD
 70
       0
  9
$DIMCLRE
 70
       0
  9
$DIMCLRT
 70
       0
  9
$DIMTFAC
 40
1.0
  9
$DIMGAP
 40
1.0
  9
$LUNITS
 70
       2
  9
$LUPREC
 70
       4
  9
$AXISMODE
 70
       0
  9
$AXISUNIT
 10
0.0
 20
0.0
  9
$SKETCHINC
 40
0.1
  9
$FILLETRAD
 40
0.0
  9
$AUNITS
 70
       0
  9
$AUPREC
 70
       0
  9
$MENU
  1
acad
  9
$ELEVATION
 40
0.0
  9
$PELEVATION
 40
0.0
  9
$THICKNESS
 40
0.0
  9
$LIMCHECK
 70
       0
  9
$BLIPMODE
 70
       1
  9
$CHAMFERA
 40
0.0
  9
$CHAMFERB
 40
0.0
  9
$SKPOLY
 70
       0
  9
$TDCREATE
 40
2454068.406724537
  9
$TDUPDATE
 40
2454068.406724537
  9
$TDINDWG
 40
0.0000000000
  9
$TDUSRTIMER
 40
0.0000000000
  9
$USRTIMER
 70
       1
  9
$ANGBASE
 50
0.0
  9
$ANGDIR
 70
       0
  9
$PDMODE
 70
       0
  9
$PDSIZE
 40
0.0
  9
$PLINEWID
 40
0.0
  9
$COORDS
 70
       1
  9
$SPLFRAME
 70
       0
  9
$SPLINETYPE
 70
       6
  9
$SPLINESEGS
 70
       8
  9
$ATTDIA
 70
       0
  9
$ATTREQ
 70
       1
  9
$HANDLING
 70
       1
  9
$HANDSEED
  5
F1
  9
$SURFTAB1
 70
       6
  9
$SURFTAB2
 70
       6
  9
$SURFTYPE
 70
       6
  9
$SURFU
 70
       6
  9
$SURFV
 70
       6
  9
$UCSNAME
  2

  9
$UCSORG
 10
0.0
 20
0.0
 30
0.0
  9
$UCSXDIR
 10
1.0
 20
0.0
 30
0.0
  9
$UCSYDIR
 10
0.0
 20
1.0
 30
0.0
  9
$PUCSNAME
  2

  9
$PUCSORG
 10
0.0
 20
0.0
 30
0.0
  9
$PUCSXDIR
 10
1.0
 20
0.0
 30
0.0
  9
$PUCSYDIR
 10
0.0
 20
1.0
 30
0.0
  9
$USERI1
 70
       0
  9
$USERI2
 70
       0
  9
$USERI3
 70
       0
  9
$USERI4
 70
       0
  9
$USERI5
 70
       0
  9
$USERR1
 40
0.0
  9
$USERR2
 40
0.0
  9
$USERR3
 40
0.0
  9
$USERR4
 40
0.0
  9
$USERR5
 40
0.0
  9
$WORLDVIEW
 70
       1
  9
$SHADEDGE
 70
       3
  9
$SHADEDIF
 70
      70
  9
$TILEMODE
 70
       1
  9
$MAXACTVP
 70
      16
  9
$PINSBASE
 10
0.0
 20
0.0
 30
0.0
  9
$PLIMCHECK
 70
       0
  9
$PEXTMIN
 10
1.00000000E+20
 20
1.00000000E+20
 30
1.00000000E+20
  9
$PEXTMAX
 10
-1.00000000E+20
 20
-1.00000000E+20
 30
-1.00000000E+20
  9
$PLIMMIN
 10
0.0
 20
0.0
  9
$PLIMMAX
 10
12.0
 20
9.0
  9
$UNITMODE
 70
       0
  9
$VISRETAIN
 70
       0
  9
$PLINEGEN
 70
       1
  9
$PSLTSCALE
 70
       0
  9
$TREEDEPTH
 70
    3020
  0
ENDSEC
  0
SECTION
  2
TABLES
  0
TABLE
  2
VPORT
 70
       1
  0
VPORT
  2
*ACTIVE
 70
       0
 10
0.0
 20
0.0
 11
1.0
 21
1.0
 12
0.0
 22
0.0
 13
0.0
 23
0.0
 14
1.0
 24
1.0
 15
0.0
 25
0.0
 16
0.0
 26
0.0
 36
1.0
 17
0.0
 27
0.0
 37
0.0
 40
212.1
 41
1.73205081
 42
50.0
 43
0.0
 44
0.0
 50
0.0
 51
0.0
 71
       0
 72
     100
 73
       1
 74
       1
 75
       0
 76
       0
 77
       0
 78
       0
  0
ENDTAB
  0
TABLE
  2
LTYPE
 70
       1
  0
LTYPE
  2
CONTINUOUS
 70
      64
  3
Solid line
 72
      65
 73
       0
 40
0.0
  0
ENDTAB
  0
TABLE
  2
LAYER
 70
       2
  0
LAYER
  2
0
 70
       0
 62
       7
  6
CONTINUOUS
  0
LAYER
  2
DEFPOINTS
 70
       0
 62
       7
  6
CONTINUOUS
  0
ENDTAB
  0
TABLE
  2
STYLE
 70
       1
  0
STYLE
  2
MX_NOTE_STANDARD
 70
       0
 40
0.0
 41
1.0
 50
0.0
 71
       0
 42
3.20000005
  3
txt.shx
  4
extfont.shx
  0
ENDTAB
  0
TABLE
  2
VIEW
 70
       0
  0
ENDTAB
  0
TABLE
  2
UCS
 70
       0
  0
ENDTAB
  0
TABLE
  2
APPID
 70
       1
  0
APPID
  2
ACAD
 70
       0
  0
ENDTAB
  0
TABLE
  2
DIMSTYLE
 70
       1
  0
DIMSTYLE
  2
MXDIMSTYLE
 70
       0
  3

  4

  5

  6
_OPEN30
  7
_OPEN30
 40
1.0
 41
2.5
 42
1.5
 43
3.75
 44
1.5
 45
0.0
 46
0.0
 47
0.0
 48
0.0
 71
       0
 72
       0
 73
       0
 74
       0
 75
       0
 76
       0
 77
       1
 78
       8
140
3.20000005
141
2.5
142
0.0
143
0.03937008
144
1.0
145
0.0
146
1.0
147
1.0
170
       0
171
       4
172
       1
173
       1
174
       0
175
       0
176
       0
177
       0
178
       0
  0
ENDTAB
  0
ENDSEC
  0
SECTION
  2
BLOCKS
  0
BLOCK
  8
0
  6
BYBLOCK
 62
       0
  5
1F
  2
_OPEN30
 70
       2
 10
0.0
 20
0.0
 30
0.0
  3
_OPEN30
  0
LINE
  8
0
  6
BYBLOCK
 62
       0
  5
20
 10
-1.0
 20
0.267949
 30
0.0
 11
0.0
 21
0.0
 31
0.0
  0
LINE
  8
0
  6
BYBLOCK
 62
       0
  5
21
 10
0.0
 20
0.0
 30
0.0
 11
-1.0
 21
-0.267949
 31
0.0
  0
LINE
  8
0
  6
BYBLOCK
 62
       0
  5
22
 10
0.0
 20
0.0
 30
0.0
 11
-1.0
 21
0.0
 31
0.0
  0
ENDBLK
  8
0
  6
BYBLOCK
 62
       0
  5
23
  0
ENDSEC
  0
SECTION
  2
ENTITIES
  0
LINE
  8
0
  6
CONTINUOUS
 62
       7
  5
24
 10
91.0
 20
58.2
 30
0.0
 11
91.0
 21
35.2
 31
0.0
  0
LINE
  8
0
  6
CONTINUOUS
 62
       2
  5
25
 10
70.0
 20
76.4375
 30
0.0
 11
70.0
 21
19.1125
 31
0.0
  0
LINE
  8
0
  6
CONTINUOUS
 62
       7
  5
26
 10
88.75
 20
69.2
 30
0.0
 11
51.25
 21
69.2
 31
0.0
  0
LINE
  8
0
  6
CONTINUOUS
 62
       7
  5
27
 10
89.75
 20
68.2
 30
0.0
 11
89.75
 21
58.2
 31
0.0
  0
LINE
  8
0
  6
CONTINUOUS
 62
       7
  5
28
 10
91.0
 20
35.2
 30
0.0
 11
49.0
 21
35.2
 31
0.0
  0
LINE
  8
0
  6
CONTINUOUS
 62
       2
  5
29
 10
94.9
 20
29.7
 30
0.0
 11
90.2375
 21
29.7
 31
0.0
  0
LINE
  8
0
  6
CONTINUOUS
 62
       7
  5
2A
 10
91.0
 20
58.2
 30
0.0
 11
49.0
 21
58.2
 31
0.0
  0
LINE
  8
0
  6
CONTINUOUS
 62
       7
  5
2B
 10
89.75
 20
68.2
 30
0.0
 11
88.75
 21
69.2
 31
0.0
  0
LINE
  8
0
  6
CONTINUOUS
 62
       7
  5
2C
 10
49.0
 20
58.2
 30
0.0
 11
49.0
 21
35.2
 31
0.0
  0
LINE
  8
0
  6
CONTINUOUS
 62
       7
  5
2D
 10
50.25
 20
68.2
 30
0.0
 11
51.25
 21
69.2
 31
0.0
  0
LINE
  8
0
  6
CONTINUOUS
 62
       7
  5
2E
 10
50.25
 20
68.2
 30
0.0
 11
50.25
 21
58.2
 31
0.0
  0
LINE
  8
0
  6
CONTINUOUS
 62
       2
  5
2F
 10
45.1
 20
29.7
 30
0.0
 11
49.7125
 21
29.7
 31
0.0
  0
LINE
  8
0
  6
CONTINUOUS
 62
       7
  5
30
 10
77.0
 20
74.5
 30
0.0
 11
63.0
 21
74.5
 31
0.0
  0
LINE
  8
0
  6
CONTINUOUS
 62
       7
  5
31
 10
91.05
 20
35.2
 30
0.0
 11
91.05
 21
24.4
 31
0.0
  0
LINE
  8
0
  6
CONTINUOUS
 62
       7
  5
32
 10
98.5
 20
21.2
 30
0.0
 11
41.5
 21
21.2
 31
0.0
  0
LINE
  8
0
  6
CONTINUOUS
 62
       7
  5
33
 10
98.5
 20
22.4
 30
0.0
 11
98.5
 21
21.2
 31
0.0
  0
LINE
  8
0
  6
CONTINUOUS
 62
       7
  5
34
 10
98.5
 20
22.4
 30
0.0
 11
41.5
 21
22.4
 31
0.0
  0
LINE
  8
0
  6
CONTINUOUS
 62
       2
  5
35
 10
91.0
 20
63.7
 30
0.0
 11
87.75
 21
63.7
 31
0.0
  0
LINE
  8
0
  6
CONTINUOUS
 62
       2
  5
36
 10
49.0
 20
63.7
 30
0.0
 11
52.5125
 21
63.7
 31
0.0
  0
LINE
  8
0
  6
CONTINUOUS
 62
       7
  5
37
 10
48.95
 20
35.2
 30
0.0
 11
48.95
 21
24.4
 31
0.0
  0
LINE
  8
0
  6
CONTINUOUS
 62
       7
  5
38
 10
41.5
 20
22.4
 30
0.0
 11
41.5
 21
21.2
 31
0.0
  0
LINE
  8
0
  6
CONTINUOUS
 62
       7
  5
39
 10
-60.5
 20
-68.5
 30
0.0
 11
-19.5125
 21
-68.5
 31
0.0
  0
LINE
  8
0
  6
CONTINUOUS
 62
       7
  5
3A
 10
-60.5
 20
-11.5125
 30
0.0
 11
-19.5125
 21
-11.5125
 31
0.0
  0
LINE
  8
0
  6
CONTINUOUS
 62
       7
  5
3B
 10
-68.5
 20
-19.5
 30
0.0
 11
-68.5
 21
-60.5
 31
0.0
  0
LINE
  8
0
  6
CONTINUOUS
 62
       7
  5
3C
 10
-11.5125
 20
-19.5
 30
0.0
 11
-11.5125
 21
-60.5
 31
0.0
  0
LINE
  8
0
  6
CONTINUOUS
 62
       2
  5
3D
 10
-71.8
 20
-40.0
 30
0.0
 11
-8.575
 21
-40.0
 31
0.0
  0
LINE
  8
0
  6
CONTINUOUS
 62
       2
  5
3E
 10
-40.0
 20
-9.6625
 30
0.0
 11
-40.0
 21
-70.55
 31
0.0
  0
LINE
  8
0
  6
CONTINUOUS
 62
       2
  5
3F
 10
-20.0125
 20
-16.0
 30
0.0
 11
-20.0125
 21
-24.0
 31
0.0
  0
LINE
  8
0
  6
CONTINUOUS
 62
       2
  5
40
 10
-24.0125
 20
-20.0
 30
0.0
 11
-16.0125
 21
-20.0
 31
0.0
  0
LINE
  8
0
  6
CONTINUOUS
 62
       2
  5
41
 10
-20.0125
 20
-64.0
 30
0.0
 11
-20.0125
 21
-56.0
 31
0.0
  0
LINE
  8
0
  6
CONTINUOUS
 62
       2
  5
42
 10
-24.0125
 20
-60.0
 30
0.0
 11
-16.0125
 21
-60.0
 31
0.0
  0
LINE
  8
0
  6
CONTINUOUS
 62
       2
  5
43
 10
-60.0
 20
-16.0
 30
0.0
 11
-60.0
 21
-24.0
 31
0.0
  0
LINE
  8
0
  6
CONTINUOUS
 62
       2
  5
44
 10
-56.0
 20
-20.0
 30
0.0
 11
-64.0
 21
-20.0
 31
0.0
  0
LINE
  8
0
  6
CONTINUOUS
 62
       2
  5
45
 10
-60.0
 20
-64.0
 30
0.0
 11
-60.0
 21
-56.0
 31
0.0
  0
LINE
  8
0
  6
CONTINUOUS
 62
       2
  5
46
 10
-56.0
 20
-60.0
 30
0.0
 11
-64.0
 21
-60.0
 31
0.0
  0
LINE
  8
0
  6
CONTINUOUS
 62
       7
  5
47
 10
89.75
 20
68.2
 30
0.0
 11
50.25
 21
68.2
 31
0.0
  0
LINE
  8
0
  6
CONTINUOUS
 62
       7
  5
48
 10
48.5
 20
33.2
 30
0.0
 11
48.5
 21
26.2
 31
0.0
  0
LINE
  8
0
  6
CONTINUOUS
 62
       7
  5
49
 10
45.9
 20
30.6
 30
0.0
 11
45.9
 21
28.8
 31
0.0
  0
LINE
  8
0
  6
CONTINUOUS
 62
       7
  5
4A
 10
48.5
 20
33.2
 30
0.0
 11
48.95
 21
33.2
 31
0.0
  0
LINE
  8
0
  6
CONTINUOUS
 62
       7
  5
4B
 10
48.5
 20
26.2
 30
0.0
 11
48.95
 21
26.2
 31
0.0
  0
LINE
  8
0
  6
CONTINUOUS
 62
       2
  5
4C
 10
74.1375
 20
29.7
 30
0.0
 11
65.7625
 21
29.7
 31
0.0
  0
LINE
  8
0
  6
CONTINUOUS
 62
       7
  5
4D
 10
68.87489835
 20
28.58078894
 30
0.0
 11
71.26239835
 21
30.95578894
 31
0.0
  0
LINE
  8
0
  6
CONTINUOUS
 62
       7
  5
4E
 10
68.71239835
 20
30.98078894
 30
0.0
 11
71.07489835
 21
28.63078894
 31
0.0
  0
LINE
  8
0
  6
CONTINUOUS
 62
       7
  5
4F
 10
91.5
 20
33.2
 30
0.0
 11
91.5
 21
26.2
 31
0.0
  0
LINE
  8
0
  6
CONTINUOUS
 62
       7
  5
50
 10
91.5
 20
26.2
 30
0.0
 11
91.05
 21
26.2
 31
0.0
  0
LINE
  8
0
  6
CONTINUOUS
 62
       7
  5
51
 10
91.5
 20
33.2
 30
0.0
 11
91.05
 21
33.2
 31
0.0
  0
LINE
  8
0
  6
CONTINUOUS
 62
       7
  5
52
 10
94.1
 20
30.6
 30
0.0
 11
94.1
 21
28.8
 31
0.0
  0
LINE
  8
0
  6
CONTINUOUS
 62
       2
  5
53
 10
73.0
 20
63.7
 30
0.0
 11
67.0
 21
63.7
 31
0.0
  0
LINE
  8
0
  6
CONTINUOUS
 62
       7
  5
54
 10
-19.0125
 20
57.0
 30
0.0
 11
-19.0125
 21
34.0
 31
0.0
  0
LINE
  8
0
  6
CONTINUOUS
 62
       2
  5
55
 10
-40.0
 20
75.2375
 30
0.0
 11
-40.0
 21
17.9125
 31
0.0
  0
LINE
  8
0
  6
CONTINUOUS
 62
       7
  5
56
 10
-21.2625
 20
68.0
 30
0.0
 11
-58.75
 21
68.0
 31
0.0
  0
LINE
  8
0
  6
CONTINUOUS
 62
       7
  5
57
 10
-20.2625
 20
67.0
 30
0.0
 11
-20.2625
 21
57.0
 31
0.0
  0
LINE
  8
0
  6
CONTINUOUS
 62
       2
  5
58
 10
-17.51017263
 20
45.5
 30
0.0
 11
-62.48982737
 21
45.5
 31
0.0
  0
LINE
  8
0
  6
CONTINUOUS
 62
       7
  5
59
 10
-19.0125
 20
34.0
 30
0.0
 11
-61.0
 21
34.0
 31
0.0
  0
LINE
  8
0
  6
CONTINUOUS
 62
       2
  5
5A
 10
-15.1125
 20
28.5
 30
0.0
 11
-19.775
 21
28.5
 31
0.0
  0
LINE
  8
0
  6
CONTINUOUS
 62
       7
  5
5B
 10
-19.0125
 20
57.0
 30
0.0
 11
-61.0
 21
57.0
 31
0.0
  0
LINE
  8
0
  6
CONTINUOUS
 62
       7
  5
5C
 10
-20.2625
 20
67.0
 30
0.0
 11
-21.2625
 21
68.0
 31
0.0
  0
LINE
  8
0
  6
CONTINUOUS
 62
       7
  5
5D
 10
-61.0
 20
57.0
 30
0.0
 11
-61.0
 21
34.0
 31
0.0
  0
LINE
  8
0
  6
CONTINUOUS
 62
       7
  5
5E
 10
-59.75
 20
67.0
 30
0.0
 11
-58.75
 21
68.0
 31
0.0
  0
LINE
  8
0
  6
CONTINUOUS
 62
       7
  5
5F
 10
-59.75
 20
67.0
 30
0.0
 11
-59.75
 21
57.0
 31
0.0
  0
LINE
  8
0
  6
CONTINUOUS
 62
       2
  5
60
 10
-64.9
 20
28.5
 30
0.0
 11
-60.2875
 21
28.5
 31
0.0
  0
LINE
  8
0
  6
CONTINUOUS
 62
       7
  5
61
 10
-31.2625
 20
73.3
 30
0.0
 11
-48.75
 21
73.3
 31
0.0
  0
LINE
  8
0
  6
CONTINUOUS
 62
       7
  5
62
 10
-31.2625
 20
73.3
 30
0.0
 11
-31.2625
 21
68.0
 31
0.0
  0
LINE
  8
0
  6
CONTINUOUS
 62
       7
  5
63
 10
-48.75
 20
73.3
 30
0.0
 11
-48.75
 21
68.0
 31
0.0
  0
LINE
  8
0
  6
CONTINUOUS
 62
       7
  5
64
 10
-34.7625
 20
73.3
 30
0.0
 11
-34.7625
 21
68.0
 31
0.0
  0
LINE
  8
0
  6
CONTINUOUS
 62
       7
  5
65
 10
-45.25
 20
73.3
 30
0.0
 11
-45.25
 21
68.0
 31
0.0
  0
LINE
  8
0
  6
CONTINUOUS
 62
       7
  5
66
 10
-18.9625
 20
34.0
 30
0.0
 11
-18.9625
 21
23.2
 31
0.0
  0
LINE
  8
0
  6
CONTINUOUS
 62
       7
  5
67
 10
-11.5125
 20
20.0
 30
0.0
 11
-68.5
 21
20.0
 31
0.0
  0
LINE
  8
0
  6
CONTINUOUS
 62
       7
  5
68
 10
-11.5125
 20
21.2
 30
0.0
 11
-11.5125
 21
20.0
 31
0.0
  0
LINE
  8
0
  6
CONTINUOUS
 62
       7
  5
69
 10
-11.5125
 20
21.2
 30
0.0
 11
-68.5
 21
21.2
 31
0.0
  0
LINE
  8
0
  6
CONTINUOUS
 62
       2
  5
6A
 10
-19.0125
 20
62.5
 30
0.0
 11
-21.5
 21
62.5
 31
0.0
  0
LINE
  8
0
  6
CONTINUOUS
 62
       2
  5
6B
 10
-61.0
 20
62.5
 30
0.0
 11
-57.4875
 21
62.5
 31
0.0
  0
LINE
  8
0
  6
CONTINUOUS
 62
       7
  5
6C
 10
-61.05
 20
34.0
 30
0.0
 11
-61.05
 21
23.2
 31
0.0
  0
LINE
  8
0
  6
CONTINUOUS
 62
       7
  5
6D
 10
-68.5
 20
21.2
 30
0.0
 11
-68.5
 21
20.0
 31
0.0
  0
LINE
  8
0
  6
CONTINUOUS
 62
       2
  5
6E
 10
-43.3125
 20
68.0
 30
0.0
 11
-34.7625
 21
73.3
 31
0.0
  0
LINE
  8
0
  6
CONTINUOUS
 62
       2
  5
6F
 10
-36.7
 20
68.0
 30
0.0
 11
-45.25
 21
73.3
 31
0.0
  0
LINE
  8
0
  6
CONTINUOUS
 62
       7
  5
70
 10
-20.2625
 20
67.0
 30
0.0
 11
-59.75
 21
67.0
 31
0.0
  0
LINE
  8
0
  6
CONTINUOUS
 62
       7
  5
71
 10
-61.5
 20
32.0
 30
0.0
 11
-61.5
 21
25.0
 31
0.0
  0
LINE
  8
0
  6
CONTINUOUS
 62
       7
  5
72
 10
-64.1
 20
29.4
 30
0.0
 11
-64.1
 21
27.6
 31
0.0
  0
LINE
  8
0
  6
CONTINUOUS
 62
       7
  5
73
 10
-61.5
 20
32.0
 30
0.0
 11
-61.05
 21
32.0
 31
0.0
  0
LINE
  8
0
  6
CONTINUOUS
 62
       7
  5
74
 10
-61.5
 20
25.0
 30
0.0
 11
-61.05
 21
25.0
 31
0.0
  0
LINE
  8
0
  6
CONTINUOUS
 62
       2
  5
75
 10
-35.875
 20
28.5
 30
0.0
 11
-44.2375
 21
28.5
 31
0.0
  0
LINE
  8
0
  6
CONTINUOUS
 62
       7
  5
76
 10
-41.12168635
 20
27.38418635
 30
0.0
 11
-38.73418635
 21
29.75918635
 31
0.0
  0
LINE
  8
0
  6
CONTINUOUS
 62
       7
  5
77
 10
-41.28418635
 20
29.78418635
 30
0.0
 11
-38.93418635
 21
27.43418635
 31
0.0
  0
LINE
  8
0
  6
CONTINUOUS
 62
       7
  5
78
 10
-18.5125
 20
32.0
 30
0.0
 11
-18.5125
 21
25.0
 31
0.0
  0
LINE
  8
0
  6
CONTINUOUS
 62
       7
  5
79
 10
-18.5125
 20
25.0
 30
0.0
 11
-18.9625
 21
25.0
 31
0.0
  0
LINE
  8
0
  6
CONTINUOUS
 62
       7
  5
7A
 10
-18.5125
 20
32.0
 30
0.0
 11
-18.9625
 21
32.0
 31
0.0
  0
LINE
  8
0
  6
CONTINUOUS
 62
       7
  5
7B
 10
-15.9125
 20
29.4
 30
0.0
 11
-15.9125
 21
27.6
 31
0.0
  0
LINE
  8
0
  6
CONTINUOUS
 62
       2
  5
7C
 10
-37.0
 20
62.5
 30
0.0
 11
-43.0
 21
62.5
 31
0.0
  0
LINE
  8
0
  6
CONTINUOUS
 62
       7
  5
7D
 10
77.0
 20
74.5
 30
0.0
 11
77.0
 21
69.2
 31
0.0
  0
LINE
  8
0
  6
CONTINUOUS
 62
       7
  5
7E
 10
63.0
 20
74.5
 30
0.0
 11
63.0
 21
69.2
 31
0.0
  0
LINE
  8
0
  6
CONTINUOUS
 62
       2
  5
7F
 10
42.52741047
 20
46.7
 30
0.0
 11
97.15367309
 21
46.7
 31
0.0
  0
LINE
  8
0
  6
CONTINUOUS
 62
       7
  5
80
 10
-27.425
 20
-41.0
 30
0.0
 11
-32.1625
 21
-41.0
 31
0.0
  0
LINE
  8
0
  6
CONTINUOUS
 62
       7
  5
81
 10
-27.425
 20
-39.0
 30
0.0
 11
-32.1625
 21
-39.0
 31
0.0
  0
LINE
  8
0
  6
CONTINUOUS
 62
       7
  5
82
 10
-32.6625
 20
-39.5
 30
0.0
 11
-32.6625
 21
-40.5
 31
0.0
  0
LINE
  8
0
  6
CONTINUOUS
 62
       7
  5
83
 10
-32.1625
 20
-39.0
 30
0.0
 11
-32.6625
 21
-39.5
 31
0.0
  0
LINE
  8
0
  6
CONTINUOUS
 62
       7
  5
84
 10
-32.1625
 20
-41.0
 30
0.0
 11
-32.6625
 21
-40.5
 31
0.0
  0
LINE
  8
0
  6
CONTINUOUS
 62
       7
  5
85
 10
-39.0
 20
-27.4125
 30
0.0
 11
-39.0
 21
-32.15
 31
0.0
  0
LINE
  8
0
  6
CONTINUOUS
 62
       7
  5
86
 10
-39.0
 20
-32.15
 30
0.0
 11
-39.5
 21
-32.65
 31
0.0
  0
LINE
  8
0
  6
CONTINUOUS
 62
       7
  5
87
 10
-40.5
 20
-32.65
 30
0.0
 11
-39.5
 21
-32.65
 31
0.0
  0
LINE
  8
0
  6
CONTINUOUS
 62
       7
  5
88
 10
-41.0
 20
-32.15
 30
0.0
 11
-40.5
 21
-32.65
 31
0.0
  0
LINE
  8
0
  6
CONTINUOUS
 62
       7
  5
89
 10
-41.0
 20
-27.4125
 30
0.0
 11
-41.0
 21
-32.15
 31
0.0
  0
LINE
  8
0
  6
CONTINUOUS
 62
       7
  5
8A
 10
-52.5875
 20
-39.0
 30
0.0
 11
-47.85
 21
-39.0
 31
0.0
  0
LINE
  8
0
  6
CONTINUOUS
 62
       7
  5
8B
 10
-47.85
 20
-39.0
 30
0.0
 11
-47.35
 21
-39.5
 31
0.0
  0
LINE
  8
0
  6
CONTINUOUS
 62
       7
  5
8C
 10
-47.35
 20
-40.5
 30
0.0
 11
-47.35
 21
-39.5
 31
0.0
  0
LINE
  8
0
  6
CONTINUOUS
 62
       7
  5
8D
 10
-47.85
 20
-41.0
 30
0.0
 11
-47.35
 21
-40.5
 31
0.0
  0
LINE
  8
0
  6
CONTINUOUS
 62
       7
  5
8E
 10
-52.5875
 20
-41.0
 30
0.0
 11
-47.85
 21
-41.0
 31
0.0
  0
LINE
  8
0
  6
CONTINUOUS
 62
       7
  5
8F
 10
-41.0
 20
-52.5875
 30
0.0
 11
-41.0
 21
-47.85
 31
0.0
  0
LINE
  8
0
  6
CONTINUOUS
 62
       7
  5
90
 10
-41.0
 20
-47.85
 30
0.0
 11
-40.5
 21
-47.35
 31
0.0
  0
LINE
  8
0
  6
CONTINUOUS
 62
       7
  5
91
 10
-39.5
 20
-47.35
 30
0.0
 11
-40.5
 21
-47.35
 31
0.0
  0
LINE
  8
0
  6
CONTINUOUS
 62
       7
  5
92
 10
-39.0
 20
-47.85
 30
0.0
 11
-39.5
 21
-47.35
 31
0.0
  0
LINE
  8
0
  6
CONTINUOUS
 62
       7
  5
93
 10
-39.0
 20
-52.5875
 30
0.0
 11
-39.0
 21
-47.85
 31
0.0
  0
CIRCLE
  8
0
  6
CONTINUOUS
 62
       7
  5
94
 10
70.0
 20
46.7
 30
0.0
 40
5.49999952
  0
CIRCLE
  8
0
  6
CONTINUOUS
 62
       2
  5
95
 10
70.0
 20
46.7
 30
0.0
 40
6.49999976
  0
ARC
  8
0
  6
CONTINUOUS
 62
       7
  5
96
 10
93.05832991
 20
24.40832991
 30
0.0
 40
2.00834719
 50
180.23764326
 51
269.76235674
  0
ARC
  8
0
  6
CONTINUOUS
 62
       7
  5
97
 10
46.94853644
 20
24.40146356
 30
0.0
 40
2.0014641
 50
270.04189733
 51
359.95810267
  0
ARC
  8
0
  6
CONTINUOUS
 62
       7
  5
98
 10
-19.50584369
 20
-19.50584305
 30
0.0
 40
7.99334582
 50
0.04188261
 51
90.04771202
  0
ARC
  8
0
  6
CONTINUOUS
 62
       7
  5
99
 10
-19.50601002
 20
-60.50648998
 30
0.0
 40
7.99351265
 50
269.9534812
 51
0.0465188
  0
ARC
  8
0
  6
CONTINUOUS
 62
       7
  5
9A
 10
-60.50583648
 20
-60.50583648
 30
0.0
 40
7.99416565
 50
179.95816876
 51
270.04183124
  0
ARC
  8
0
  6
CONTINUOUS
 62
       7
  5
9B
 10
-60.50600382
 20
-19.50649656
 30
0.0
 40
7.99399882
 50
89.95696851
 51
179.95343686
  0
CIRCLE
  8
0
  6
CONTINUOUS
 62
       7
  5
9C
 10
-20.0125
 20
-20.0
 30
0.0
 40
2.74999976
  0
CIRCLE
  8
0
  6
CONTINUOUS
 62
       7
  5
9D
 10
-20.0125
 20
-60.0
 30
0.0
 40
2.74999976
  0
CIRCLE
  8
0
  6
CONTINUOUS
 62
       7
  5
9E
 10
-60.0
 20
-20.0
 30
0.0
 40
2.74999976
  0
CIRCLE
  8
0
  6
CONTINUOUS
 62
       7
  5
9F
 10
-60.0
 20
-60.0
 30
0.0
 40
2.74999976
  0
CIRCLE
  8
0
  6
CONTINUOUS
 62
       7
  5
A0
 10
-40.0
 20
-40.0
 30
0.0
 40
19.85000014
  0
CIRCLE
  8
0
  6
CONTINUOUS
 62
       7
  5
A1
 10
-40.0
 20
-40.0
 30
0.0
 40
15.95000029
  0
CIRCLE
  8
0
  6
CONTINUOUS
 62
       7
  5
A2
 10
-40.0
 20
-40.0
 30
0.0
 40
18.75
  0
CIRCLE
  8
0
  6
CONTINUOUS
 62
       7
  5
A3
 10
-40.0
 20
-40.0
 30
0.0
 40
6.3499999
  0
ARC
  8
0
  6
CONTINUOUS
 62
       7
  5
A4
 10
-40.00546181
 20
-41.50606758
 30
0.0
 40
14.74122138
 50
318.88236606
 51
221.18215621
  0
CIRCLE
  8
0
  6
CONTINUOUS
 62
       7
  5
A5
 10
-34.12144742
 20
-52.72047653
 30
0.0
 40
1.25
  0
CIRCLE
  8
0
  6
CONTINUOUS
 62
       7
  5
A6
 10
-45.88975749
 20
-52.72047653
 30
0.0
 40
1.25
  0
ARC
  8
0
  6
CONTINUOUS
 62
       7
  5
A7
 10
48.50683684
 20
28.80683684
 30
0.0
 40
2.60684581
 50
180.15026685
 51
269.84973315
  0
ARC
  8
0
  6
CONTINUOUS
 62
       7
  5
A8
 10
48.49706481
 20
30.60293519
 30
0.0
 40
2.59706646
 50
89.93524451
 51
180.06475549
  0
CIRCLE
  8
0
  6
CONTINUOUS
 62
       7
  5
A9
 10
70.0
 20
29.7
 30
0.0
 40
3.49999905
  0
ARC
  8
0
  6
CONTINUOUS
 62
       7
  5
AA
 10
91.500039
 20
28.799961
 30
0.0
 40
2.599961
 50
269.99914058
 51
0.00085942
  0
ARC
  8
0
  6
CONTINUOUS
 62
       7
  5
AB
 10
91.50983696
 20
30.60983696
 30
0.0
 40
2.59018172
 50
359.78240229
 51
90.21759771
  0
CIRCLE
  8
0
  6
CONTINUOUS
 62
       2
  5
AC
 10
70.0
 20
63.7
 30
0.0
 40
1.99999928
  0
CIRCLE
  8
0
  6
CONTINUOUS
 62
       7
  5
AD
 10
70.0
 20
63.7
 30
0.0
 40
1.49999976
  0
CIRCLE
  8
0
  6
CONTINUOUS
 62
       7
  5
AE
 10
-40.0
 20
45.5
 30
0.0
 40
5.49999952
  0
CIRCLE
  8
0
  6
CONTINUOUS
 62
       2
  5
AF
 10
-40.0
 20
45.5
 30
0.0
 40
6.49999976
  0
ARC
  8
0
  6
CONTINUOUS
 62
       7
  5
B0
 10
-16.95417009
 20
23.20832991
 30
0.0
 40
2.00834719
 50
180.23764326
 51
269.76235674
  0
ARC
  8
0
  6
CONTINUOUS
 62
       7
  5
B1
 10
-63.05769725
 20
23.20769725
 30
0.0
 40
2.007712
 50
270.21966347
 51
359.78033653
  0
ARC
  8
0
  6
CONTINUOUS
 62
       7
  5
B2
 10
-61.49938907
 20
27.60061093
 30
0.0
 40
2.600611
 50
180.01345977
 51
269.98654023
  0
ARC
  8
0
  6
CONTINUOUS
 62
       7
  5
B3
 10
-61.50918458
 20
29.40918458
 30
0.0
 40
2.5908317
 50
89.79688427
 51
180.20311573
  0
CIRCLE
  8
0
  6
CONTINUOUS
 62
       7
  5
B4
 10
-40.0
 20
28.5
 30
0.0
 40
3.49999905
  0
ARC
  8
0
  6
CONTINUOUS
 62
       7
  5
B5
 10
-18.512461
 20
27.599961
 30
0.0
 40
2.599961
 50
269.99914058
 51
0.00085942
  0
ARC
  8
0
  6
CONTINUOUS
 62
       7
  5
B6
 10
-18.50266304
 20
29.40983696
 30
0.0
 40
2.59018172
 50
359.78240229
 51
90.21759771
  0
CIRCLE
  8
0
  6
CONTINUOUS
 62
       2
  5
B7
 10
-40.0
 20
62.5
 30
0.0
 40
1.99999928
  0
CIRCLE
  8
0
  6
CONTINUOUS
 62
       7
  5
B8
 10
-40.0
 20
62.5
 30
0.0
 40
1.49999976
  0
ARC
  8
0
  6
CONTINUOUS
 62
       7
  5
B9
 10
-39.98522945
 20
-39.99667738
 30
0.0
 40
13.74170723
 50
289.65777843
 51
299.76857533
  0
ARC
  8
0
  6
CONTINUOUS
 62
       7
  5
BA
 10
-40.00670733
 20
-39.99635319
 30
0.0
 40
13.74705541
 50
140.48838247
 51
232.56765729
  0
ARC
  8
0
  6
CONTINUOUS
 62
       7
  5
BB
 10
-27.41495273
 20
-38.00786274
 30
0.0
 40
0.99218814
 50
269.41979142
 51
9.88691175
  0
ARC
  8
0
  6
CONTINUOUS
 62
       7
  5
BC
 10
-27.42098669
 20
-41.99726289
 30
0.0
 40
0.99727096
 50
350.46272115
 51
90.23057568
  0
ARC
  8
0
  6
CONTINUOUS
 62
       7
  5
BD
 10
-42.00425948
 20
-27.41780431
 30
0.0
 40
1.00427349
 50
0.3026227
 51
37.96466372
  0
ARC
  8
0
  6
CONTINUOUS
 62
       7
  5
BE
 10
-38.00574174
 20
-27.4143345
 30
0.0
 40
0.99425995
 50
141.83842947
 51
179.89428412
  0
ARC
  8
0
  6
CONTINUOUS
 62
       7
  5
BF
 10
-52.59076222
 20
-41.99790091
 30
0.0
 40
0.99790625
 50
89.81269632
 51
189.49400685
  0
ARC
  8
0
  6
CONTINUOUS
 62
       7
  5
C0
 10
-52.59678998
 20
-38.00721944
 30
0.0
 40
0.99282402
 50
170.15716518
 51
270.53613165
  0
ARC
  8
0
  6
CONTINUOUS
 62
       7
  5
C1
 10
-38.00826681
 20
-52.59594046
 30
0.0
 40
0.99176911
 50
179.5123776
 51
279.18253622
  0
ARC
  8
0
  6
CONTINUOUS
 62
       7
  5
C2
 10
-41.99746462
 20
-52.59127583
 30
0.0
 40
0.99747177
 50
260.47640903
 51
0.2168878
  0
ARC
  8
0
  6
CONTINUOUS
 62
       7
  5
C3
 10
-40.0270417
 20
-39.9961801
 30
0.0
 40
13.74225251
 50
240.23162579
 51
250.34202045
  0
ARC
  8
0
  6
CONTINUOUS
 62
       7
  5
C4
 10
-39.99782
 20
-40.00604137
 30
0.0
 40
13.74072066
 50
255.55693807
 51
284.85526001
  0
ARC
  8
0
  6
CONTINUOUS
 62
       7
  5
C5
 10
-40.00450484
 20
-39.99650056
 30
0.0
 40
13.74615564
 50
307.42845359
 51
39.51550665
  0
POLYLINE
  8
0
  6
CONTINUOUS
 62
       7
  5
C6
 66
       1
 10
0.0
 20
0.0
 30
0.0
  0
VERTEX
  8
0
  6
CONTINUOUS
 62
       7
  5
CE
 10
-28.88646611
 20
-51.20244637
 30
0.0
  0
VERTEX
  8
0
  6
CONTINUOUS
 62
       7
  5
CF
 10
-29.55458058
 20
-51.41168608
 30
0.0
  0
VERTEX
  8
0
  6
CONTINUOUS
 62
       7
  5
D0
 10
-30.2375
 20
-51.4625
 30
0.0
  0
VERTEX
  8
0
  6
CONTINUOUS
 62
       7
  5
D1
 10
-30.99881127
 20
-51.25451836
 30
0.0
  0
VERTEX
  8
0
  6
CONTINUOUS
 62
       7
  5
D2
 10
-31.72982226
 20
-50.87760718
 30
0.0
  0
VERTEX
  8
0
  6
CONTINUOUS
 62
       7
  5
D3
 10
-32.4625
 20
-50.5
 30
0.0
  0
VERTEX
  8
0
  6
CONTINUOUS
 62
       7
  5
D4
 10
-33.32708928
 20
-50.24374735
 30
0.0
  0
VERTEX
  8
0
  6
CONTINUOUS
 62
       7
  5
D5
 10
-34.2625
 20
-50.2125
 30
0.0
  0
VERTEX
  8
0
  6
CONTINUOUS
 62
       7
  5
D6
 10
-35.23486447
 20
-50.40727602
 30
0.0
  0
VERTEX
  8
0
  6
CONTINUOUS
 62
       7
  5
D7
 10
-36.09294581
 20
-50.82314677
 30
0.0
  0
VERTEX
  8
0
  6
CONTINUOUS
 62
       7
  5
D8
 10
-36.625
 20
-51.4625
 30
0.0
  0
VERTEX
  8
0
  6
CONTINUOUS
 62
       7
  5
D9
 10
-36.69882851
 20
-52.32555968
 30
0.0
  0
VERTEX
  8
0
  6
CONTINUOUS
 62
       7
  5
DA
 10
-36.4875
 20
-53.275
 30
0.0
  0
VERTEX
  8
0
  6
CONTINUOUS
 62
       7
  5
DB
 10
-36.26464694
 20
-54.01125127
 30
0.0
  0
VERTEX
  8
0
  6
CONTINUOUS
 62
       7
  5
DC
 10
-36.01438665
 20
-54.7061853
 30
0.0
  0
VERTEX
  8
0
  6
CONTINUOUS
 62
       7
  5
DD
 10
-35.72036614
 20
-55.36487379
 30
0.0
  0
SEQEND
  8
0
  6
CONTINUOUS
 62
       7
  5
DE
  0
POLYLINE
  8
0
  6
CONTINUOUS
 62
       7
  5
C7
 66
       1
 10
0.0
 20
0.0
 30
0.0
  0
VERTEX
  8
0
  6
CONTINUOUS
 62
       7
  5
DF
 10
-51.12603389
 20
-51.20244637
 30
0.0
  0
VERTEX
  8
0
  6
CONTINUOUS
 62
       7
  5
E0
 10
-50.45791942
 20
-51.41168608
 30
0.0
  0
VERTEX
  8
0
  6
CONTINUOUS
 62
       7
  5
E1
 10
-49.775
 20
-51.4625
 30
0.0
  0
VERTEX
  8
0
  6
CONTINUOUS
 62
       7
  5
E2
 10
-49.01368873
 20
-51.25451836
 30
0.0
  0
VERTEX
  8
0
  6
CONTINUOUS
 62
       7
  5
E3
 10
-48.28267774
 20
-50.87760718
 30
0.0
  0
VERTEX
  8
0
  6
CONTINUOUS
 62
       7
  5
E4
 10
-47.55
 20
-50.5
 30
0.0
  0
VERTEX
  8
0
  6
CONTINUOUS
 62
       7
  5
E5
 10
-46.68541072
 20
-50.24374735
 30
0.0
  0
VERTEX
  8
0
  6
CONTINUOUS
 62
       7
  5
E6
 10
-45.75
 20
-50.2125
 30
0.0
  0
VERTEX
  8
0
  6
CONTINUOUS
 62
       7
  5
E7
 10
-44.77763553
 20
-50.40727602
 30
0.0
  0
VERTEX
  8
0
  6
CONTINUOUS
 62
       7
  5
E8
 10
-43.91955419
 20
-50.82314677
 30
0.0
  0
VERTEX
  8
0
  6
CONTINUOUS
 62
       7
  5
E9
 10
-43.3875
 20
-51.4625
 30
0.0
  0
VERTEX
  8
0
  6
CONTINUOUS
 62
       7
  5
EA
 10
-43.31367149
 20
-52.32555968
 30
0.0
  0
VERTEX
  8
0
  6
CONTINUOUS
 62
       7
  5
EB
 10
-43.525
 20
-53.275
 30
0.0
  0
VERTEX
  8
0
  6
CONTINUOUS
 62
       7
  5
EC
 10
-43.74785319
 20
-54.01125166
 30
0.0
  0
VERTEX
  8
0
  6
CONTINUOUS
 62
       7
  5
ED
 10
-43.99811364
 20
-54.70618606
 30
0.0
  0
VERTEX
  8
0
  6
CONTINUOUS
 62
       7
  5
EE
 10
-44.29213438
 20
-55.36487486
 30
0.0
  0
SEQEND
  8
0
  6
CONTINUOUS
 62
       7
  5
EF
  0
TEXT
  8
0
  6
CONTINUOUS
 62
       7
  5
C8
 10
-129.44347217
 20
82.89999998
 30
0.0
 40
3.20000005
  1
MODEL:VA250A
 41
1.04347826
  7
MX_NOTE_STANDARD
 11
-129.44347217
 21
84.5
 31
0.0
 73
       2
  0
LINE
  8
0
  6
CONTINUOUS
 62
       7
  5
C9
 10
-138.3999939
 20
-94.80000305
 30
0.0
 11
138.3500061
 21
-94.80000305
 31
0.0
  0
LINE
  8
0
  6
CONTINUOUS
 62
       7
  5
CA
 10
-138.3999939
 20
94.5
 30
0.0
 11
138.3500061
 21
94.5
 31
0.0
  0
LINE
  8
0
  6
CONTINUOUS
 62
       7
  5
CB
 10
138.3500061
 20
94.5
 30
0.0
 11
138.3500061
 21
-94.80000305
 31
0.0
  0
LINE
  8
0
  6
CONTINUOUS
 62
       7
  5
CC
 10
-138.3999939
 20
94.5
 30
0.0
 11
-138.3999939
 21
-94.80000305
 31
0.0
  0
ENDSEC
  0
EOF
