  0
SECTION
  2
HEADER
  9
$ACADVER
  1
AC1009
  9
$DWGCODEPAGE
  3
dos932
  9
$INSBASE
 10
0.0
 20
0.0
 30
0.0
  9
$EXTMIN
 10
-138.3999939
 20
-94.80000305
 30
0.0
  9
$EXTMAX
 10
138.3500061
 20
94.5
 30
0.0
  9
$LIMMIN
 10
-138.3999939
 20
-94.80000305
  9
$LIMMAX
 10
138.3500061
 20
94.5
  9
$ORTHOMODE
 70
       0
  9
$REGENMODE
 70
       1
  9
$FILLMODE
 70
       1
  9
$QTEXTMODE
 70
       0
  9
$MIRRTEXT
 70
       1
  9
$DRAGMODE
 70
       2
  9
$LTSCALE
 40
1.0
  9
$OSMODE
 70
       0
  9
$ATTMODE
 70
       1
  9
$TEXTSIZE
 40
3.20000005
  9
$TRACEWID
 40
0.05
  9
$TEXTSTYLE
  7
MX_NOTE_STANDARD
  9
$CLAYER
  8
0
  9
$CELTYPE
  6
CONTINUOUS
  9
$CECOLOR
 62
     256
  9
$DIMSCALE
 40
1.0
  9
$DIMASZ
 40
2.5
  9
$DIMEXO
 40
1.5
  9
$DIMDLI
 40
3.75
  9
$DIMRND
 40
0.0
  9
$DIMDLE
 40
0.0
  9
$DIMEXE
 40
1.5
  9
$DIMTP
 40
0.0
  9
$DIMTM
 40
0.0
  9
$DIMTXT
 40
3.20000005
  9
$DIMCEN
 40
2.5
  9
$DIMTSZ
 40
0.0
  9
$DIMTOL
 70
       0
  9
$DIMLIM
 70
       0
  9
$DIMTIH
 70
       0
  9
$DIMTOH
 70
       0
  9
$DIMSE1
 70
       0
  9
$DIMSE2
 70
       0
  9
$DIMTAD
 70
       1
  9
$DIMZIN
 70
       8
  9
$DIMBLK
  1

  9
$DIMASO
 70
       1
  9
$DIMSHO
 70
       1
  9
$DIMPOST
  1

  9
$DIMAPOST
  1

  9
$DIMALT
 70
       0
  9
$DIMALTD
 70
       4
  9
$DIMALTF
 40
0.03937008
  9
$DIMLFAC
 40
1.0
  9
$DIMTOFL
 70
       1
  9
$DIMTVP
 40
0.0
  9
$DIMTIX
 70
       0
  9
$DIMSOXD
 70
       0
  9
$DIMSAH
 70
       0
  9
$DIMBLK1
  1

  9
$DIMBLK2
  1

  9
$DIMSTYLE
  2
MXDIMSTYLE
  9
$DIMCLRD
 70
       0
  9
$DIMCLRE
 70
       0
  9
$DIMCLRT
 70
       0
  9
$DIMTFAC
 40
1.0
  9
$DIMGAP
 40
1.0
  9
$LUNITS
 70
       2
  9
$LUPREC
 70
       4
  9
$AXISMODE
 70
       0
  9
$AXISUNIT
 10
0.0
 20
0.0
  9
$SKETCHINC
 40
0.1
  9
$FILLETRAD
 40
0.0
  9
$AUNITS
 70
       0
  9
$AUPREC
 70
       0
  9
$MENU
  1
acad
  9
$ELEVATION
 40
0.0
  9
$PELEVATION
 40
0.0
  9
$THICKNESS
 40
0.0
  9
$LIMCHECK
 70
       0
  9
$BLIPMODE
 70
       1
  9
$CHAMFERA
 40
0.0
  9
$CHAMFERB
 40
0.0
  9
$SKPOLY
 70
       0
  9
$TDCREATE
 40
2453657.794837963
  9
$TDUPDATE
 40
2453657.794837963
  9
$TDINDWG
 40
0.0000000000
  9
$TDUSRTIMER
 40
0.0000000000
  9
$USRTIMER
 70
       1
  9
$ANGBASE
 50
0.0
  9
$ANGDIR
 70
       0
  9
$PDMODE
 70
       0
  9
$PDSIZE
 40
0.0
  9
$PLINEWID
 40
0.0
  9
$COORDS
 70
       1
  9
$SPLFRAME
 70
       0
  9
$SPLINETYPE
 70
       6
  9
$SPLINESEGS
 70
       8
  9
$ATTDIA
 70
       0
  9
$ATTREQ
 70
       1
  9
$HANDLING
 70
       1
  9
$HANDSEED
  5
253
  9
$SURFTAB1
 70
       6
  9
$SURFTAB2
 70
       6
  9
$SURFTYPE
 70
       6
  9
$SURFU
 70
       6
  9
$SURFV
 70
       6
  9
$UCSNAME
  2

  9
$UCSORG
 10
0.0
 20
0.0
 30
0.0
  9
$UCSXDIR
 10
1.0
 20
0.0
 30
0.0
  9
$UCSYDIR
 10
0.0
 20
1.0
 30
0.0
  9
$PUCSNAME
  2

  9
$PUCSORG
 10
0.0
 20
0.0
 30
0.0
  9
$PUCSXDIR
 10
1.0
 20
0.0
 30
0.0
  9
$PUCSYDIR
 10
0.0
 20
1.0
 30
0.0
  9
$USERI1
 70
       0
  9
$USERI2
 70
       0
  9
$USERI3
 70
       0
  9
$USERI4
 70
       0
  9
$USERI5
 70
       0
  9
$USERR1
 40
0.0
  9
$USERR2
 40
0.0
  9
$USERR3
 40
0.0
  9
$USERR4
 40
0.0
  9
$USERR5
 40
0.0
  9
$WORLDVIEW
 70
       1
  9
$SHADEDGE
 70
       3
  9
$SHADEDIF
 70
      70
  9
$TILEMODE
 70
       1
  9
$MAXACTVP
 70
      16
  9
$PINSBASE
 10
0.0
 20
0.0
 30
0.0
  9
$PLIMCHECK
 70
       0
  9
$PEXTMIN
 10
1.00000000E+20
 20
1.00000000E+20
 30
1.00000000E+20
  9
$PEXTMAX
 10
-1.00000000E+20
 20
-1.00000000E+20
 30
-1.00000000E+20
  9
$PLIMMIN
 10
0.0
 20
0.0
  9
$PLIMMAX
 10
12.0
 20
9.0
  9
$UNITMODE
 70
       0
  9
$VISRETAIN
 70
       0
  9
$PLINEGEN
 70
       1
  9
$PSLTSCALE
 70
       0
  9
$TREEDEPTH
 70
    3020
  9
$DWGCODEPAGE
  3
dos932
  0
ENDSEC
  0
SECTION
  2
TABLES
  0
TABLE
  2
VPORT
 70
       1
  0
VPORT
  2
*ACTIVE
 70
       0
 10
0.0
 20
0.0
 11
1.0
 21
1.0
 12
-0.0249939
 22
-0.15000153
 13
0.0
 23
0.0
 14
1.0
 24
1.0
 15
0.0
 25
0.0
 16
0.0
 26
0.0
 36
1.0
 17
0.0
 27
0.0
 37
0.0
 40
191.19300308
 41
1.73205081
 42
50.0
 43
0.0
 44
0.0
 50
0.0
 51
0.0
 71
       0
 72
     100
 73
       1
 74
       1
 75
       0
 76
       0
 77
       0
 78
       0
  0
ENDTAB
  0
TABLE
  2
LTYPE
 70
       1
  0
LTYPE
  2
CONTINUOUS
 70
      64
  3
Solid line
 72
      65
 73
       0
 40
0.0
  0
ENDTAB
  0
TABLE
  2
LAYER
 70
       3
  0
LAYER
  2
0
 70
       0
 62
       7
  6
CONTINUOUS
  0
LAYER
  2
LY_2
 70
       0
 62
       7
  6
CONTINUOUS
  0
LAYER
  2
DEFPOINTS
 70
       0
 62
       7
  6
CONTINUOUS
  0
ENDTAB
  0
TABLE
  2
STYLE
 70
       1
  0
STYLE
  2
MX_NOTE_STANDARD
 70
       0
 40
0.0
 41
1.0
 50
0.0
 71
       0
 42
3.20000005
  3
txt.shx
  4
extfont.shx
  0
ENDTAB
  0
TABLE
  2
VIEW
 70
       0
  0
ENDTAB
  0
TABLE
  2
UCS
 70
       0
  0
ENDTAB
  0
TABLE
  2
APPID
 70
       1
  0
APPID
  2
ACAD
 70
       0
  0
ENDTAB
  0
TABLE
  2
DIMSTYLE
 70
       1
  0
DIMSTYLE
  2
MXDIMSTYLE
 70
       0
  3

  4

  5

  6

  7

 40
1.0
 41
2.5
 42
1.5
 43
3.75
 44
1.5
 45
0.0
 46
0.0
 47
0.0
 48
0.0
 71
       0
 72
       0
 73
       0
 74
       0
 75
       0
 76
       0
 77
       1
 78
       8
140
3.20000005
141
2.5
142
0.0
143
0.03937008
144
1.0
145
0.0
146
1.0
147
1.0
170
       0
171
       4
172
       1
173
       0
174
       0
175
       0
176
       0
177
       0
178
       0
  0
ENDTAB
  0
ENDSEC
  0
SECTION
  2
BLOCKS
  0
ENDSEC
  0
SECTION
  2
ENTITIES
  0
LINE
  8
0
  6
CONTINUOUS
 62
       7
  5
1F
 10
-64.28351865
 20
-0.28947549
 30
0.0
 11
-64.89275691
 21
-0.28947549
 31
0.0
  0
LINE
  8
0
  6
CONTINUOUS
 62
       2
  5
20
 10
55.77224309
 20
-21.12872831
 30
0.0
 11
59.76224309
 21
-21.00403457
 31
0.0
  0
LINE
  8
0
  6
CONTINUOUS
 62
       2
  5
21
 10
55.77224309
 20
-12.45022268
 30
0.0
 11
59.76224309
 21
-12.57491641
 31
0.0
  0
LINE
  8
0
  6
CONTINUOUS
 62
       7
  5
22
 10
-36.89275691
 20
-32.77579777
 30
0.0
 11
-36.89275691
 21
-38.78947549
 31
0.0
  0
LINE
  8
0
  6
CONTINUOUS
 62
       7
  5
23
 10
-64.89275691
 20
-32.77579777
 30
0.0
 11
-64.89275691
 21
-38.78947549
 31
0.0
  0
LINE
  8
0
  6
CONTINUOUS
 62
       2
  5
24
 10
-50.89275691
 20
41.25052451
 30
0.0
 11
-50.89275691
 21
-41.88295773
 31
0.0
  0
LINE
  8
0
  6
CONTINUOUS
 62
       7
  5
25
 10
19.77224309
 20
4.46052451
 30
0.0
 11
19.77224309
 21
-38.03947549
 31
0.0
  0
LINE
  8
0
  6
CONTINUOUS
 62
       7
  5
26
 10
19.77224309
 20
4.46052451
 30
0.0
 11
22.77224309
 21
4.46052451
 31
0.0
  0
LINE
  8
0
  6
CONTINUOUS
 62
       7
  5
27
 10
22.77224309
 20
4.46052451
 30
0.0
 11
22.77224309
 21
-38.03947549
 31
0.0
  0
LINE
  8
0
  6
CONTINUOUS
 62
       7
  5
28
 10
46.27224309
 20
2.21052451
 30
0.0
 11
46.27224309
 21
-35.78947549
 31
0.0
  0
LINE
  8
0
  6
CONTINUOUS
 62
       7
  5
29
 10
22.77224309
 20
4.21052451
 30
0.0
 11
44.27224309
 21
4.21052451
 31
0.0
  0
LINE
  8
0
  6
CONTINUOUS
 62
       7
  5
2A
 10
22.77224309
 20
-37.78947549
 30
0.0
 11
44.27224309
 21
-37.78947549
 31
0.0
  0
LINE
  8
0
  6
CONTINUOUS
 62
       7
  5
2B
 10
46.27224309
 20
-23.78947549
 30
0.0
 11
53.77224309
 21
-23.78947549
 31
0.0
  0
LINE
  8
0
  6
CONTINUOUS
 62
       7
  5
2C
 10
46.27224309
 20
-9.78947549
 30
0.0
 11
53.77224309
 21
-9.78947549
 31
0.0
  0
LINE
  8
0
  6
CONTINUOUS
 62
       7
  5
2D
 10
53.77224309
 20
-9.78947549
 30
0.0
 11
53.77224309
 21
-23.78947549
 31
0.0
  0
LINE
  8
0
  6
CONTINUOUS
 62
       2
  5
2E
 10
39.27224309
 20
-35.80425722
 30
0.0
 11
39.27224309
 21
-39.18131306
 31
0.0
  0
LINE
  8
0
  6
CONTINUOUS
 62
       2
  5
2F
 10
45.08224309
 20
-28.78947549
 30
0.0
 11
49.68224309
 21
-28.78947549
 31
0.0
  0
LINE
  8
0
  6
CONTINUOUS
 62
       7
  5
30
 10
46.27224309
 20
-31.53947549
 30
0.0
 11
46.86224309
 21
-31.53947549
 31
0.0
  0
LINE
  8
0
  6
CONTINUOUS
 62
       7
  5
31
 10
46.27224309
 20
-26.03947549
 30
0.0
 11
46.86224309
 21
-26.03947549
 31
0.0
  0
ARC
  8
0
  6
CONTINUOUS
 62
       7
  5
32
 10
44.27224461
 20
-35.78947702
 30
0.0
 40
1.99999847
 50
269.99995629
 51
0.00004371
  0
ARC
  8
0
  6
CONTINUOUS
 62
       7
  5
33
 10
44.27224461
 20
2.21052603
 30
0.0
 40
1.99999847
 50
359.99995629
 51
90.00004371
  0
ARC
  8
0
  6
CONTINUOUS
 62
       7
  5
34
 10
39.27224309
 20
-37.78947549
 30
0.0
 40
1.15
 50
0.0
 51
180.0
  0
ARC
  8
0
  6
CONTINUOUS
 62
       7
  5
35
 10
43.27224389
 20
-28.78447549
 30
0.0
 40
4.99342746
 50
334.05072884
 51
25.94927116
  0
ARC
  8
0
  6
CONTINUOUS
 62
       7
  5
36
 10
46.86559733
 20
-27.03729903
 30
0.0
 40
0.99782918
 50
26.02581396
 51
90.19260243
  0
ARC
  8
0
  6
CONTINUOUS
 62
       7
  5
37
 10
46.8621712
 20
-30.54383567
 30
0.0
 40
0.99563983
 50
270.00413691
 51
334.69075009
  0
LINE
  8
0
  6
CONTINUOUS
 62
       2
  5
38
 10
53.77224309
 20
-9.78947549
 30
0.0
 11
46.27224309
 21
-23.78947549
 31
0.0
  0
LINE
  8
0
  6
CONTINUOUS
 62
       2
  5
39
 10
53.77224309
 20
-23.78947549
 30
0.0
 11
46.27224309
 21
-9.78947549
 31
0.0
  0
LINE
  8
0
  6
CONTINUOUS
 62
       7
  5
3A
 10
19.77224309
 20
-38.03947549
 30
0.0
 11
22.77224309
 21
-38.03947549
 31
0.0
  0
LINE
  8
0
  6
CONTINUOUS
 62
       7
  5
3B
 10
19.77224309
 20
-16.78947549
 30
0.0
 11
22.77224309
 21
-16.78947549
 31
0.0
  0
LINE
  8
0
  6
CONTINUOUS
 62
       2
  5
3C
 10
15.75425324
 20
-16.78947549
 30
0.0
 11
67.03224309
 21
-16.78947549
 31
0.0
  0
LINE
  8
0
  6
CONTINUOUS
 62
       7
  5
3D
 10
53.77224309
 20
-11.80671956
 30
0.0
 11
59.76224309
 21
-11.99391641
 31
0.0
  0
LINE
  8
0
  6
CONTINUOUS
 62
       7
  5
3E
 10
53.77224309
 20
-21.77223143
 30
0.0
 11
59.76224309
 21
-21.58503457
 31
0.0
  0
LINE
  8
0
  6
CONTINUOUS
 62
       7
  5
3F
 10
55.77224309
 20
-11.86922268
 30
0.0
 11
55.77224309
 21
-21.70972831
 31
0.0
  0
LINE
  8
0
  6
CONTINUOUS
 62
       7
  5
40
 10
-39.50275691
 20
-5.55947549
 30
0.0
 11
-38.53275691
 21
-4.39947549
 31
0.0
  0
LINE
  8
0
  6
CONTINUOUS
 62
       7
  5
41
 10
-41.80275691
 20
-3.62947549
 30
0.0
 11
-40.83275691
 21
-2.46947549
 31
0.0
  0
LINE
  8
0
  6
CONTINUOUS
 62
       7
  5
42
 10
-41.80275691
 20
-3.62947549
 30
0.0
 11
-41.24275691
 21
-5.29947549
 31
0.0
  0
LINE
  8
0
  6
CONTINUOUS
 62
       7
  5
43
 10
-41.24275691
 20
-5.29947549
 30
0.0
 11
-39.50275691
 21
-5.55947549
 31
0.0
  0
LINE
  8
0
  6
CONTINUOUS
 62
       7
  5
44
 10
-62.27275691
 20
-5.55947549
 30
0.0
 11
-63.24672059
 21
-4.39473542
 31
0.0
  0
LINE
  8
0
  6
CONTINUOUS
 62
       7
  5
45
 10
-62.27275691
 20
-5.55947549
 30
0.0
 11
-60.53275691
 21
-5.29947549
 31
0.0
  0
LINE
  8
0
  6
CONTINUOUS
 62
       7
  5
46
 10
-60.53275691
 20
-5.29947549
 30
0.0
 11
-59.98275691
 21
-3.62947549
 31
0.0
  0
LINE
  8
0
  6
CONTINUOUS
 62
       7
  5
47
 10
-59.98275691
 20
-3.62947549
 30
0.0
 11
-60.9461399
 21
-2.46538772
 31
0.0
  0
CIRCLE
  8
0
  6
CONTINUOUS
 62
       7
  5
48
 10
-50.89275691
 20
-16.78947549
 30
0.0
 40
17.5
  0
CIRCLE
  8
0
  6
CONTINUOUS
 62
       7
  5
49
 10
-50.89275691
 20
-16.78947549
 30
0.0
 40
20.75
  0
LINE
  8
0
  6
CONTINUOUS
 62
       7
  5
4A
 10
-39.03707364
 20
-14.91171974
 30
0.0
 11
-33.60821095
 21
-14.05187236
 31
0.0
  0
LINE
  8
0
  6
CONTINUOUS
 62
       7
  5
4B
 10
-35.44117404
 20
-8.57372315
 30
0.0
 11
-40.2948539
 21
-11.15447051
 31
0.0
  0
LINE
  8
0
  6
CONTINUOUS
 62
       2
  5
4C
 10
-38.56454939
 20
-12.66451496
 30
0.0
 11
-34.29709295
 21
-11.23664401
 31
0.0
  0
LINE
  8
0
  6
CONTINUOUS
 62
       7
  5
4D
 10
-38.95778561
 20
-3.99078572
 30
0.0
 11
-42.7075123
 21
-8.01187529
 31
0.0
  0
LINE
  8
0
  6
CONTINUOUS
 62
       2
  5
4E
 10
-40.57916349
 20
-8.87557692
 30
0.0
 11
-37.00907346
 21
-6.13615049
 31
0.0
  0
LINE
  8
0
  6
CONTINUOUS
 62
       7
  5
4F
 10
-46.01075086
 20
-5.82431037
 30
0.0
 11
-43.77486566
 21
-0.80242999
 31
0.0
  0
LINE
  8
0
  6
CONTINUOUS
 62
       2
  5
50
 10
-43.7175761
 20
-5.94895981
 30
0.0
 11
-41.23385967
 21
-2.19647361
 31
0.0
  0
LINE
  8
0
  6
CONTINUOUS
 62
       7
  5
51
 10
-49.84663808
 20
-4.83228248
 30
0.0
 11
-49.36753141
 21
0.64393172
 31
0.0
  0
LINE
  8
0
  6
CONTINUOUS
 62
       2
  5
52
 10
-47.63781686
 20
-4.20355617
 30
0.0
 11
-46.51110684
 21
0.15310821
 31
0.0
  0
LINE
  8
0
  6
CONTINUOUS
 62
       7
  5
53
 10
-53.79523318
 20
-5.14827904
 30
0.0
 11
-55.12639009
 21
0.19069972
 31
0.0
  0
LINE
  8
0
  6
CONTINUOUS
 62
       2
  5
54
 10
-51.91272516
 20
-3.82955016
 30
0.0
 11
-52.26579109
 21
0.65657785
 31
0.0
  0
LINE
  8
0
  6
CONTINUOUS
 62
       7
  5
55
 10
-57.42998711
 20
-6.72302375
 30
0.0
 11
-60.42394002
 21
-2.11274056
 31
0.0
  0
LINE
  8
0
  6
CONTINUOUS
 62
       2
  5
56
 10
-57.87086562
 20
-0.74092419
 30
0.0
 11
-56.07649481
 21
-4.86769453
 31
0.0
  0
LINE
  8
0
  6
CONTINUOUS
 62
       7
  5
57
 10
-64.6829451
 20
-6.01539968
 30
0.0
 11
-60.34513818
 21
-9.40446587
 31
0.0
  0
LINE
  8
0
  6
CONTINUOUS
 62
       2
  5
58
 10
-62.71558555
 20
-3.8871221
 30
0.0
 11
-59.67542961
 21
-7.20487012
 31
0.0
  0
LINE
  8
0
  6
CONTINUOUS
 62
       7
  5
59
 10
-62.24169114
 20
-12.88172406
 30
0.0
 11
-67.43933199
 21
-11.09203279
 31
0.0
  0
LINE
  8
0
  6
CONTINUOUS
 62
       2
  5
5A
 10
-66.27205638
 20
-8.43919719
 30
0.0
 11
-62.31737938
 21
-10.58641161
 31
0.0
  0
LINE
  8
0
  6
CONTINUOUS
 62
       7
  5
5B
 10
-62.89562446
 20
-16.78947549
 30
0.0
 11
-68.39275691
 21
-16.78947549
 31
0.0
  0
LINE
  8
0
  6
CONTINUOUS
 62
       2
  5
5C
 10
-68.15275494
 20
-13.90114239
 30
0.0
 11
-63.71446973
 21
-14.64385662
 31
0.0
  0
LINE
  8
0
  6
CONTINUOUS
 62
       7
  5
5D
 10
-38.88988937
 20
-16.78947549
 30
0.0
 11
-33.39275691
 21
-16.78947549
 31
0.0
  0
ARC
  8
0
  6
CONTINUOUS
 62
       7
  5
5E
 10
-50.89565366
 20
-16.79064482
 30
0.0
 40
1.49513989
 50
235.95230037
 51
348.07937722
  0
ARC
  8
0
  6
CONTINUOUS
 62
       7
  5
5F
 10
-50.89590173
 20
-16.79026046
 30
0.0
 40
1.49671065
 50
47.91495198
 51
160.04562918
  0
LINE
  8
0
  6
CONTINUOUS
 62
       7
  5
60
 10
-55.14275691
 20
-19.40947549
 30
0.0
 11
-56.59275691
 21
-18.63947549
 31
0.0
  0
LINE
  8
0
  6
CONTINUOUS
 62
       7
  5
61
 10
-56.59275691
 20
-18.63947549
 30
0.0
 11
-55.87275691
 21
-17.16947549
 31
0.0
  0
LINE
  8
0
  6
CONTINUOUS
 62
       7
  5
62
 10
-52.30275691
 20
-16.27947549
 30
0.0
 11
-55.87275691
 21
-17.16947549
 31
0.0
  0
LINE
  8
0
  6
CONTINUOUS
 62
       7
  5
63
 10
-51.73275691
 20
-18.02947549
 30
0.0
 11
-55.14275691
 21
-19.40947549
 31
0.0
  0
LINE
  8
0
  6
CONTINUOUS
 62
       7
  5
64
 10
-39.48275691
 20
-13.08947549
 30
0.0
 11
-49.89275691
 21
-15.67947549
 31
0.0
  0
LINE
  8
0
  6
CONTINUOUS
 62
       7
  5
65
 10
-39.48275691
 20
-13.08947549
 30
0.0
 11
-49.43275691
 21
-17.09947549
 31
0.0
  0
CIRCLE
  8
0
  6
CONTINUOUS
 62
       7
  5
66
 10
-54.39275691
 20
-28.78947549
 30
0.0
 40
1.0
  0
LINE
  8
0
  6
CONTINUOUS
 62
       2
  5
67
 10
-55.95359298
 20
-28.78947549
 30
0.0
 11
-52.70784018
 21
-28.78947549
 31
0.0
  0
LINE
  8
0
  6
CONTINUOUS
 62
       2
  5
68
 10
-54.39275691
 20
-30.45426431
 30
0.0
 11
-54.39275691
 21
-27.01179922
 31
0.0
  0
LINE
  8
0
  6
CONTINUOUS
 62
       2
  5
69
 10
-45.83192084
 20
-28.78947549
 30
0.0
 11
-49.07767365
 21
-28.78947549
 31
0.0
  0
LINE
  8
0
  6
CONTINUOUS
 62
       2
  5
6A
 10
-47.39275691
 20
-30.45426431
 30
0.0
 11
-47.39275691
 21
-27.01179922
 31
0.0
  0
CIRCLE
  8
0
  6
CONTINUOUS
 62
       7
  5
6B
 10
-47.39275691
 20
-28.78947549
 30
0.0
 40
1.0
  0
CIRCLE
  8
0
  6
CONTINUOUS
 62
       7
  5
6C
 10
-50.89275691
 20
-16.78947549
 30
0.0
 40
21.25
  0
LINE
  8
0
  6
CONTINUOUS
 62
       2
  5
6D
 10
-75.10275691
 20
-16.78947549
 30
0.0
 11
-26.39442189
 21
-16.78947549
 31
0.0
  0
LINE
  8
0
  6
CONTINUOUS
 62
       7
  5
6E
 10
-64.89275691
 20
-38.78947549
 30
0.0
 11
-36.89275691
 21
-38.78947549
 31
0.0
  0
LINE
  8
0
  6
CONTINUOUS
 62
       7
  5
6F
 10
-42.19275691
 20
39.01052451
 30
0.0
 11
-59.59275691
 21
39.01052451
 31
0.0
  0
ARC
  8
0
  6
CONTINUOUS
 62
       7
  5
70
 10
-42.1941402
 20
38.00914122
 30
0.0
 40
1.00138424
 50
0.07914705
 51
89.92085295
  0
ARC
  8
0
  6
CONTINUOUS
 62
       7
  5
71
 10
-59.59415945
 20
38.01192704
 30
0.0
 40
0.99859845
 50
89.91952777
 51
180.08047223
  0
LINE
  8
0
  6
CONTINUOUS
 62
       7
  5
72
 10
89.76224309
 20
5.71052451
 30
0.0
 11
86.76224309
 21
5.71052451
 31
0.0
  0
LINE
  8
0
  6
CONTINUOUS
 62
       7
  5
73
 10
60.26224309
 20
12.71052451
 30
0.0
 11
87.26224309
 21
12.71052451
 31
0.0
  0
LINE
  8
0
  6
CONTINUOUS
 62
       7
  5
74
 10
87.26224309
 20
12.71052451
 30
0.0
 11
87.26224309
 21
7.71052451
 31
0.0
  0
LINE
  8
0
  6
CONTINUOUS
 62
       7
  5
75
 10
60.26224309
 20
8.21052451
 30
0.0
 11
87.26224309
 21
8.21052451
 31
0.0
  0
LINE
  8
0
  6
CONTINUOUS
 62
       7
  5
76
 10
58.76224309
 20
7.71052451
 30
0.0
 11
60.26224309
 21
7.71052451
 31
0.0
  0
LINE
  8
0
  6
CONTINUOUS
 62
       7
  5
77
 10
60.26224309
 20
12.71052451
 30
0.0
 11
60.26224309
 21
7.71052451
 31
0.0
  0
LINE
  8
0
  6
CONTINUOUS
 62
       7
  5
78
 10
58.76224309
 20
7.71052451
 30
0.0
 11
58.76224309
 21
5.71052451
 31
0.0
  0
LINE
  8
0
  6
CONTINUOUS
 62
       7
  5
79
 10
93.76224309
 20
35.71052451
 30
0.0
 11
93.76224309
 21
9.71052451
 31
0.0
  0
LINE
  8
0
  6
CONTINUOUS
 62
       7
  5
7A
 10
91.76224309
 20
35.71052451
 30
0.0
 11
91.76224309
 21
9.71052451
 31
0.0
  0
LINE
  8
0
  6
CONTINUOUS
 62
       7
  5
7B
 10
93.76224309
 20
35.71052451
 30
0.0
 11
91.76224309
 21
35.71052451
 31
0.0
  0
LINE
  8
0
  6
CONTINUOUS
 62
       7
  5
7C
 10
60.26224309
 20
7.71052451
 30
0.0
 11
87.26224309
 21
7.71052451
 31
0.0
  0
LINE
  8
0
  6
CONTINUOUS
 62
       7
  5
7D
 10
60.76224309
 20
5.71052451
 30
0.0
 11
58.76224309
 21
5.71052451
 31
0.0
  0
LINE
  8
0
  6
CONTINUOUS
 62
       7
  5
7E
 10
93.76224309
 20
33.71052451
 30
0.0
 11
91.76224309
 21
33.71052451
 31
0.0
  0
LINE
  8
0
  6
CONTINUOUS
 62
       7
  5
7F
 10
87.26224309
 20
7.71052451
 30
0.0
 11
89.76224309
 21
7.71052451
 31
0.0
  0
LINE
  8
0
  6
CONTINUOUS
 62
       2
  5
80
 10
90.26224309
 20
-16.78947549
 30
0.0
 11
85.26224309
 21
-16.78947549
 31
0.0
  0
LINE
  8
0
  6
CONTINUOUS
 62
       7
  5
81
 10
89.06224309
 20
-12.76447549
 30
0.0
 11
89.06224309
 21
-20.80947549
 31
0.0
  0
LINE
  8
0
  6
CONTINUOUS
 62
       2
  5
82
 10
88.56224309
 20
-11.89947549
 30
0.0
 11
88.56224309
 21
-21.67447549
 31
0.0
  0
LINE
  8
0
  6
CONTINUOUS
 62
       7
  5
83
 10
88.56224309
 20
-21.67447549
 30
0.0
 11
89.06224309
 21
-20.80947549
 31
0.0
  0
LINE
  8
0
  6
CONTINUOUS
 62
       2
  5
84
 10
87.76224309
 20
-21.06447549
 30
0.0
 11
88.89224309
 21
-21.09947549
 31
0.0
  0
LINE
  8
0
  6
CONTINUOUS
 62
       7
  5
85
 10
87.76224309
 20
-21.64947549
 30
0.0
 11
88.56224309
 21
-21.67447549
 31
0.0
  0
LINE
  8
0
  6
CONTINUOUS
 62
       7
  5
86
 10
88.56224309
 20
-11.89947549
 30
0.0
 11
89.06224309
 21
-12.76447549
 31
0.0
  0
LINE
  8
0
  6
CONTINUOUS
 62
       2
  5
87
 10
87.76224309
 20
-12.50947549
 30
0.0
 11
88.89224309
 21
-12.47447549
 31
0.0
  0
LINE
  8
0
  6
CONTINUOUS
 62
       7
  5
88
 10
87.76224309
 20
-11.92447549
 30
0.0
 11
88.56224309
 21
-11.89947549
 31
0.0
  0
LINE
  8
0
  6
CONTINUOUS
 62
       7
  5
89
 10
59.76224309
 20
-0.28947549
 30
0.0
 11
59.76224309
 21
-38.78947549
 31
0.0
  0
LINE
  8
0
  6
CONTINUOUS
 62
       2
  5
8A
 10
84.76224309
 20
1.71052451
 30
0.0
 11
84.76224309
 21
7.71052451
 31
0.0
  0
LINE
  8
0
  6
CONTINUOUS
 62
       7
  5
8B
 10
81.81224309
 20
3.41052451
 30
0.0
 11
87.71224309
 21
3.41052451
 31
0.0
  0
LINE
  8
0
  6
CONTINUOUS
 62
       7
  5
8C
 10
81.81224309
 20
2.71052451
 30
0.0
 11
81.81224309
 21
3.41052451
 31
0.0
  0
LINE
  8
0
  6
CONTINUOUS
 62
       7
  5
8D
 10
81.96224309
 20
4.58052451
 30
0.0
 11
81.96224309
 21
3.41052451
 31
0.0
  0
LINE
  8
0
  6
CONTINUOUS
 62
       7
  5
8E
 10
81.76224309
 20
4.71052451
 30
0.0
 11
81.76224309
 21
2.71052451
 31
0.0
  0
LINE
  8
0
  6
CONTINUOUS
 62
       7
  5
8F
 10
65.76224309
 20
4.71052451
 30
0.0
 11
65.76224309
 21
2.71052451
 31
0.0
  0
LINE
  8
0
  6
CONTINUOUS
 62
       7
  5
90
 10
87.71224309
 20
2.71052451
 30
0.0
 11
81.76224309
 21
2.71052451
 31
0.0
  0
LINE
  8
0
  6
CONTINUOUS
 62
       7
  5
91
 10
65.76224309
 20
2.71052451
 30
0.0
 11
59.81224309
 21
2.71052451
 31
0.0
  0
LINE
  8
0
  6
CONTINUOUS
 62
       7
  5
92
 10
65.71224309
 20
3.41052451
 30
0.0
 11
59.81224309
 21
3.41052451
 31
0.0
  0
LINE
  8
0
  6
CONTINUOUS
 62
       7
  5
93
 10
65.71224309
 20
2.71052451
 30
0.0
 11
65.71224309
 21
3.41052451
 31
0.0
  0
LINE
  8
0
  6
CONTINUOUS
 62
       7
  5
94
 10
59.81224309
 20
2.71052451
 30
0.0
 11
59.81224309
 21
3.41052451
 31
0.0
  0
LINE
  8
0
  6
CONTINUOUS
 62
       7
  5
95
 10
59.96224309
 20
4.58052451
 30
0.0
 11
59.96224309
 21
3.41052451
 31
0.0
  0
LINE
  8
0
  6
CONTINUOUS
 62
       7
  5
96
 10
65.56224309
 20
4.58052451
 30
0.0
 11
65.56224309
 21
3.41052451
 31
0.0
  0
LINE
  8
0
  6
CONTINUOUS
 62
       2
  5
97
 10
62.76224309
 20
1.71052451
 30
0.0
 11
62.76224309
 21
7.71052451
 31
0.0
  0
LINE
  8
0
  6
CONTINUOUS
 62
       7
  5
98
 10
83.76724309
 20
5.71052451
 30
0.0
 11
63.75724309
 21
5.71052451
 31
0.0
  0
LINE
  8
0
  6
CONTINUOUS
 62
       7
  5
99
 10
61.76724309
 20
5.71052451
 30
0.0
 11
60.76224309
 21
5.71052451
 31
0.0
  0
LINE
  8
0
  6
CONTINUOUS
 62
       7
  5
9A
 10
83.76224309
 20
15.71052451
 30
0.0
 11
63.76224309
 21
15.71052451
 31
0.0
  0
LINE
  8
0
  6
CONTINUOUS
 62
       7
  5
9B
 10
84.76224309
 20
13.71052451
 30
0.0
 11
62.76224309
 21
13.71052451
 31
0.0
  0
LINE
  8
0
  6
CONTINUOUS
 62
       7
  5
9C
 10
84.76224309
 20
14.71052451
 30
0.0
 11
84.76224309
 21
13.71052451
 31
0.0
  0
LINE
  8
0
  6
CONTINUOUS
 62
       7
  5
9D
 10
62.76224309
 20
14.71052451
 30
0.0
 11
62.76224309
 21
13.71052451
 31
0.0
  0
LINE
  8
0
  6
CONTINUOUS
 62
       7
  5
9E
 10
62.76224309
 20
13.71052451
 30
0.0
 11
61.76224309
 21
12.71052451
 31
0.0
  0
LINE
  8
0
  6
CONTINUOUS
 62
       7
  5
9F
 10
84.76224309
 20
13.71052451
 30
0.0
 11
85.76224309
 21
12.71052451
 31
0.0
  0
LINE
  8
0
  6
CONTINUOUS
 62
       7
  5
A0
 10
83.76224309
 20
15.71052451
 30
0.0
 11
84.76224309
 21
14.71052451
 31
0.0
  0
LINE
  8
0
  6
CONTINUOUS
 62
       7
  5
A1
 10
63.76224309
 20
15.71052451
 30
0.0
 11
62.76224309
 21
14.71052451
 31
0.0
  0
LINE
  8
0
  6
CONTINUOUS
 62
       7
  5
A2
 10
84.76224309
 20
14.71052451
 30
0.0
 11
62.76224309
 21
14.71052451
 31
0.0
  0
LINE
  8
0
  6
CONTINUOUS
 62
       7
  5
A3
 10
65.26224309
 20
19.01052451
 30
0.0
 11
65.26224309
 21
15.71052451
 31
0.0
  0
LINE
  8
0
  6
CONTINUOUS
 62
       7
  5
A4
 10
82.26224309
 20
19.01052451
 30
0.0
 11
82.26224309
 21
15.71052451
 31
0.0
  0
LINE
  8
0
  6
CONTINUOUS
 62
       7
  5
A5
 10
80.29724309
 20
19.01052451
 30
0.0
 11
80.29724309
 21
15.71052451
 31
0.0
  0
LINE
  8
0
  6
CONTINUOUS
 62
       7
  5
A6
 10
75.72724309
 20
19.01052451
 30
0.0
 11
75.72724309
 21
15.71052451
 31
0.0
  0
LINE
  8
0
  6
CONTINUOUS
 62
       7
  5
A7
 10
71.79724309
 20
19.01052451
 30
0.0
 11
71.79724309
 21
15.71052451
 31
0.0
  0
LINE
  8
0
  6
CONTINUOUS
 62
       7
  5
A8
 10
67.22724309
 20
19.01052451
 30
0.0
 11
67.22724309
 21
15.71052451
 31
0.0
  0
LINE
  8
0
  6
CONTINUOUS
 62
       7
  5
A9
 10
59.76224309
 20
4.71052451
 30
0.0
 11
59.76224309
 21
-0.28947549
 31
0.0
  0
LINE
  8
0
  6
CONTINUOUS
 62
       7
  5
AA
 10
82.46224309
 20
39.01052451
 30
0.0
 11
65.06224309
 21
39.01052451
 31
0.0
  0
LINE
  8
0
  6
CONTINUOUS
 62
       7
  5
AB
 10
84.26224309
 20
19.01052451
 30
0.0
 11
63.26224309
 21
19.01052451
 31
0.0
  0
LINE
  8
0
  6
CONTINUOUS
 62
       7
  5
AC
 10
84.76224309
 20
19.51052451
 30
0.0
 11
84.26224309
 21
19.01052451
 31
0.0
  0
LINE
  8
0
  6
CONTINUOUS
 62
       7
  5
AD
 10
62.76224309
 20
19.51052451
 30
0.0
 11
63.26224309
 21
19.01052451
 31
0.0
  0
LINE
  8
0
  6
CONTINUOUS
 62
       7
  5
AE
 10
64.06224309
 20
38.01052451
 30
0.0
 11
64.06224309
 21
37.01052451
 31
0.0
  0
LINE
  8
0
  6
CONTINUOUS
 62
       7
  5
AF
 10
83.46224309
 20
38.01052451
 30
0.0
 11
83.46224309
 21
37.01052451
 31
0.0
  0
LINE
  8
0
  6
CONTINUOUS
 62
       7
  5
B0
 10
83.46224309
 20
37.01052451
 30
0.0
 11
84.46224309
 21
36.01052451
 31
0.0
  0
LINE
  8
0
  6
CONTINUOUS
 62
       7
  5
B1
 10
64.06224309
 20
37.01052451
 30
0.0
 11
63.06224309
 21
36.01052451
 31
0.0
  0
LINE
  8
0
  6
CONTINUOUS
 62
       7
  5
B2
 10
84.46224309
 20
36.01052451
 30
0.0
 11
84.76224309
 21
19.51052451
 31
0.0
  0
LINE
  8
0
  6
CONTINUOUS
 62
       7
  5
B3
 10
63.06224309
 20
36.01052451
 30
0.0
 11
62.76224309
 21
19.51052451
 31
0.0
  0
LINE
  8
0
  6
CONTINUOUS
 62
       7
  5
B4
 10
76.76224309
 20
36.01052451
 30
0.0
 11
77.05224309
 21
21.51052451
 31
0.0
  0
LINE
  8
0
  6
CONTINUOUS
 62
       7
  5
B5
 10
70.76224309
 20
36.01052451
 30
0.0
 11
70.46724309
 21
21.51052451
 31
0.0
  0
LINE
  8
0
  6
CONTINUOUS
 62
       7
  5
B6
 10
83.76224309
 20
22.08552451
 30
0.0
 11
83.42724309
 21
22.08552451
 31
0.0
  0
LINE
  8
0
  6
CONTINUOUS
 62
       7
  5
B7
 10
84.33224309
 20
21.51052451
 30
0.0
 11
83.43724309
 21
21.51052451
 31
0.0
  0
LINE
  8
0
  6
CONTINUOUS
 62
       7
  5
B8
 10
77.07224309
 20
37.01052451
 30
0.0
 11
77.37224309
 21
22.08552451
 31
0.0
  0
LINE
  8
0
  6
CONTINUOUS
 62
       7
  5
B9
 10
70.45224309
 20
37.01052451
 30
0.0
 11
70.15224309
 21
22.08552451
 31
0.0
  0
LINE
  8
0
  6
CONTINUOUS
 62
       7
  5
BA
 10
70.15224309
 20
22.08552451
 30
0.0
 11
69.35224309
 21
22.08552451
 31
0.0
  0
LINE
  8
0
  6
CONTINUOUS
 62
       7
  5
BB
 10
70.46724309
 20
21.51052451
 30
0.0
 11
68.32724309
 21
21.51052451
 31
0.0
  0
LINE
  8
0
  6
CONTINUOUS
 62
       7
  5
BC
 10
69.65224309
 20
37.01052451
 30
0.0
 11
69.35224309
 21
22.08552451
 31
0.0
  0
LINE
  8
0
  6
CONTINUOUS
 62
       7
  5
BD
 10
77.86724309
 20
37.01052451
 30
0.0
 11
78.16724309
 21
22.08552451
 31
0.0
  0
LINE
  8
0
  6
CONTINUOUS
 62
       7
  5
BE
 10
69.65224309
 20
37.01052451
 30
0.0
 11
64.97224309
 21
37.01052451
 31
0.0
  0
LINE
  8
0
  6
CONTINUOUS
 62
       7
  5
BF
 10
77.07224309
 20
37.01052451
 30
0.0
 11
70.45224309
 21
37.01052451
 31
0.0
  0
LINE
  8
0
  6
CONTINUOUS
 62
       7
  5
C0
 10
76.76224309
 20
36.01052451
 30
0.0
 11
70.76224309
 21
36.01052451
 31
0.0
  0
LINE
  8
0
  6
CONTINUOUS
 62
       7
  5
C1
 10
68.62224309
 20
36.01052451
 30
0.0
 11
64.37724309
 21
36.01052451
 31
0.0
  0
LINE
  8
0
  6
CONTINUOUS
 62
       7
  5
C2
 10
64.37724309
 20
36.01052451
 30
0.0
 11
64.08724309
 21
21.51052451
 31
0.0
  0
LINE
  8
0
  6
CONTINUOUS
 62
       7
  5
C3
 10
78.90224309
 20
36.01052451
 30
0.0
 11
79.19224309
 21
21.51052451
 31
0.0
  0
LINE
  8
0
  6
CONTINUOUS
 62
       7
  5
C4
 10
82.54724309
 20
37.01052451
 30
0.0
 11
77.86724309
 21
37.01052451
 31
0.0
  0
LINE
  8
0
  6
CONTINUOUS
 62
       7
  5
C5
 10
83.14724309
 20
36.01052451
 30
0.0
 11
78.90224309
 21
36.01052451
 31
0.0
  0
LINE
  8
0
  6
CONTINUOUS
 62
       7
  5
C6
 10
78.16724309
 20
22.08552451
 30
0.0
 11
77.37224309
 21
22.08552451
 31
0.0
  0
LINE
  8
0
  6
CONTINUOUS
 62
       7
  5
C7
 10
79.19224309
 20
21.51052451
 30
0.0
 11
77.05224309
 21
21.51052451
 31
0.0
  0
LINE
  8
0
  6
CONTINUOUS
 62
       7
  5
C8
 10
64.09724309
 20
22.08552451
 30
0.0
 11
63.76224309
 21
22.08552451
 31
0.0
  0
LINE
  8
0
  6
CONTINUOUS
 62
       7
  5
C9
 10
64.08724309
 20
21.51052451
 30
0.0
 11
63.19224309
 21
21.51052451
 31
0.0
  0
LINE
  8
0
  6
CONTINUOUS
 62
       7
  5
CA
 10
68.62224309
 20
36.01052451
 30
0.0
 11
68.32724309
 21
21.51052451
 31
0.0
  0
LINE
  8
0
  6
CONTINUOUS
 62
       7
  5
CB
 10
83.14724309
 20
36.01052451
 30
0.0
 11
83.43724309
 21
21.51052451
 31
0.0
  0
LINE
  8
0
  6
CONTINUOUS
 62
       7
  5
CC
 10
83.46224309
 20
37.01052451
 30
0.0
 11
83.76224309
 21
22.08552451
 31
0.0
  0
LINE
  8
0
  6
CONTINUOUS
 62
       7
  5
CD
 10
63.48224309
 20
36.01052451
 30
0.0
 11
63.19224309
 21
21.51052451
 31
0.0
  0
LINE
  8
0
  6
CONTINUOUS
 62
       7
  5
CE
 10
64.06224309
 20
37.01052451
 30
0.0
 11
63.76224309
 21
22.08552451
 31
0.0
  0
LINE
  8
0
  6
CONTINUOUS
 62
       7
  5
CF
 10
84.04224309
 20
36.01052451
 30
0.0
 11
84.33224309
 21
21.51052451
 31
0.0
  0
LINE
  8
0
  6
CONTINUOUS
 62
       7
  5
D0
 10
63.48224309
 20
36.01052451
 30
0.0
 11
64.06224309
 21
37.01052451
 31
0.0
  0
LINE
  8
0
  6
CONTINUOUS
 62
       7
  5
D1
 10
64.97224309
 20
37.01052451
 30
0.0
 11
64.37724309
 21
36.01052451
 31
0.0
  0
LINE
  8
0
  6
CONTINUOUS
 62
       7
  5
D2
 10
69.65224309
 20
37.01052451
 30
0.0
 11
68.62224309
 21
36.01052451
 31
0.0
  0
LINE
  8
0
  6
CONTINUOUS
 62
       7
  5
D3
 10
70.45224309
 20
37.01052451
 30
0.0
 11
70.76224309
 21
36.01052451
 31
0.0
  0
LINE
  8
0
  6
CONTINUOUS
 62
       7
  5
D4
 10
77.07224309
 20
37.01052451
 30
0.0
 11
76.76224309
 21
36.01052451
 31
0.0
  0
LINE
  8
0
  6
CONTINUOUS
 62
       7
  5
D5
 10
77.86724309
 20
37.01052451
 30
0.0
 11
78.90224309
 21
36.01052451
 31
0.0
  0
LINE
  8
0
  6
CONTINUOUS
 62
       7
  5
D6
 10
82.54724309
 20
37.01052451
 30
0.0
 11
83.14724309
 21
36.01052451
 31
0.0
  0
LINE
  8
0
  6
CONTINUOUS
 62
       7
  5
D7
 10
84.04224309
 20
36.01052451
 30
0.0
 11
83.46224309
 21
37.01052451
 31
0.0
  0
LINE
  8
0
  6
CONTINUOUS
 62
       7
  5
D8
 10
83.76224309
 20
22.08552451
 30
0.0
 11
84.33224309
 21
21.51052451
 31
0.0
  0
LINE
  8
0
  6
CONTINUOUS
 62
       7
  5
D9
 10
78.16724309
 20
22.08552451
 30
0.0
 11
79.19224309
 21
21.51052451
 31
0.0
  0
LINE
  8
0
  6
CONTINUOUS
 62
       7
  5
DA
 10
77.05224309
 20
21.51052451
 30
0.0
 11
77.37224309
 21
22.08552451
 31
0.0
  0
LINE
  8
0
  6
CONTINUOUS
 62
       7
  5
DB
 10
70.15224309
 20
22.08552451
 30
0.0
 11
70.46724309
 21
21.51052451
 31
0.0
  0
LINE
  8
0
  6
CONTINUOUS
 62
       7
  5
DC
 10
69.35224309
 20
22.08552451
 30
0.0
 11
68.32724309
 21
21.51052451
 31
0.0
  0
LINE
  8
0
  6
CONTINUOUS
 62
       7
  5
DD
 10
63.76224309
 20
22.08552451
 30
0.0
 11
63.19224309
 21
21.51052451
 31
0.0
  0
LINE
  8
0
  6
CONTINUOUS
 62
       7
  5
DE
 10
84.76224309
 20
19.51052451
 30
0.0
 11
62.76224309
 21
19.51052451
 31
0.0
  0
LINE
  8
0
  6
CONTINUOUS
 62
       7
  5
DF
 10
85.26224309
 20
3.41052451
 30
0.0
 11
85.07224309
 21
2.71052451
 31
0.0
  0
LINE
  8
0
  6
CONTINUOUS
 62
       7
  5
E0
 10
84.26224309
 20
2.71052451
 30
0.0
 11
84.44724309
 21
3.41052451
 31
0.0
  0
LINE
  8
0
  6
CONTINUOUS
 62
       7
  5
E1
 10
63.26224309
 20
3.41052451
 30
0.0
 11
63.07224309
 21
2.71052451
 31
0.0
  0
LINE
  8
0
  6
CONTINUOUS
 62
       7
  5
E2
 10
62.26224309
 20
2.71052451
 30
0.0
 11
62.44724309
 21
3.41052451
 31
0.0
  0
LINE
  8
0
  6
CONTINUOUS
 62
       7
  5
E3
 10
87.76224309
 20
-0.28947549
 30
0.0
 11
59.76224309
 21
-0.28947549
 31
0.0
  0
LINE
  8
0
  6
CONTINUOUS
 62
       7
  5
E4
 10
87.76224309
 20
-0.28947549
 30
0.0
 11
87.76224309
 21
-38.78947549
 31
0.0
  0
LINE
  8
0
  6
CONTINUOUS
 62
       2
  5
E5
 10
69.17224309
 20
-15.78947549
 30
0.0
 11
78.58724309
 21
-15.78947549
 31
0.0
  0
LINE
  8
0
  6
CONTINUOUS
 62
       2
  5
E6
 10
66.90224309
 20
-17.78947549
 30
0.0
 11
80.94224309
 21
-17.78947549
 31
0.0
  0
LINE
  8
0
  6
CONTINUOUS
 62
       7
  5
E7
 10
62.76224309
 20
13.71052451
 30
0.0
 11
62.76224309
 21
12.71052451
 31
0.0
  0
LINE
  8
0
  6
CONTINUOUS
 62
       7
  5
E8
 10
84.76224309
 20
13.71052451
 30
0.0
 11
84.76224309
 21
12.71052451
 31
0.0
  0
LINE
  8
0
  6
CONTINUOUS
 62
       7
  5
E9
 10
73.76224309
 20
11.49552451
 30
0.0
 11
73.76224309
 21
8.21052451
 31
0.0
  0
LINE
  8
0
  6
CONTINUOUS
 62
       7
  5
EA
 10
86.76224309
 20
5.71052451
 30
0.0
 11
85.75724309
 21
5.71052451
 31
0.0
  0
LINE
  8
0
  6
CONTINUOUS
 62
       7
  5
EB
 10
87.56224309
 20
4.58052451
 30
0.0
 11
87.56224309
 21
3.41052451
 31
0.0
  0
LINE
  8
0
  6
CONTINUOUS
 62
       7
  5
EC
 10
87.76224309
 20
4.71052451
 30
0.0
 11
87.76224309
 21
-0.28947549
 31
0.0
  0
LINE
  8
0
  6
CONTINUOUS
 62
       7
  5
ED
 10
87.71224309
 20
2.71052451
 30
0.0
 11
87.71224309
 21
3.41052451
 31
0.0
  0
LINE
  8
0
  6
CONTINUOUS
 62
       7
  5
EE
 10
59.76224309
 20
-38.78947549
 30
0.0
 11
87.76224309
 21
-38.78947549
 31
0.0
  0
ARC
  8
0
  6
CONTINUOUS
 62
       7
  5
EF
 10
89.76272337
 20
9.71004422
 30
0.0
 40
1.99951977
 50
269.9862375
 51
0.0137625
  0
ARC
  8
0
  6
CONTINUOUS
 62
       7
  5
F0
 10
89.76271959
 20
9.710048
 30
0.0
 40
3.99952353
 50
269.99317381
 51
0.00682619
  0
ARC
  8
0
  6
CONTINUOUS
 62
       7
  5
F1
 10
86.7627369
 20
1.71101832
 30
0.0
 40
0.99950631
 50
359.9716926
 51
90.0283074
  0
ARC
  8
0
  6
CONTINUOUS
 62
       7
  5
F2
 10
60.62957521
 20
4.58182837
 30
0.0
 40
0.6673334
 50
119.86777805
 51
180.11194666
  0
ARC
  8
0
  6
CONTINUOUS
 62
       7
  5
F3
 10
60.76272355
 20
4.71004404
 30
0.0
 40
1.00048058
 50
90.0275155
 51
179.9724845
  0
ARC
  8
0
  6
CONTINUOUS
 62
       7
  5
F4
 10
80.7627369
 20
4.71101832
 30
0.0
 40
0.99950631
 50
359.9716926
 51
90.0283074
  0
CIRCLE
  8
0
  6
CONTINUOUS
 62
       2
  5
F5
 10
73.76321355
 20
-17.78957254
 30
0.0
 40
4.86389637
  0
CIRCLE
  8
0
  6
CONTINUOUS
 62
       7
  5
F6
 10
73.76321355
 20
-15.7894581
 30
0.0
 40
1.69999981
  0
ARC
  8
0
  6
CONTINUOUS
 62
       7
  5
F7
 10
65.06271592
 20
38.01005167
 30
0.0
 40
1.00047295
 50
90.02707865
 51
179.97292135
  0
CIRCLE
  8
0
  6
CONTINUOUS
 62
       7
  5
F8
 10
73.76321355
 20
-17.78957254
 30
0.0
 40
4.27789783
  0
ARC
  8
0
  6
CONTINUOUS
 62
       7
  5
F9
 10
62.75974309
 20
0.81053169
 30
0.0
 40
4.99863419
 50
60.48610824
 51
119.51389176
  0
ARC
  8
0
  6
CONTINUOUS
 62
       7
  5
FA
 10
82.62956046
 20
4.58183688
 30
0.0
 40
0.66731867
 50
119.86704427
 51
180.11268045
  0
ARC
  8
0
  6
CONTINUOUS
 62
       7
  5
FB
 10
64.89760288
 20
4.58056301
 30
0.0
 40
0.6646402
 50
359.99668097
 51
60.76157105
  0
ARC
  8
0
  6
CONTINUOUS
 62
       7
  5
FC
 10
82.46273691
 20
38.01101832
 30
0.0
 40
0.9995063
 50
359.97169231
 51
90.02830769
  0
ARC
  8
0
  6
CONTINUOUS
 62
       7
  5
FD
 10
66.76272355
 20
4.71004404
 30
0.0
 40
1.00048058
 50
90.0275155
 51
179.9724845
  0
ARC
  8
0
  6
CONTINUOUS
 62
       7
  5
FE
 10
60.76272355
 20
1.71004404
 30
0.0
 40
1.00048058
 50
90.0275155
 51
179.9724845
  0
ARC
  8
0
  6
CONTINUOUS
 62
       7
  5
FF
 10
84.75974309
 20
0.81053934
 30
0.0
 40
4.99862753
 50
60.48606508
 51
119.51393492
  0
ARC
  8
0
  6
CONTINUOUS
 62
       7
  5
100
 10
86.7627369
 20
4.71101832
 30
0.0
 40
0.99950631
 50
359.9716926
 51
90.0283074
  0
ARC
  8
0
  6
CONTINUOUS
 62
       7
  5
101
 10
86.89758914
 20
4.58055495
 30
0.0
 40
0.66465395
 50
359.99737579
 51
60.76087623
  0
POLYLINE
  8
0
  6
CONTINUOUS
 62
       7
  5
102
 66
       1
 10
0.0
 20
0.0
 30
0.0
  0
VERTEX
  8
0
  6
CONTINUOUS
 62
       7
  5
1A8
 10
73.76224309
 20
11.49552451
 30
0.0
  0
VERTEX
  8
0
  6
CONTINUOUS
 62
       7
  5
1A9
 10
74.16732809
 20
11.6365306
 30
0.0
  0
VERTEX
  8
0
  6
CONTINUOUS
 62
       7
  5
1AA
 10
74.57566278
 20
11.76962282
 30
0.0
  0
VERTEX
  8
0
  6
CONTINUOUS
 62
       7
  5
1AB
 10
74.98703051
 20
11.89463792
 30
0.0
  0
VERTEX
  8
0
  6
CONTINUOUS
 62
       7
  5
1AC
 10
75.40121464
 20
12.0114126
 30
0.0
  0
VERTEX
  8
0
  6
CONTINUOUS
 62
       7
  5
1AD
 10
75.81799851
 20
12.11978359
 30
0.0
  0
VERTEX
  8
0
  6
CONTINUOUS
 62
       7
  5
1AE
 10
76.23716548
 20
12.21958762
 30
0.0
  0
VERTEX
  8
0
  6
CONTINUOUS
 62
       7
  5
1AF
 10
76.6584989
 20
12.31066142
 30
0.0
  0
VERTEX
  8
0
  6
CONTINUOUS
 62
       7
  5
1B0
 10
77.08178213
 20
12.3928417
 30
0.0
  0
VERTEX
  8
0
  6
CONTINUOUS
 62
       7
  5
1B1
 10
77.50679851
 20
12.46596519
 30
0.0
  0
VERTEX
  8
0
  6
CONTINUOUS
 62
       7
  5
1B2
 10
77.93333139
 20
12.52986863
 30
0.0
  0
VERTEX
  8
0
  6
CONTINUOUS
 62
       7
  5
1B3
 10
78.36116414
 20
12.58438872
 30
0.0
  0
VERTEX
  8
0
  6
CONTINUOUS
 62
       7
  5
1B4
 10
78.7900801
 20
12.6293622
 30
0.0
  0
VERTEX
  8
0
  6
CONTINUOUS
 62
       7
  5
1B5
 10
79.21986262
 20
12.6646258
 30
0.0
  0
VERTEX
  8
0
  6
CONTINUOUS
 62
       7
  5
1B6
 10
79.65029506
 20
12.69001623
 30
0.0
  0
VERTEX
  8
0
  6
CONTINUOUS
 62
       7
  5
1B7
 10
80.08116076
 20
12.70537022
 30
0.0
  0
VERTEX
  8
0
  6
CONTINUOUS
 62
       7
  5
1B8
 10
80.51224309
 20
12.71052451
 30
0.0
  0
VERTEX
  8
0
  6
CONTINUOUS
 62
       7
  5
1B9
 10
80.94332541
 20
12.70537022
 30
0.0
  0
VERTEX
  8
0
  6
CONTINUOUS
 62
       7
  5
1BA
 10
81.37419112
 20
12.69001623
 30
0.0
  0
VERTEX
  8
0
  6
CONTINUOUS
 62
       7
  5
1BB
 10
81.80462356
 20
12.6646258
 30
0.0
  0
VERTEX
  8
0
  6
CONTINUOUS
 62
       7
  5
1BC
 10
82.23440608
 20
12.6293622
 30
0.0
  0
VERTEX
  8
0
  6
CONTINUOUS
 62
       7
  5
1BD
 10
82.66332203
 20
12.58438872
 30
0.0
  0
VERTEX
  8
0
  6
CONTINUOUS
 62
       7
  5
1BE
 10
83.09115478
 20
12.52986862
 30
0.0
  0
VERTEX
  8
0
  6
CONTINUOUS
 62
       7
  5
1BF
 10
83.51768767
 20
12.46596519
 30
0.0
  0
VERTEX
  8
0
  6
CONTINUOUS
 62
       7
  5
1C0
 10
83.94270405
 20
12.39284169
 30
0.0
  0
VERTEX
  8
0
  6
CONTINUOUS
 62
       7
  5
1C1
 10
84.36598727
 20
12.31066141
 30
0.0
  0
VERTEX
  8
0
  6
CONTINUOUS
 62
       7
  5
1C2
 10
84.7873207
 20
12.21958762
 30
0.0
  0
VERTEX
  8
0
  6
CONTINUOUS
 62
       7
  5
1C3
 10
85.20648767
 20
12.11978359
 30
0.0
  0
VERTEX
  8
0
  6
CONTINUOUS
 62
       7
  5
1C4
 10
85.62327154
 20
12.01141259
 30
0.0
  0
VERTEX
  8
0
  6
CONTINUOUS
 62
       7
  5
1C5
 10
86.03745567
 20
11.89463791
 30
0.0
  0
VERTEX
  8
0
  6
CONTINUOUS
 62
       7
  5
1C6
 10
86.4488234
 20
11.76962282
 30
0.0
  0
VERTEX
  8
0
  6
CONTINUOUS
 62
       7
  5
1C7
 10
86.85715809
 20
11.6365306
 30
0.0
  0
VERTEX
  8
0
  6
CONTINUOUS
 62
       7
  5
1C8
 10
87.26224309
 20
11.49552451
 30
0.0
  0
SEQEND
  8
0
  6
CONTINUOUS
 62
       7
  5
1C9
  0
POLYLINE
  8
0
  6
CONTINUOUS
 62
       7
  5
103
 66
       1
 10
0.0
 20
0.0
 30
0.0
  0
VERTEX
  8
0
  6
CONTINUOUS
 62
       7
  5
1CA
 10
73.76224309
 20
11.49552451
 30
0.0
  0
VERTEX
  8
0
  6
CONTINUOUS
 62
       7
  5
1CB
 10
73.35715809
 20
11.6365306
 30
0.0
  0
VERTEX
  8
0
  6
CONTINUOUS
 62
       7
  5
1CC
 10
72.9488234
 20
11.76962282
 30
0.0
  0
VERTEX
  8
0
  6
CONTINUOUS
 62
       7
  5
1CD
 10
72.53745567
 20
11.89463792
 30
0.0
  0
VERTEX
  8
0
  6
CONTINUOUS
 62
       7
  5
1CE
 10
72.12327154
 20
12.0114126
 30
0.0
  0
VERTEX
  8
0
  6
CONTINUOUS
 62
       7
  5
1CF
 10
71.70648767
 20
12.11978359
 30
0.0
  0
VERTEX
  8
0
  6
CONTINUOUS
 62
       7
  5
1D0
 10
71.2873207
 20
12.21958762
 30
0.0
  0
VERTEX
  8
0
  6
CONTINUOUS
 62
       7
  5
1D1
 10
70.86598727
 20
12.31066142
 30
0.0
  0
VERTEX
  8
0
  6
CONTINUOUS
 62
       7
  5
1D2
 10
70.44270405
 20
12.3928417
 30
0.0
  0
VERTEX
  8
0
  6
CONTINUOUS
 62
       7
  5
1D3
 10
70.01768767
 20
12.46596519
 30
0.0
  0
VERTEX
  8
0
  6
CONTINUOUS
 62
       7
  5
1D4
 10
69.59115478
 20
12.52986863
 30
0.0
  0
VERTEX
  8
0
  6
CONTINUOUS
 62
       7
  5
1D5
 10
69.16332203
 20
12.58438872
 30
0.0
  0
VERTEX
  8
0
  6
CONTINUOUS
 62
       7
  5
1D6
 10
68.73440608
 20
12.6293622
 30
0.0
  0
VERTEX
  8
0
  6
CONTINUOUS
 62
       7
  5
1D7
 10
68.30462356
 20
12.6646258
 30
0.0
  0
VERTEX
  8
0
  6
CONTINUOUS
 62
       7
  5
1D8
 10
67.87419112
 20
12.69001623
 30
0.0
  0
VERTEX
  8
0
  6
CONTINUOUS
 62
       7
  5
1D9
 10
67.44332541
 20
12.70537022
 30
0.0
  0
VERTEX
  8
0
  6
CONTINUOUS
 62
       7
  5
1DA
 10
67.01224309
 20
12.71052451
 30
0.0
  0
VERTEX
  8
0
  6
CONTINUOUS
 62
       7
  5
1DB
 10
66.58116076
 20
12.70537022
 30
0.0
  0
VERTEX
  8
0
  6
CONTINUOUS
 62
       7
  5
1DC
 10
66.15029506
 20
12.69001623
 30
0.0
  0
VERTEX
  8
0
  6
CONTINUOUS
 62
       7
  5
1DD
 10
65.71986262
 20
12.6646258
 30
0.0
  0
VERTEX
  8
0
  6
CONTINUOUS
 62
       7
  5
1DE
 10
65.2900801
 20
12.6293622
 30
0.0
  0
VERTEX
  8
0
  6
CONTINUOUS
 62
       7
  5
1DF
 10
64.86116414
 20
12.58438872
 30
0.0
  0
VERTEX
  8
0
  6
CONTINUOUS
 62
       7
  5
1E0
 10
64.43333139
 20
12.52986862
 30
0.0
  0
VERTEX
  8
0
  6
CONTINUOUS
 62
       7
  5
1E1
 10
64.00679851
 20
12.46596519
 30
0.0
  0
VERTEX
  8
0
  6
CONTINUOUS
 62
       7
  5
1E2
 10
63.58178213
 20
12.39284169
 30
0.0
  0
VERTEX
  8
0
  6
CONTINUOUS
 62
       7
  5
1E3
 10
63.1584989
 20
12.31066141
 30
0.0
  0
VERTEX
  8
0
  6
CONTINUOUS
 62
       7
  5
1E4
 10
62.73716548
 20
12.21958762
 30
0.0
  0
VERTEX
  8
0
  6
CONTINUOUS
 62
       7
  5
1E5
 10
62.31799851
 20
12.11978359
 30
0.0
  0
VERTEX
  8
0
  6
CONTINUOUS
 62
       7
  5
1E6
 10
61.90121464
 20
12.01141259
 30
0.0
  0
VERTEX
  8
0
  6
CONTINUOUS
 62
       7
  5
1E7
 10
61.48703051
 20
11.89463791
 30
0.0
  0
VERTEX
  8
0
  6
CONTINUOUS
 62
       7
  5
1E8
 10
61.07566278
 20
11.76962282
 30
0.0
  0
VERTEX
  8
0
  6
CONTINUOUS
 62
       7
  5
1E9
 10
60.66732809
 20
11.6365306
 30
0.0
  0
VERTEX
  8
0
  6
CONTINUOUS
 62
       7
  5
1EA
 10
60.26224309
 20
11.49552451
 30
0.0
  0
SEQEND
  8
0
  6
CONTINUOUS
 62
       7
  5
1EB
  0
LINE
  8
0
  6
CONTINUOUS
 62
       2
  5
104
 10
73.76224309
 20
41.25052451
 30
0.0
 11
73.76224309
 21
-41.88295773
 31
0.0
  0
LINE
  8
0
  6
CONTINUOUS
 62
       7
  5
105
 10
-30.89275691
 20
7.71052451
 30
0.0
 11
-37.39275691
 21
7.71052451
 31
0.0
  0
LINE
  8
0
  6
CONTINUOUS
 62
       7
  5
106
 10
-37.39275691
 20
7.71052451
 30
0.0
 11
-64.39275691
 21
7.71052451
 31
0.0
  0
LINE
  8
0
  6
CONTINUOUS
 62
       7
  5
107
 10
-66.49275691
 20
11.49552451
 30
0.0
 11
-66.49275691
 21
8.21052451
 31
0.0
  0
LINE
  8
0
  6
CONTINUOUS
 62
       7
  5
108
 10
-35.29275691
 20
11.49552451
 30
0.0
 11
-35.29275691
 21
8.21052451
 31
0.0
  0
LINE
  8
0
  6
CONTINUOUS
 62
       7
  5
109
 10
-35.29275691
 20
8.21052451
 30
0.0
 11
-66.49275691
 21
8.21052451
 31
0.0
  0
LINE
  8
0
  6
CONTINUOUS
 62
       7
  5
10A
 10
-37.39275691
 20
8.21052451
 30
0.0
 11
-37.39275691
 21
7.71052451
 31
0.0
  0
LINE
  8
0
  6
CONTINUOUS
 62
       7
  5
10B
 10
-64.39275691
 20
8.21052451
 30
0.0
 11
-64.39275691
 21
7.71052451
 31
0.0
  0
LINE
  8
0
  6
CONTINUOUS
 62
       7
  5
10C
 10
-37.39275691
 20
12.71052451
 30
0.0
 11
-64.39275691
 21
12.71052451
 31
0.0
  0
LINE
  8
0
  6
CONTINUOUS
 62
       7
  5
10D
 10
-35.29275691
 20
11.49552451
 30
0.0
 11
-37.39275691
 21
12.71052451
 31
0.0
  0
LINE
  8
0
  6
CONTINUOUS
 62
       7
  5
10E
 10
-64.39275691
 20
12.71052451
 30
0.0
 11
-66.49275691
 21
11.49552451
 31
0.0
  0
LINE
  8
0
  6
CONTINUOUS
 62
       2
  5
10F
 10
-39.89275691
 20
1.71052451
 30
0.0
 11
-39.89275691
 21
7.71052451
 31
0.0
  0
LINE
  8
0
  6
CONTINUOUS
 62
       7
  5
110
 10
-42.84275691
 20
3.41052451
 30
0.0
 11
-36.94275691
 21
3.41052451
 31
0.0
  0
LINE
  8
0
  6
CONTINUOUS
 62
       7
  5
111
 10
-42.84275691
 20
2.71052451
 30
0.0
 11
-42.84275691
 21
3.41052451
 31
0.0
  0
LINE
  8
0
  6
CONTINUOUS
 62
       7
  5
112
 10
-36.94275691
 20
2.71052451
 30
0.0
 11
-36.94275691
 21
3.41052451
 31
0.0
  0
LINE
  8
0
  6
CONTINUOUS
 62
       7
  5
113
 10
-37.09275691
 20
4.58052451
 30
0.0
 11
-37.09275691
 21
3.41052451
 31
0.0
  0
LINE
  8
0
  6
CONTINUOUS
 62
       7
  5
114
 10
-42.69275691
 20
4.58052451
 30
0.0
 11
-42.69275691
 21
3.41052451
 31
0.0
  0
LINE
  8
0
  6
CONTINUOUS
 62
       7
  5
115
 10
-42.89275691
 20
4.71052451
 30
0.0
 11
-42.89275691
 21
2.71052451
 31
0.0
  0
LINE
  8
0
  6
CONTINUOUS
 62
       7
  5
116
 10
-58.89275691
 20
4.71052451
 30
0.0
 11
-58.89275691
 21
2.71052451
 31
0.0
  0
LINE
  8
0
  6
CONTINUOUS
 62
       7
  5
117
 10
-36.94275691
 20
2.71052451
 30
0.0
 11
-42.89275691
 21
2.71052451
 31
0.0
  0
LINE
  8
0
  6
CONTINUOUS
 62
       7
  5
118
 10
-58.89275691
 20
2.71052451
 30
0.0
 11
-64.84275691
 21
2.71052451
 31
0.0
  0
LINE
  8
0
  6
CONTINUOUS
 62
       7
  5
119
 10
-58.94275691
 20
3.41052451
 30
0.0
 11
-64.84275691
 21
3.41052451
 31
0.0
  0
LINE
  8
0
  6
CONTINUOUS
 62
       7
  5
11A
 10
-58.94275691
 20
2.71052451
 30
0.0
 11
-58.94275691
 21
3.41052451
 31
0.0
  0
LINE
  8
0
  6
CONTINUOUS
 62
       7
  5
11B
 10
-64.84275691
 20
2.71052451
 30
0.0
 11
-64.84275691
 21
3.41052451
 31
0.0
  0
LINE
  8
0
  6
CONTINUOUS
 62
       7
  5
11C
 10
-64.69275691
 20
4.58052451
 30
0.0
 11
-64.69275691
 21
3.41052451
 31
0.0
  0
LINE
  8
0
  6
CONTINUOUS
 62
       7
  5
11D
 10
-59.09275691
 20
4.58052451
 30
0.0
 11
-59.09275691
 21
3.41052451
 31
0.0
  0
LINE
  8
0
  6
CONTINUOUS
 62
       2
  5
11E
 10
-61.89275691
 20
1.71052451
 30
0.0
 11
-61.89275691
 21
7.71052451
 31
0.0
  0
LINE
  8
0
  6
CONTINUOUS
 62
       7
  5
11F
 10
-40.88775691
 20
5.71052451
 30
0.0
 11
-60.89775691
 21
5.71052451
 31
0.0
  0
LINE
  8
0
  6
CONTINUOUS
 62
       7
  5
120
 10
-62.88775691
 20
5.71052451
 30
0.0
 11
-63.89275691
 21
5.71052451
 31
0.0
  0
LINE
  8
0
  6
CONTINUOUS
 62
       7
  5
121
 10
-40.89275691
 20
15.71052451
 30
0.0
 11
-60.89275691
 21
15.71052451
 31
0.0
  0
LINE
  8
0
  6
CONTINUOUS
 62
       7
  5
122
 10
-39.89275691
 20
13.71052451
 30
0.0
 11
-61.89275691
 21
13.71052451
 31
0.0
  0
LINE
  8
0
  6
CONTINUOUS
 62
       7
  5
123
 10
-39.89275691
 20
14.71052451
 30
0.0
 11
-39.89275691
 21
13.71052451
 31
0.0
  0
LINE
  8
0
  6
CONTINUOUS
 62
       7
  5
124
 10
-61.89275691
 20
14.71052451
 30
0.0
 11
-61.89275691
 21
13.71052451
 31
0.0
  0
LINE
  8
0
  6
CONTINUOUS
 62
       7
  5
125
 10
-61.89275691
 20
13.71052451
 30
0.0
 11
-62.89275691
 21
12.71052451
 31
0.0
  0
LINE
  8
0
  6
CONTINUOUS
 62
       7
  5
126
 10
-39.89275691
 20
13.71052451
 30
0.0
 11
-38.89275691
 21
12.71052451
 31
0.0
  0
LINE
  8
0
  6
CONTINUOUS
 62
       7
  5
127
 10
-40.89275691
 20
15.71052451
 30
0.0
 11
-39.89275691
 21
14.71052451
 31
0.0
  0
LINE
  8
0
  6
CONTINUOUS
 62
       7
  5
128
 10
-60.89275691
 20
15.71052451
 30
0.0
 11
-61.89275691
 21
14.71052451
 31
0.0
  0
LINE
  8
0
  6
CONTINUOUS
 62
       7
  5
129
 10
-39.89275691
 20
14.71052451
 30
0.0
 11
-61.89275691
 21
14.71052451
 31
0.0
  0
LINE
  8
0
  6
CONTINUOUS
 62
       7
  5
12A
 10
-59.39275691
 20
19.01052451
 30
0.0
 11
-59.39275691
 21
15.71052451
 31
0.0
  0
LINE
  8
0
  6
CONTINUOUS
 62
       7
  5
12B
 10
-42.39275691
 20
19.01052451
 30
0.0
 11
-42.39275691
 21
15.71052451
 31
0.0
  0
LINE
  8
0
  6
CONTINUOUS
 62
       7
  5
12C
 10
-44.35775691
 20
19.01052451
 30
0.0
 11
-44.35775691
 21
15.71052451
 31
0.0
  0
LINE
  8
0
  6
CONTINUOUS
 62
       7
  5
12D
 10
-48.92775691
 20
19.01052451
 30
0.0
 11
-48.92775691
 21
15.71052451
 31
0.0
  0
LINE
  8
0
  6
CONTINUOUS
 62
       7
  5
12E
 10
-52.85775691
 20
19.01052451
 30
0.0
 11
-52.85775691
 21
15.71052451
 31
0.0
  0
LINE
  8
0
  6
CONTINUOUS
 62
       7
  5
12F
 10
-57.42775691
 20
19.01052451
 30
0.0
 11
-57.42775691
 21
15.71052451
 31
0.0
  0
LINE
  8
0
  6
CONTINUOUS
 62
       7
  5
130
 10
-64.89275691
 20
4.71052451
 30
0.0
 11
-64.89275691
 21
-0.28947549
 31
0.0
  0
LINE
  8
0
  6
CONTINUOUS
 62
       7
  5
131
 10
-36.89275691
 20
4.71052451
 30
0.0
 11
-36.89275691
 21
-0.28947549
 31
0.0
  0
LINE
  8
0
  6
CONTINUOUS
 62
       7
  5
132
 10
-40.39275691
 20
19.01052451
 30
0.0
 11
-61.39275691
 21
19.01052451
 31
0.0
  0
LINE
  8
0
  6
CONTINUOUS
 62
       7
  5
133
 10
-39.89275691
 20
19.51052451
 30
0.0
 11
-40.39275691
 21
19.01052451
 31
0.0
  0
LINE
  8
0
  6
CONTINUOUS
 62
       7
  5
134
 10
-61.89275691
 20
19.51052451
 30
0.0
 11
-61.39275691
 21
19.01052451
 31
0.0
  0
LINE
  8
0
  6
CONTINUOUS
 62
       7
  5
135
 10
-41.19275691
 20
37.01052451
 30
0.0
 11
-40.19275691
 21
36.01052451
 31
0.0
  0
LINE
  8
0
  6
CONTINUOUS
 62
       7
  5
136
 10
-60.59275691
 20
37.01052451
 30
0.0
 11
-61.59275691
 21
36.01052451
 31
0.0
  0
LINE
  8
0
  6
CONTINUOUS
 62
       7
  5
137
 10
-40.19275691
 20
36.01052451
 30
0.0
 11
-39.89275691
 21
19.51052451
 31
0.0
  0
LINE
  8
0
  6
CONTINUOUS
 62
       7
  5
138
 10
-61.59275691
 20
36.01052451
 30
0.0
 11
-61.89275691
 21
19.51052451
 31
0.0
  0
LINE
  8
0
  6
CONTINUOUS
 62
       7
  5
139
 10
-47.89275691
 20
36.01052451
 30
0.0
 11
-47.60275691
 21
21.51052451
 31
0.0
  0
LINE
  8
0
  6
CONTINUOUS
 62
       7
  5
13A
 10
-53.89275691
 20
36.01052451
 30
0.0
 11
-54.18275691
 21
21.51052451
 31
0.0
  0
LINE
  8
0
  6
CONTINUOUS
 62
       7
  5
13B
 10
-40.89275691
 20
22.08552451
 30
0.0
 11
-41.22775691
 21
22.08552451
 31
0.0
  0
LINE
  8
0
  6
CONTINUOUS
 62
       7
  5
13C
 10
-40.32275691
 20
21.51052451
 30
0.0
 11
-41.21775691
 21
21.51052451
 31
0.0
  0
LINE
  8
0
  6
CONTINUOUS
 62
       7
  5
13D
 10
-47.58275691
 20
37.01052451
 30
0.0
 11
-47.28275691
 21
22.08552451
 31
0.0
  0
LINE
  8
0
  6
CONTINUOUS
 62
       7
  5
13E
 10
-54.20275691
 20
37.01052451
 30
0.0
 11
-54.50275691
 21
22.08552451
 31
0.0
  0
LINE
  8
0
  6
CONTINUOUS
 62
       7
  5
13F
 10
-54.50275691
 20
22.08552451
 30
0.0
 11
-55.30275691
 21
22.08552451
 31
0.0
  0
LINE
  8
0
  6
CONTINUOUS
 62
       7
  5
140
 10
-54.18275691
 20
21.51052451
 30
0.0
 11
-56.32775691
 21
21.51052451
 31
0.0
  0
LINE
  8
0
  6
CONTINUOUS
 62
       7
  5
141
 10
-55.00275691
 20
37.01052451
 30
0.0
 11
-55.30275691
 21
22.08552451
 31
0.0
  0
LINE
  8
0
  6
CONTINUOUS
 62
       7
  5
142
 10
-46.78775691
 20
37.01052451
 30
0.0
 11
-46.48775691
 21
22.08552451
 31
0.0
  0
LINE
  8
0
  6
CONTINUOUS
 62
       7
  5
143
 10
-55.00275691
 20
37.01052451
 30
0.0
 11
-59.68275691
 21
37.01052451
 31
0.0
  0
LINE
  8
0
  6
CONTINUOUS
 62
       7
  5
144
 10
-47.58275691
 20
37.01052451
 30
0.0
 11
-54.20275691
 21
37.01052451
 31
0.0
  0
LINE
  8
0
  6
CONTINUOUS
 62
       7
  5
145
 10
-47.89275691
 20
36.01052451
 30
0.0
 11
-53.89275691
 21
36.01052451
 31
0.0
  0
LINE
  8
0
  6
CONTINUOUS
 62
       7
  5
146
 10
-56.03275691
 20
36.01052451
 30
0.0
 11
-60.27775691
 21
36.01052451
 31
0.0
  0
LINE
  8
0
  6
CONTINUOUS
 62
       7
  5
147
 10
-60.27775691
 20
36.01052451
 30
0.0
 11
-60.56775691
 21
21.51052451
 31
0.0
  0
LINE
  8
0
  6
CONTINUOUS
 62
       7
  5
148
 10
-45.75275691
 20
36.01052451
 30
0.0
 11
-45.46275691
 21
21.51052451
 31
0.0
  0
LINE
  8
0
  6
CONTINUOUS
 62
       7
  5
149
 10
-42.10775691
 20
37.01052451
 30
0.0
 11
-46.78775691
 21
37.01052451
 31
0.0
  0
LINE
  8
0
  6
CONTINUOUS
 62
       7
  5
14A
 10
-41.50775691
 20
36.01052451
 30
0.0
 11
-45.75275691
 21
36.01052451
 31
0.0
  0
LINE
  8
0
  6
CONTINUOUS
 62
       7
  5
14B
 10
-46.48775691
 20
22.08552451
 30
0.0
 11
-47.28275691
 21
22.08552451
 31
0.0
  0
LINE
  8
0
  6
CONTINUOUS
 62
       7
  5
14C
 10
-45.46275691
 20
21.51052451
 30
0.0
 11
-47.60275691
 21
21.51052451
 31
0.0
  0
LINE
  8
0
  6
CONTINUOUS
 62
       7
  5
14D
 10
-60.55775691
 20
22.08552451
 30
0.0
 11
-60.89275691
 21
22.08552451
 31
0.0
  0
LINE
  8
0
  6
CONTINUOUS
 62
       7
  5
14E
 10
-60.56775691
 20
21.51052451
 30
0.0
 11
-61.46275691
 21
21.51052451
 31
0.0
  0
LINE
  8
0
  6
CONTINUOUS
 62
       7
  5
14F
 10
-56.03275691
 20
36.01052451
 30
0.0
 11
-56.32775691
 21
21.51052451
 31
0.0
  0
LINE
  8
0
  6
CONTINUOUS
 62
       7
  5
150
 10
-41.50775691
 20
36.01052451
 30
0.0
 11
-41.21775691
 21
21.51052451
 31
0.0
  0
LINE
  8
0
  6
CONTINUOUS
 62
       7
  5
151
 10
-41.19275691
 20
37.01052451
 30
0.0
 11
-40.89275691
 21
22.08552451
 31
0.0
  0
LINE
  8
0
  6
CONTINUOUS
 62
       7
  5
152
 10
-61.17275691
 20
36.01052451
 30
0.0
 11
-61.46275691
 21
21.51052451
 31
0.0
  0
LINE
  8
0
  6
CONTINUOUS
 62
       7
  5
153
 10
-60.59275691
 20
37.01052451
 30
0.0
 11
-60.89275691
 21
22.08552451
 31
0.0
  0
LINE
  8
0
  6
CONTINUOUS
 62
       7
  5
154
 10
-40.61275691
 20
36.01052451
 30
0.0
 11
-40.32275691
 21
21.51052451
 31
0.0
  0
LINE
  8
0
  6
CONTINUOUS
 62
       7
  5
155
 10
-61.17275691
 20
36.01052451
 30
0.0
 11
-60.59275691
 21
37.01052451
 31
0.0
  0
LINE
  8
0
  6
CONTINUOUS
 62
       7
  5
156
 10
-59.68275691
 20
37.01052451
 30
0.0
 11
-60.27775691
 21
36.01052451
 31
0.0
  0
LINE
  8
0
  6
CONTINUOUS
 62
       7
  5
157
 10
-55.00275691
 20
37.01052451
 30
0.0
 11
-56.03275691
 21
36.01052451
 31
0.0
  0
LINE
  8
0
  6
CONTINUOUS
 62
       7
  5
158
 10
-54.20275691
 20
37.01052451
 30
0.0
 11
-53.89275691
 21
36.01052451
 31
0.0
  0
LINE
  8
0
  6
CONTINUOUS
 62
       7
  5
159
 10
-47.58275691
 20
37.01052451
 30
0.0
 11
-47.89275691
 21
36.01052451
 31
0.0
  0
LINE
  8
0
  6
CONTINUOUS
 62
       7
  5
15A
 10
-46.78775691
 20
37.01052451
 30
0.0
 11
-45.75275691
 21
36.01052451
 31
0.0
  0
LINE
  8
0
  6
CONTINUOUS
 62
       7
  5
15B
 10
-42.10775691
 20
37.01052451
 30
0.0
 11
-41.50775691
 21
36.01052451
 31
0.0
  0
LINE
  8
0
  6
CONTINUOUS
 62
       7
  5
15C
 10
-40.61275691
 20
36.01052451
 30
0.0
 11
-41.19275691
 21
37.01052451
 31
0.0
  0
LINE
  8
0
  6
CONTINUOUS
 62
       7
  5
15D
 10
-40.89275691
 20
22.08552451
 30
0.0
 11
-40.32275691
 21
21.51052451
 31
0.0
  0
LINE
  8
0
  6
CONTINUOUS
 62
       7
  5
15E
 10
-46.48775691
 20
22.08552451
 30
0.0
 11
-45.46275691
 21
21.51052451
 31
0.0
  0
LINE
  8
0
  6
CONTINUOUS
 62
       7
  5
15F
 10
-47.60275691
 20
21.51052451
 30
0.0
 11
-47.28275691
 21
22.08552451
 31
0.0
  0
LINE
  8
0
  6
CONTINUOUS
 62
       7
  5
160
 10
-54.50275691
 20
22.08552451
 30
0.0
 11
-54.18275691
 21
21.51052451
 31
0.0
  0
LINE
  8
0
  6
CONTINUOUS
 62
       7
  5
161
 10
-55.30275691
 20
22.08552451
 30
0.0
 11
-56.32775691
 21
21.51052451
 31
0.0
  0
LINE
  8
0
  6
CONTINUOUS
 62
       7
  5
162
 10
-60.89275691
 20
22.08552451
 30
0.0
 11
-61.46275691
 21
21.51052451
 31
0.0
  0
LINE
  8
0
  6
CONTINUOUS
 62
       7
  5
163
 10
-39.89275691
 20
19.51052451
 30
0.0
 11
-61.89275691
 21
19.51052451
 31
0.0
  0
LINE
  8
0
  6
CONTINUOUS
 62
       7
  5
164
 10
-39.39275691
 20
3.41052451
 30
0.0
 11
-39.58275691
 21
2.71052451
 31
0.0
  0
LINE
  8
0
  6
CONTINUOUS
 62
       7
  5
165
 10
-40.39275691
 20
2.71052451
 30
0.0
 11
-40.20775691
 21
3.41052451
 31
0.0
  0
LINE
  8
0
  6
CONTINUOUS
 62
       7
  5
166
 10
-61.39275691
 20
3.41052451
 30
0.0
 11
-61.58275691
 21
2.71052451
 31
0.0
  0
LINE
  8
0
  6
CONTINUOUS
 62
       7
  5
167
 10
-62.39275691
 20
2.71052451
 30
0.0
 11
-62.20775691
 21
3.41052451
 31
0.0
  0
LINE
  8
0
  6
CONTINUOUS
 62
       7
  5
168
 10
-36.89275691
 20
-0.28947549
 30
0.0
 11
-37.50199517
 21
-0.28947549
 31
0.0
  0
LINE
  8
0
  6
CONTINUOUS
 62
       7
  5
169
 10
-70.89275691
 20
5.71052451
 30
0.0
 11
-63.89275691
 21
5.71052451
 31
0.0
  0
LINE
  8
0
  6
CONTINUOUS
 62
       7
  5
16A
 10
-30.89275691
 20
33.71052451
 30
0.0
 11
-30.89275691
 21
5.71052451
 31
0.0
  0
LINE
  8
0
  6
CONTINUOUS
 62
       7
  5
16B
 10
-70.89275691
 20
33.71052451
 30
0.0
 11
-70.89275691
 21
5.71052451
 31
0.0
  0
LINE
  8
0
  6
CONTINUOUS
 62
       7
  5
16C
 10
-64.39275691
 20
7.71052451
 30
0.0
 11
-70.89275691
 21
7.71052451
 31
0.0
  0
LINE
  8
0
  6
CONTINUOUS
 62
       7
  5
16D
 10
-37.89275691
 20
5.71052451
 30
0.0
 11
-30.89275691
 21
5.71052451
 31
0.0
  0
LINE
  8
0
  6
CONTINUOUS
 62
       7
  5
16E
 10
-40.18275691
 20
35.71052451
 30
0.0
 11
-32.89275691
 21
35.71052451
 31
0.0
  0
LINE
  8
0
  6
CONTINUOUS
 62
       7
  5
16F
 10
-68.89275691
 20
35.71052451
 30
0.0
 11
-61.60275691
 21
35.71052451
 31
0.0
  0
LINE
  8
0
  6
CONTINUOUS
 62
       7
  5
170
 10
-68.89275691
 20
35.71052451
 30
0.0
 11
-70.89275691
 21
33.71052451
 31
0.0
  0
LINE
  8
0
  6
CONTINUOUS
 62
       7
  5
171
 10
-32.89275691
 20
35.71052451
 30
0.0
 11
-30.89275691
 21
33.71052451
 31
0.0
  0
LINE
  8
0
  6
CONTINUOUS
 62
       2
  5
172
 10
-68.89275691
 20
25.71052451
 30
0.0
 11
-59.89275691
 21
25.71052451
 31
0.0
  0
LINE
  8
0
  6
CONTINUOUS
 62
       2
  5
173
 10
-63.89275691
 20
29.21052451
 30
0.0
 11
-63.89275691
 21
22.21052451
 31
0.0
  0
LINE
  8
0
  6
CONTINUOUS
 62
       2
  5
174
 10
-62.89275691
 20
29.21052451
 30
0.0
 11
-62.89275691
 21
22.21052451
 31
0.0
  0
LINE
  8
0
  6
CONTINUOUS
 62
       2
  5
175
 10
-64.89275691
 20
29.21052451
 30
0.0
 11
-64.89275691
 21
22.21052451
 31
0.0
  0
LINE
  8
0
  6
CONTINUOUS
 62
       7
  5
176
 10
-64.89275691
 20
28.21052451
 30
0.0
 11
-62.89275691
 21
28.21052451
 31
0.0
  0
LINE
  8
0
  6
CONTINUOUS
 62
       7
  5
177
 10
-64.89275691
 20
23.21052451
 30
0.0
 11
-62.89275691
 21
23.21052451
 31
0.0
  0
LINE
  8
0
  6
CONTINUOUS
 62
       2
  5
178
 10
-37.89275691
 20
29.21052451
 30
0.0
 11
-37.89275691
 21
22.21052451
 31
0.0
  0
LINE
  8
0
  6
CONTINUOUS
 62
       2
  5
179
 10
-32.89275691
 20
25.71052451
 30
0.0
 11
-41.89275691
 21
25.71052451
 31
0.0
  0
LINE
  8
0
  6
CONTINUOUS
 62
       7
  5
17A
 10
-61.89275691
 20
13.71052451
 30
0.0
 11
-61.89275691
 21
12.71052451
 31
0.0
  0
LINE
  8
0
  6
CONTINUOUS
 62
       7
  5
17B
 10
-39.89275691
 20
13.71052451
 30
0.0
 11
-39.89275691
 21
12.71052451
 31
0.0
  0
LINE
  8
0
  6
CONTINUOUS
 62
       7
  5
17C
 10
-50.89275691
 20
11.49552451
 30
0.0
 11
-50.89275691
 21
8.21052451
 31
0.0
  0
LINE
  8
0
  6
CONTINUOUS
 62
       7
  5
17D
 10
-37.89275691
 20
5.71052451
 30
0.0
 11
-38.89775691
 21
5.71052451
 31
0.0
  0
LINE
  8
0
  6
CONTINUOUS
 62
       2
  5
17E
 10
-38.89275691
 20
29.21052451
 30
0.0
 11
-38.89275691
 21
22.21052451
 31
0.0
  0
LINE
  8
0
  6
CONTINUOUS
 62
       7
  5
17F
 10
-36.89275691
 20
23.21052451
 30
0.0
 11
-38.89275691
 21
23.21052451
 31
0.0
  0
LINE
  8
0
  6
CONTINUOUS
 62
       7
  5
180
 10
-36.89275691
 20
28.21052451
 30
0.0
 11
-38.89275691
 21
28.21052451
 31
0.0
  0
LINE
  8
0
  6
CONTINUOUS
 62
       2
  5
181
 10
-36.89275691
 20
29.21052451
 30
0.0
 11
-36.89275691
 21
22.21052451
 31
0.0
  0
LINE
  8
0
  6
CONTINUOUS
 62
       7
  5
182
 10
-58.68775691
 20
11.49552451
 30
0.0
 11
-58.68775691
 21
8.21052451
 31
0.0
  0
LINE
  8
0
  6
CONTINUOUS
 62
       7
  5
183
 10
-43.09775691
 20
11.49552451
 30
0.0
 11
-43.09775691
 21
8.21052451
 31
0.0
  0
ARC
  8
0
  6
CONTINUOUS
 62
       7
  5
184
 10
-39.89275691
 20
0.81053969
 30
0.0
 40
4.99739611
 50
60.51100647
 51
119.48899353
  0
ARC
  8
0
  6
CONTINUOUS
 62
       7
  5
185
 10
-37.76020437
 20
4.57891738
 30
0.0
 40
0.66744939
 50
0.13796079
 51
60.62029123
  0
ARC
  8
0
  6
CONTINUOUS
 62
       7
  5
186
 10
-42.0294756
 20
4.5813596
 30
0.0
 40
0.66328184
 50
119.16961082
 51
180.07213715
  0
ARC
  8
0
  6
CONTINUOUS
 62
       7
  5
187
 10
-37.89414401
 20
4.70913741
 30
0.0
 40
1.00138805
 50
0.07936446
 51
89.92063554
  0
ARC
  8
0
  6
CONTINUOUS
 62
       7
  5
188
 10
-63.89415183
 20
4.71191942
 30
0.0
 40
0.99860606
 50
89.91996576
 51
180.08003424
  0
ARC
  8
0
  6
CONTINUOUS
 62
       7
  5
189
 10
-43.89414401
 20
4.70913741
 30
0.0
 40
1.00138805
 50
0.07936446
 51
89.92063554
  0
ARC
  8
0
  6
CONTINUOUS
 62
       7
  5
18A
 10
-57.89415183
 20
4.71191942
 30
0.0
 40
0.99860606
 50
89.91996576
 51
180.08003424
  0
ARC
  8
0
  6
CONTINUOUS
 62
       7
  5
18B
 10
-37.89414401
 20
1.70913741
 30
0.0
 40
1.00138805
 50
0.07936446
 51
89.92063554
  0
ARC
  8
0
  6
CONTINUOUS
 62
       7
  5
18C
 10
-63.89415183
 20
1.71191942
 30
0.0
 40
0.99860606
 50
89.91996576
 51
180.08003424
  0
ARC
  8
0
  6
CONTINUOUS
 62
       7
  5
18D
 10
-64.02946091
 20
4.58135099
 30
0.0
 40
0.66329651
 50
119.17035609
 51
180.07139189
  0
ARC
  8
0
  6
CONTINUOUS
 62
       7
  5
18E
 10
-59.76019628
 20
4.57892212
 30
0.0
 40
0.66744129
 50
0.13755529
 51
60.62069673
  0
ARC
  8
0
  6
CONTINUOUS
 62
       7
  5
18F
 10
-61.89275691
 20
0.81053207
 30
0.0
 40
4.99740274
 50
60.51104947
 51
119.48895053
  0
ARC
  8
0
  6
CONTINUOUS
 62
       7
  5
190
 10
-64.89275691
 20
25.71052451
 30
0.0
 40
2.50000156
 50
90.0
 51
270.0
  0
ARC
  8
0
  6
CONTINUOUS
 62
       7
  5
191
 10
-62.89178099
 20
25.71138185
 30
0.0
 40
2.50085754
 50
269.97764119
 51
295.30666346
  0
CIRCLE
  8
0
  6
CONTINUOUS
 62
       7
  5
192
 10
-50.89554652
 20
-16.78957254
 30
0.0
 40
0.5
  0
ARC
  8
0
  6
CONTINUOUS
 62
       7
  5
193
 10
-62.90163265
 20
25.7120347
 30
0.0
 40
2.49850557
 50
62.3656301
 51
89.79646106
  0
ARC
  8
0
  6
CONTINUOUS
 62
       7
  5
194
 10
-38.88893816
 20
25.71215378
 30
0.0
 40
2.49837365
 50
90.08757634
 51
117.63447878
  0
ARC
  8
0
  6
CONTINUOUS
 62
       7
  5
195
 10
-38.89400024
 20
25.71018965
 30
0.0
 40
2.49966545
 50
244.68719646
 51
270.02849888
  0
ARC
  8
0
  6
CONTINUOUS
 62
       7
  5
196
 10
-36.89275691
 20
25.71052451
 30
0.0
 40
2.50000155
 50
270.0
 51
90.0
  0
POLYLINE
  8
0
  6
CONTINUOUS
 62
       7
  5
197
 66
       1
 10
0.0
 20
0.0
 30
0.0
  0
VERTEX
  8
0
  6
CONTINUOUS
 62
       7
  5
1EC
 10
-58.68775691
 20
11.49552451
 30
0.0
  0
VERTEX
  8
0
  6
CONTINUOUS
 62
       7
  5
1ED
 10
-58.21549736
 20
11.6378784
 30
0.0
  0
VERTEX
  8
0
  6
CONTINUOUS
 62
       7
  5
1EE
 10
-57.74034057
 20
11.771971
 30
0.0
  0
VERTEX
  8
0
  6
CONTINUOUS
 62
       7
  5
1EF
 10
-57.26248088
 20
11.89767497
 30
0.0
  0
VERTEX
  8
0
  6
CONTINUOUS
 62
       7
  5
1F0
 10
-56.7821126
 20
12.01486298
 30
0.0
  0
VERTEX
  8
0
  6
CONTINUOUS
 62
       7
  5
1F1
 10
-56.29943006
 20
12.12340769
 30
0.0
  0
VERTEX
  8
0
  6
CONTINUOUS
 62
       7
  5
1F2
 10
-55.81462758
 20
12.22318177
 30
0.0
  0
VERTEX
  8
0
  6
CONTINUOUS
 62
       7
  5
1F3
 10
-55.32789948
 20
12.31405789
 30
0.0
  0
VERTEX
  8
0
  6
CONTINUOUS
 62
       7
  5
1F4
 10
-54.83944009
 20
12.39590871
 30
0.0
  0
VERTEX
  8
0
  6
CONTINUOUS
 62
       7
  5
1F5
 10
-54.34944372
 20
12.46860689
 30
0.0
  0
VERTEX
  8
0
  6
CONTINUOUS
 62
       7
  5
1F6
 10
-53.8581047
 20
12.53202512
 30
0.0
  0
VERTEX
  8
0
  6
CONTINUOUS
 62
       7
  5
1F7
 10
-53.36561735
 20
12.58603604
 30
0.0
  0
VERTEX
  8
0
  6
CONTINUOUS
 62
       7
  5
1F8
 10
-52.87217599
 20
12.63051233
 30
0.0
  0
VERTEX
  8
0
  6
CONTINUOUS
 62
       7
  5
1F9
 10
-52.37797494
 20
12.66532666
 30
0.0
  0
VERTEX
  8
0
  6
CONTINUOUS
 62
       7
  5
1FA
 10
-51.88320853
 20
12.69035168
 30
0.0
  0
VERTEX
  8
0
  6
CONTINUOUS
 62
       7
  5
1FB
 10
-51.38807108
 20
12.70546008
 30
0.0
  0
VERTEX
  8
0
  6
CONTINUOUS
 62
       7
  5
1FC
 10
-50.89275691
 20
12.71052451
 30
0.0
  0
VERTEX
  8
0
  6
CONTINUOUS
 62
       7
  5
1FD
 10
-50.39744274
 20
12.70546008
 30
0.0
  0
VERTEX
  8
0
  6
CONTINUOUS
 62
       7
  5
1FE
 10
-49.90230529
 20
12.69035168
 30
0.0
  0
VERTEX
  8
0
  6
CONTINUOUS
 62
       7
  5
1FF
 10
-49.40753888
 20
12.66532666
 30
0.0
  0
VERTEX
  8
0
  6
CONTINUOUS
 62
       7
  5
200
 10
-48.91333783
 20
12.63051233
 30
0.0
  0
VERTEX
  8
0
  6
CONTINUOUS
 62
       7
  5
201
 10
-48.41989648
 20
12.58603604
 30
0.0
  0
VERTEX
  8
0
  6
CONTINUOUS
 62
       7
  5
202
 10
-47.92740912
 20
12.53202512
 30
0.0
  0
VERTEX
  8
0
  6
CONTINUOUS
 62
       7
  5
203
 10
-47.4360701
 20
12.46860689
 30
0.0
  0
VERTEX
  8
0
  6
CONTINUOUS
 62
       7
  5
204
 10
-46.94607373
 20
12.39590871
 30
0.0
  0
VERTEX
  8
0
  6
CONTINUOUS
 62
       7
  5
205
 10
-46.45761434
 20
12.31405789
 30
0.0
  0
VERTEX
  8
0
  6
CONTINUOUS
 62
       7
  5
206
 10
-45.97088624
 20
12.22318177
 30
0.0
  0
VERTEX
  8
0
  6
CONTINUOUS
 62
       7
  5
207
 10
-45.48608376
 20
12.12340769
 30
0.0
  0
VERTEX
  8
0
  6
CONTINUOUS
 62
       7
  5
208
 10
-45.00340122
 20
12.01486298
 30
0.0
  0
VERTEX
  8
0
  6
CONTINUOUS
 62
       7
  5
209
 10
-44.52303295
 20
11.89767497
 30
0.0
  0
VERTEX
  8
0
  6
CONTINUOUS
 62
       7
  5
20A
 10
-44.04517325
 20
11.771971
 30
0.0
  0
VERTEX
  8
0
  6
CONTINUOUS
 62
       7
  5
20B
 10
-43.57001647
 20
11.6378784
 30
0.0
  0
VERTEX
  8
0
  6
CONTINUOUS
 62
       7
  5
20C
 10
-43.09775691
 20
11.49552451
 30
0.0
  0
SEQEND
  8
0
  6
CONTINUOUS
 62
       7
  5
20D
  0
POLYLINE
  8
0
  6
CONTINUOUS
 62
       7
  5
198
 66
       1
 10
0.0
 20
0.0
 30
0.0
  0
VERTEX
  8
0
  6
CONTINUOUS
 62
       7
  5
20E
 10
-62.59275691
 20
12.71052451
 30
0.0
  0
VERTEX
  8
0
  6
CONTINUOUS
 62
       7
  5
20F
 10
-62.46932908
 20
12.70655273
 30
0.0
  0
VERTEX
  8
0
  6
CONTINUOUS
 62
       7
  5
210
 10
-62.34585767
 20
12.70059965
 30
0.0
  0
VERTEX
  8
0
  6
CONTINUOUS
 62
       7
  5
211
 10
-62.22238745
 20
12.69265867
 30
0.0
  0
VERTEX
  8
0
  6
CONTINUOUS
 62
       7
  5
212
 10
-62.0989632
 20
12.68272318
 30
0.0
  0
VERTEX
  8
0
  6
CONTINUOUS
 62
       7
  5
213
 10
-61.97562969
 20
12.6707866
 30
0.0
  0
VERTEX
  8
0
  6
CONTINUOUS
 62
       7
  5
214
 10
-61.85243172
 20
12.65684231
 30
0.0
  0
VERTEX
  8
0
  6
CONTINUOUS
 62
       7
  5
215
 10
-61.72941404
 20
12.64088373
 30
0.0
  0
VERTEX
  8
0
  6
CONTINUOUS
 62
       7
  5
216
 10
-61.60662145
 20
12.62290426
 30
0.0
  0
VERTEX
  8
0
  6
CONTINUOUS
 62
       7
  5
217
 10
-61.48409871
 20
12.60289729
 30
0.0
  0
VERTEX
  8
0
  6
CONTINUOUS
 62
       7
  5
218
 10
-61.36189061
 20
12.58085624
 30
0.0
  0
VERTEX
  8
0
  6
CONTINUOUS
 62
       7
  5
219
 10
-61.24004193
 20
12.55677449
 30
0.0
  0
VERTEX
  8
0
  6
CONTINUOUS
 62
       7
  5
21A
 10
-61.11859743
 20
12.53064546
 30
0.0
  0
VERTEX
  8
0
  6
CONTINUOUS
 62
       7
  5
21B
 10
-60.99760191
 20
12.50246255
 30
0.0
  0
VERTEX
  8
0
  6
CONTINUOUS
 62
       7
  5
21C
 10
-60.87710013
 20
12.47221915
 30
0.0
  0
VERTEX
  8
0
  6
CONTINUOUS
 62
       7
  5
21D
 10
-60.75713687
 20
12.43990867
 30
0.0
  0
VERTEX
  8
0
  6
CONTINUOUS
 62
       7
  5
21E
 10
-60.63775691
 20
12.40552451
 30
0.0
  0
VERTEX
  8
0
  6
CONTINUOUS
 62
       7
  5
21F
 10
-60.50864698
 20
12.36574792
 30
0.0
  0
VERTEX
  8
0
  6
CONTINUOUS
 62
       7
  5
220
 10
-60.38033758
 20
12.32349532
 30
0.0
  0
VERTEX
  8
0
  6
CONTINUOUS
 62
       7
  5
221
 10
-60.25286388
 20
12.27880877
 30
0.0
  0
VERTEX
  8
0
  6
CONTINUOUS
 62
       7
  5
222
 10
-60.12626106
 20
12.23173029
 30
0.0
  0
VERTEX
  8
0
  6
CONTINUOUS
 62
       7
  5
223
 10
-60.00056428
 20
12.18230195
 30
0.0
  0
VERTEX
  8
0
  6
CONTINUOUS
 62
       7
  5
224
 10
-59.87580871
 20
12.13056579
 30
0.0
  0
VERTEX
  8
0
  6
CONTINUOUS
 62
       7
  5
225
 10
-59.75202952
 20
12.07656386
 30
0.0
  0
VERTEX
  8
0
  6
CONTINUOUS
 62
       7
  5
226
 10
-59.62926188
 20
12.0203382
 30
0.0
  0
VERTEX
  8
0
  6
CONTINUOUS
 62
       7
  5
227
 10
-59.50754096
 20
11.96193087
 30
0.0
  0
VERTEX
  8
0
  6
CONTINUOUS
 62
       7
  5
228
 10
-59.38690193
 20
11.9013839
 30
0.0
  0
VERTEX
  8
0
  6
CONTINUOUS
 62
       7
  5
229
 10
-59.26737996
 20
11.83873935
 30
0.0
  0
VERTEX
  8
0
  6
CONTINUOUS
 62
       7
  5
22A
 10
-59.14901022
 20
11.77403927
 30
0.0
  0
VERTEX
  8
0
  6
CONTINUOUS
 62
       7
  5
22B
 10
-59.03182787
 20
11.70732569
 30
0.0
  0
VERTEX
  8
0
  6
CONTINUOUS
 62
       7
  5
22C
 10
-58.91586809
 20
11.63864067
 30
0.0
  0
VERTEX
  8
0
  6
CONTINUOUS
 62
       7
  5
22D
 10
-58.80116605
 20
11.56802626
 30
0.0
  0
VERTEX
  8
0
  6
CONTINUOUS
 62
       7
  5
22E
 10
-58.68775691
 20
11.49552451
 30
0.0
  0
SEQEND
  8
0
  6
CONTINUOUS
 62
       7
  5
22F
  0
POLYLINE
  8
0
  6
CONTINUOUS
 62
       7
  5
199
 66
       1
 10
0.0
 20
0.0
 30
0.0
  0
VERTEX
  8
0
  6
CONTINUOUS
 62
       7
  5
230
 10
-43.09775691
 20
11.49552451
 30
0.0
  0
VERTEX
  8
0
  6
CONTINUOUS
 62
       7
  5
231
 10
-42.98434905
 20
11.568026
 30
0.0
  0
VERTEX
  8
0
  6
CONTINUOUS
 62
       7
  5
232
 10
-42.86964962
 20
11.63863971
 30
0.0
  0
VERTEX
  8
0
  6
CONTINUOUS
 62
       7
  5
233
 10
-42.75369347
 20
11.70732368
 30
0.0
  0
VERTEX
  8
0
  6
CONTINUOUS
 62
       7
  5
234
 10
-42.63651543
 20
11.77403598
 30
0.0
  0
VERTEX
  8
0
  6
CONTINUOUS
 62
       7
  5
235
 10
-42.51815037
 20
11.83873465
 30
0.0
  0
VERTEX
  8
0
  6
CONTINUOUS
 62
       7
  5
236
 10
-42.39863312
 20
11.90137775
 30
0.0
  0
VERTEX
  8
0
  6
CONTINUOUS
 62
       7
  5
237
 10
-42.27799853
 20
11.96192334
 30
0.0
  0
VERTEX
  8
0
  6
CONTINUOUS
 62
       7
  5
238
 10
-42.15628146
 20
12.02032947
 30
0.0
  0
VERTEX
  8
0
  6
CONTINUOUS
 62
       7
  5
239
 10
-42.03351674
 20
12.0765542
 30
0.0
  0
VERTEX
  8
0
  6
CONTINUOUS
 62
       7
  5
23A
 10
-41.90973923
 20
12.13055557
 30
0.0
  0
VERTEX
  8
0
  6
CONTINUOUS
 62
       7
  5
23B
 10
-41.78498377
 20
12.18229165
 30
0.0
  0
VERTEX
  8
0
  6
CONTINUOUS
 62
       7
  5
23C
 10
-41.65928521
 20
12.23172048
 30
0.0
  0
VERTEX
  8
0
  6
CONTINUOUS
 62
       7
  5
23D
 10
-41.5326784
 20
12.27880013
 30
0.0
  0
VERTEX
  8
0
  6
CONTINUOUS
 62
       7
  5
23E
 10
-41.40519818
 20
12.32348865
 30
0.0
  0
VERTEX
  8
0
  6
CONTINUOUS
 62
       7
  5
23F
 10
-41.2768794
 20
12.36574409
 30
0.0
  0
VERTEX
  8
0
  6
CONTINUOUS
 62
       7
  5
240
 10
-41.14775691
 20
12.40552451
 30
0.0
  0
VERTEX
  8
0
  6
CONTINUOUS
 62
       7
  5
241
 10
-41.0286829
 20
12.43983445
 30
0.0
  0
VERTEX
  8
0
  6
CONTINUOUS
 62
       7
  5
242
 10
-40.90906372
 20
12.47208986
 30
0.0
  0
VERTEX
  8
0
  6
CONTINUOUS
 62
       7
  5
243
 10
-40.78893617
 20
12.50229534
 30
0.0
  0
VERTEX
  8
0
  6
CONTINUOUS
 62
       7
  5
244
 10
-40.66833704
 20
12.53045552
 30
0.0
  0
VERTEX
  8
0
  6
CONTINUOUS
 62
       7
  5
245
 10
-40.54730312
 20
12.55657501
 30
0.0
  0
VERTEX
  8
0
  6
CONTINUOUS
 62
       7
  5
246
 10
-40.42587121
 20
12.58065843
 30
0.0
  0
VERTEX
  8
0
  6
CONTINUOUS
 62
       7
  5
247
 10
-40.3040781
 20
12.60271039
 30
0.0
  0
VERTEX
  8
0
  6
CONTINUOUS
 62
       7
  5
248
 10
-40.18196058
 20
12.62273552
 30
0.0
  0
VERTEX
  8
0
  6
CONTINUOUS
 62
       7
  5
249
 10
-40.05955544
 20
12.64073843
 30
0.0
  0
VERTEX
  8
0
  6
CONTINUOUS
 62
       7
  5
24A
 10
-39.93689948
 20
12.65672374
 30
0.0
  0
VERTEX
  8
0
  6
CONTINUOUS
 62
       7
  5
24B
 10
-39.8140295
 20
12.67069606
 30
0.0
  0
VERTEX
  8
0
  6
CONTINUOUS
 62
       7
  5
24C
 10
-39.69098228
 20
12.68266002
 30
0.0
  0
VERTEX
  8
0
  6
CONTINUOUS
 62
       7
  5
24D
 10
-39.56779462
 20
12.69262022
 30
0.0
  0
VERTEX
  8
0
  6
CONTINUOUS
 62
       7
  5
24E
 10
-39.44450331
 20
12.70058129
 30
0.0
  0
VERTEX
  8
0
  6
CONTINUOUS
 62
       7
  5
24F
 10
-39.32114514
 20
12.70654785
 30
0.0
  0
VERTEX
  8
0
  6
CONTINUOUS
 62
       7
  5
250
 10
-39.19775691
 20
12.71052451
 30
0.0
  0
SEQEND
  8
0
  6
CONTINUOUS
 62
       7
  5
251
  0
LINE
  8
0
  6
CONTINUOUS
 62
       7
  5
19A
 10
-41.19275691
 20
38.01052451
 30
0.0
 11
-41.19275691
 21
37.01052451
 31
0.0
  0
LINE
  8
0
  6
CONTINUOUS
 62
       7
  5
19B
 10
-60.59275691
 20
38.01052451
 30
0.0
 11
-60.59275691
 21
37.01052451
 31
0.0
  0
LINE
  8
0
  6
CONTINUOUS
 62
       7
  5
19C
 10
-36.89275691
 20
-0.28947549
 30
0.0
 11
-36.89275691
 21
-0.80315322
 31
0.0
  0
LINE
  8
0
  6
CONTINUOUS
 62
       7
  5
19D
 10
-64.89275691
 20
-0.28947549
 30
0.0
 11
-64.89275691
 21
-0.80315322
 31
0.0
  0
LINE
  8
0
  6
CONTINUOUS
 62
       7
  5
19E
 10
-138.3999939
 20
94.5
 30
0.0
 11
138.3500061
 21
94.5
 31
0.0
  0
LINE
  8
0
  6
CONTINUOUS
 62
       7
  5
19F
 10
138.3500061
 20
94.5
 30
0.0
 11
138.3500061
 21
-94.80000305
 31
0.0
  0
LINE
  8
0
  6
CONTINUOUS
 62
       7
  5
1A0
 10
-138.3999939
 20
-94.80000305
 30
0.0
 11
138.3500061
 21
-94.80000305
 31
0.0
  0
LINE
  8
0
  6
CONTINUOUS
 62
       7
  5
1A1
 10
-138.3999939
 20
94.5
 30
0.0
 11
-138.3999939
 21
-94.80000305
 31
0.0
  0
TEXT
  8
LY_2
  6
CONTINUOUS
 62
       7
  5
1A2
 10
-129.41817573
 20
82.89999998
 30
0.0
 40
3.20000005
  1
MODEL:VR100-01-G-B
 41
1.09090909
  7
MX_NOTE_STANDARD
 11
-129.41817573
 21
84.5
 31
0.0
 73
       2
  0
LINE
  8
LY_2
  6
CONTINUOUS
 62
       7
  5
1A3
 10
-138.3999939
 20
94.5
 30
0.0
 11
-138.3999939
 21
-94.80000305
 31
0.0
  0
LINE
  8
LY_2
  6
CONTINUOUS
 62
       7
  5
1A4
 10
-138.3999939
 20
-94.80000305
 30
0.0
 11
138.3500061
 21
-94.80000305
 31
0.0
  0
LINE
  8
LY_2
  6
CONTINUOUS
 62
       7
  5
1A5
 10
138.3500061
 20
94.5
 30
0.0
 11
138.3500061
 21
-94.80000305
 31
0.0
  0
LINE
  8
LY_2
  6
CONTINUOUS
 62
       7
  5
1A6
 10
-138.3999939
 20
94.5
 30
0.0
 11
138.3500061
 21
94.5
 31
0.0
  0
ENDSEC
  0
EOF
