  0
SECTION
  2
HEADER
  9
$ACADVER
  1
AC1012
  9
$DWGCODEPAGE
  3
dos932
  9
$INSBASE
 10
0.0
 20
0.0
 30
0.0
  9
$EXTMIN
 10
-138.4094391564276
 20
-94.80677969792248
 30
-0.0015258207003583
  9
$EXTMAX
 10
138.3594524451544
 20
94.50677747942865
 30
0.0000000349246037
  9
$LIMMIN
 10
-138.400994
 20
-94.8010031
  9
$LIMMAX
 10
138.351006
 20
94.501
  9
$ORTHOMODE
 70
     0
  9
$REGENMODE
 70
     1
  9
$FILLMODE
 70
     1
  9
$QTEXTMODE
 70
     0
  9
$MIRRTEXT
 70
     1
  9
$DRAGMODE
 70
     2
  9
$LTSCALE
 40
4.612499999999999
  9
$OSMODE
 70
    37
  9
$ATTMODE
 70
     1
  9
$TEXTSIZE
 40
0.2
  9
$TRACEWID
 40
0.05
  9
$TEXTSTYLE
  7
STANDARD
  9
$CLAYER
  8
0
  9
$CELTYPE
  6
CONTINUOUS
  9
$CECOLOR
 62
   256
  9
$CELTSCALE
 40
1.0
  9
$DELOBJ
 70
     1
  9
$DISPSILH
 70
     0
  9
$DIMSCALE
 40
1.0
  9
$DIMASZ
 40
0.18
  9
$DIMEXO
 40
0.0625
  9
$DIMDLI
 40
0.38
  9
$DIMRND
 40
0.0
  9
$DIMDLE
 40
0.0
  9
$DIMEXE
 40
0.18
  9
$DIMTP
 40
0.0
  9
$DIMTM
 40
0.0
  9
$DIMTXT
 40
0.18
  9
$DIMCEN
 40
0.09
  9
$DIMTSZ
 40
0.0
  9
$DIMTOL
 70
     0
  9
$DIMLIM
 70
     0
  9
$DIMTIH
 70
     1
  9
$DIMTOH
 70
     1
  9
$DIMSE1
 70
     0
  9
$DIMSE2
 70
     0
  9
$DIMTAD
 70
     0
  9
$DIMZIN
 70
     0
  9
$DIMBLK
  1

  9
$DIMASO
 70
     1
  9
$DIMSHO
 70
     1
  9
$DIMPOST
  1

  9
$DIMAPOST
  1

  9
$DIMALT
 70
     0
  9
$DIMALTD
 70
     2
  9
$DIMALTF
 40
25.4
  9
$DIMLFAC
 40
1.0
  9
$DIMTOFL
 70
     0
  9
$DIMTVP
 40
0.0
  9
$DIMTIX
 70
     0
  9
$DIMSOXD
 70
     0
  9
$DIMSAH
 70
     0
  9
$DIMBLK1
  1

  9
$DIMBLK2
  1

  9
$DIMSTYLE
  2
STANDARD
  9
$DIMCLRD
 70
     0
  9
$DIMCLRE
 70
     0
  9
$DIMCLRT
 70
     0
  9
$DIMTFAC
 40
1.0
  9
$DIMGAP
 40
0.09
  9
$DIMJUST
 70
     0
  9
$DIMSD1
 70
     0
  9
$DIMSD2
 70
     0
  9
$DIMTOLJ
 70
     1
  9
$DIMTZIN
 70
     0
  9
$DIMALTZ
 70
     0
  9
$DIMALTTZ
 70
     0
  9
$DIMFIT
 70
     3
  9
$DIMUPT
 70
     0
  9
$DIMUNIT
 70
     2
  9
$DIMDEC
 70
     4
  9
$DIMTDEC
 70
     4
  9
$DIMALTU
 70
     2
  9
$DIMALTTD
 70
     2
  9
$DIMTXSTY
  7
STANDARD
  9
$DIMAUNIT
 70
     0
  9
$LUNITS
 70
     2
  9
$LUPREC
 70
     4
  9
$SKETCHINC
 40
0.1
  9
$FILLETRAD
 40
0.0
  9
$AUNITS
 70
     0
  9
$AUPREC
 70
     0
  9
$MENU
  1
.
  9
$ELEVATION
 40
0.0
  9
$PELEVATION
 40
0.0
  9
$THICKNESS
 40
0.0
  9
$LIMCHECK
 70
     0
  9
$BLIPMODE
 70
     0
  9
$CHAMFERA
 40
0.0
  9
$CHAMFERB
 40
0.0
  9
$CHAMFERC
 40
0.0
  9
$CHAMFERD
 40
0.0
  9
$SKPOLY
 70
     0
  9
$TDCREATE
 40
2451967.780967350
  9
$TDUPDATE
 40
2451967.780983692
  9
$TDINDWG
 40
0.0000171528
  9
$TDUSRTIMER
 40
0.0000171528
  9
$USRTIMER
 70
     1
  9
$ANGBASE
 50
0.0
  9
$ANGDIR
 70
     0
  9
$PDMODE
 70
     0
  9
$PDSIZE
 40
0.0
  9
$PLINEWID
 40
0.0
  9
$COORDS
 70
     0
  9
$SPLFRAME
 70
     0
  9
$SPLINETYPE
 70
     6
  9
$SPLINESEGS
 70
     8
  9
$ATTDIA
 70
     0
  9
$ATTREQ
 70
     1
  9
$HANDLING
 70
 10241
  9
$HANDSEED
  5
289
  9
$SURFTAB1
 70
     6
  9
$SURFTAB2
 70
     6
  9
$SURFTYPE
 70
     6
  9
$SURFU
 70
     6
  9
$SURFV
 70
     6
  9
$UCSNAME
  2

  9
$UCSORG
 10
0.0
 20
0.0
 30
0.0
  9
$UCSXDIR
 10
1.0
 20
0.0
 30
0.0
  9
$UCSYDIR
 10
0.0
 20
1.0
 30
0.0
  9
$PUCSNAME
  2

  9
$PUCSORG
 10
0.0
 20
0.0
 30
0.0
  9
$PUCSXDIR
 10
1.0
 20
0.0
 30
0.0
  9
$PUCSYDIR
 10
0.0
 20
1.0
 30
0.0
  9
$USERI1
 70
     0
  9
$USERI2
 70
     0
  9
$USERI3
 70
     0
  9
$USERI4
 70
     0
  9
$USERI5
 70
     0
  9
$USERR1
 40
0.0
  9
$USERR2
 40
0.0
  9
$USERR3
 40
0.0
  9
$USERR4
 40
0.0
  9
$USERR5
 40
0.0
  9
$WORLDVIEW
 70
     1
  9
$SHADEDGE
 70
     3
  9
$SHADEDIF
 70
    70
  9
$TILEMODE
 70
     1
  9
$MAXACTVP
 70
    64
  9
$PINSBASE
 10
0.0
 20
0.0
 30
0.0
  9
$PLIMCHECK
 70
     0
  9
$PEXTMIN
 10
1.000000000000000E+20
 20
1.000000000000000E+20
 30
1.000000000000000E+20
  9
$PEXTMAX
 10
-1.000000000000000E+20
 20
-1.000000000000000E+20
 30
-1.000000000000000E+20
  9
$PLIMMIN
 10
0.0
 20
0.0
  9
$PLIMMAX
 10
12.0
 20
9.0
  9
$UNITMODE
 70
     0
  9
$VISRETAIN
 70
     1
  9
$PLINEGEN
 70
     0
  9
$PSLTSCALE
 70
     1
  9
$TREEDEPTH
 70
  3020
  9
$PICKSTYLE
 70
     1
  9
$CMLSTYLE
  2
STANDARD
  9
$CMLJUST
 70
     0
  9
$CMLSCALE
 40
1.0
  9
$SAVEIMAGES
 70
     1
  0
ENDSEC
  0
SECTION
  2
CLASSES
  0
CLASS
  1
ACDBDICTIONARYWDFLT
  2
AcDbDictionaryWithDefault
  3
AutoCAD 2000
 90
    32768
280
     0
281
     0
  0
CLASS
  1
ACDBPLACEHOLDER
  2
AcDbPlaceHolder
  3
AutoCAD 2000
 90
    32768
280
     0
281
     0
  0
CLASS
  1
LAYOUT
  2
AcDbLayout
  3
AutoCAD 2000
 90
    32768
280
     0
281
     0
  0
CLASS
  1
LONG_TRANSACTION
  2
AcDbLongTransaction
  3
AutoCAD 2000
 90
    32768
280
     0
281
     0
  0
CLASS
  1
LWPOLYLINE
  2
AcDbPolyline
  3
AutoCAD 2000
 90
    32768
280
     0
281
     1
  0
CLASS
  1
HATCH
  2
AcDbHatch
  3
AutoCAD 2000
 90
    32768
280
     0
281
     1
  0
CLASS
  1
XRECORD
  2
AcDbXrecord
  3
AutoCAD 2000
 90
    32768
280
     0
281
     0
  0
ENDSEC
  0
SECTION
  2
TABLES
  0
TABLE
  2
VPORT
  5
8
330
0
100
AcDbSymbolTable
 70
     3
  0
VPORT
  5
284
330
8
100
AcDbSymbolTableRecord
100
AcDbViewportTableRecord
  2
*ACTIVE
 70
     0
 10
0.0
 20
0.0
 11
1.0
 21
1.0
 12
-0.0249933556365818
 22
-0.1500011092469151
 13
0.0
 23
0.0
 14
1.0
 24
1.0
 15
0.0
 25
0.0
 16
0.0
 26
0.0
 36
1.0
 17
0.0
 27
0.0
 37
0.0
 40
192.7143995218544
 41
2.279279279279279
 42
50.0
 43
0.0
 44
0.0
 50
0.0
 51
0.0
 71
     0
 72
   100
 73
     1
 74
     1
 75
     0
 76
     0
 77
     0
 78
     0
  0
ENDTAB
  0
TABLE
  2
LTYPE
  5
5
330
0
100
AcDbSymbolTable
 70
     5
  0
LTYPE
  5
13
330
5
100
AcDbSymbolTableRecord
100
AcDbLinetypeTableRecord
  2
BYBLOCK
 70
     0
  3

 72
    65
 73
     0
 40
0.0
  0
LTYPE
  5
14
330
5
100
AcDbSymbolTableRecord
100
AcDbLinetypeTableRecord
  2
BYLAYER
 70
     0
  3

 72
    65
 73
     0
 40
0.0
  0
LTYPE
  5
15
330
5
100
AcDbSymbolTableRecord
100
AcDbLinetypeTableRecord
  2
CONTINUOUS
 70
     0
  3
Solid-Line
 72
    65
 73
     0
 40
0.0
  0
LTYPE
  5
22
330
5
100
AcDbSymbolTableRecord
100
AcDbLinetypeTableRecord
  2
DASHED
 70
     0
  3
DASHED
 72
    65
 73
     2
 40
0.75
 49
0.5
 74
     0
 49
-0.25
 74
     0
  0
LTYPE
  5
23
330
5
100
AcDbSymbolTableRecord
100
AcDbLinetypeTableRecord
  2
HIDDEN
 70
     0
  3
HIDDEN
 72
    65
 73
     2
 40
0.375
 49
0.25
 74
     0
 49
-0.125
 74
     0
  0
LTYPE
  5
24
330
5
100
AcDbSymbolTableRecord
100
AcDbLinetypeTableRecord
  2
CENTER
 70
     0
  3
CENTER
 72
    65
 73
     4
 40
2.0
 49
1.25
 74
     0
 49
-0.25
 74
     0
 49
0.25
 74
     0
 49
-0.25
 74
     0
  0
LTYPE
  5
25
330
5
100
AcDbSymbolTableRecord
100
AcDbLinetypeTableRecord
  2
PHANTOM
 70
     0
  3
PHANTOM
 72
    65
 73
     6
 40
2.5
 49
1.25
 74
     0
 49
-0.25
 74
     0
 49
0.25
 74
     0
 49
-0.25
 74
     0
 49
0.25
 74
     0
 49
-0.25
 74
     0
  0
ENDTAB
  0
TABLE
  2
LAYER
  5
2
330
0
100
AcDbSymbolTable
 70
     1
  0
LAYER
  5
10
330
2
100
AcDbSymbolTableRecord
100
AcDbLayerTableRecord
  2
0
 70
     0
 62
     7
  6
CONTINUOUS
  0
ENDTAB
  0
TABLE
  2
STYLE
  5
3
330
0
100
AcDbSymbolTable
 70
     3
  0
STYLE
  5
11
330
3
100
AcDbSymbolTableRecord
100
AcDbTextStyleTableRecord
  2
STANDARD
 70
     0
 40
0.0
 41
1.0
 50
0.0
 71
     0
 42
0.2
  3
txt
  4

  0
STYLE
  5
26
330
3
100
AcDbSymbolTableRecord
100
AcDbTextStyleTableRecord
  2
MONOTXT
 70
     0
 40
0.0
 41
1.0
 50
0.0
 71
     0
 42
0.2
  3
monotxt
  4

  0
STYLE
  5
27
330
3
100
AcDbSymbolTableRecord
100
AcDbTextStyleTableRecord
  2
BIGFONT
 70
     0
 40
0.0
 41
1.0
 50
0.0
 71
     0
 42
0.2
  3
txt
  4
bigfont
  0
ENDTAB
  0
TABLE
  2
VIEW
  5
6
330
0
100
AcDbSymbolTable
 70
     0
  0
ENDTAB
  0
TABLE
  2
UCS
  5
7
330
0
100
AcDbSymbolTable
 70
     0
  0
ENDTAB
  0
TABLE
  2
APPID
  5
9
330
0
100
AcDbSymbolTable
 70
     1
  0
APPID
  5
12
330
9
100
AcDbSymbolTableRecord
100
AcDbRegAppTableRecord
  2
ACAD
 70
     0
  0
ENDTAB
  0
TABLE
  2
DIMSTYLE
  5
A
330
0
100
AcDbSymbolTable
 70
     1
  0
DIMSTYLE
105
24D
330
A
100
AcDbSymbolTableRecord
100
AcDbDimStyleTableRecord
  2
STANDARD
 70
     0
  3

  4

  5

  6

  7

 40
1.0
 41
0.18
 42
0.0625
 43
0.38
 44
0.18
 45
0.0
 46
0.0
 47
0.0
 48
0.0
140
0.18
141
0.09
142
0.0
143
25.4
144
1.0
145
0.0
146
1.0
147
0.09
 71
     0
 72
     0
 73
     1
 74
     1
 75
     0
 76
     0
 77
     0
 78
     0
170
     0
171
     2
172
     0
173
     0
174
     0
175
     0
176
     0
177
     0
178
     0
270
     2
271
     4
272
     4
273
     2
274
     2
340
11
275
     0
280
     0
281
     0
282
     0
283
     1
284
     0
285
     0
286
     0
287
     3
288
     0
  0
ENDTAB
  0
TABLE
  2
BLOCK_RECORD
  5
1
330
0
100
AcDbSymbolTable
 70
     0
  0
BLOCK_RECORD
  5
1E
102
{ACAD_XDICTIONARY
360
287
102
}
330
1
100
AcDbSymbolTableRecord
100
AcDbBlockTableRecord
  2
*MODEL_SPACE
  0
BLOCK_RECORD
  5
1A
102
{ACAD_XDICTIONARY
360
285
102
}
330
1
100
AcDbSymbolTableRecord
100
AcDbBlockTableRecord
  2
*PAPER_SPACE
  0
ENDTAB
  0
ENDSEC
  0
SECTION
  2
BLOCKS
  0
BLOCK
  5
1F
330
1E
100
AcDbEntity
  8
0
100
AcDbBlockBegin
  2
*MODEL_SPACE
 70
     0
 10
0.0
 20
0.0
 30
0.0
  3
*MODEL_SPACE
  1

  0
ENDBLK
  5
20
330
1E
100
AcDbEntity
  8
0
100
AcDbBlockEnd
  0
BLOCK
  5
1B
330
1A
100
AcDbEntity
 67
     1
  8
0
100
AcDbBlockBegin
  2
*PAPER_SPACE
 70
     0
 10
0.0
 20
0.0
 30
0.0
  3
*PAPER_SPACE
  1

  0
ENDBLK
  5
1C
330
1A
100
AcDbEntity
 67
     1
  8
0
100
AcDbBlockEnd
  0
ENDSEC
  0
SECTION
  2
ENTITIES
  0
LINE
  5
2C
330
1E
100
AcDbEntity
  8
0
 62
     7
100
AcDbLine
 10
-66.2823532
 20
-64.4500015
 30
0.0
 11
-53.7676346
 21
-64.4500015
 31
0.0
  0
LINE
  5
2D
330
1E
100
AcDbEntity
  8
0
 62
     7
100
AcDbLine
 10
-70.64631420000001
 20
-61.32868120000001
 30
0.0
 11
-68.40367359999999
 21
-63.5713219
 31
0.0
  0
LINE
  5
2E
330
1E
100
AcDbEntity
  8
0
 62
     7
100
AcDbLine
 10
-51.6463142
 20
-63.5713219
 30
0.0
 11
-49.4036736
 21
-61.32868120000001
 31
0.0
  0
ARC
  5
2F
330
1E
100
AcDbEntity
  8
0
 62
     7
100
AcDbCircle
 10
-68.5249939
 20
-59.20736080000001
 30
0.0
 40
3.0
100
AcDbArc
 50
180.0
 51
225.0
  0
ARC
  5
30
330
1E
100
AcDbEntity
  8
0
 62
     7
100
AcDbCircle
 10
-66.2823532
 20
-61.4500015
 30
0.0
 40
3.0
100
AcDbArc
 50
225.0
 51
270.0
  0
ARC
  5
31
330
1E
100
AcDbEntity
  8
0
 62
     7
100
AcDbCircle
 10
-53.7676346
 20
-61.4500015
 30
0.0
 40
3.0
100
AcDbArc
 50
270.0
 51
315.0
  0
ARC
  5
32
330
1E
100
AcDbEntity
  8
0
 62
     7
100
AcDbCircle
 10
-51.5249939
 20
-59.20736080000001
 30
0.0
 40
3.0
100
AcDbArc
 50
315.0
 51
0.0
  0
LINE
  5
33
330
1E
100
AcDbEntity
  8
0
 62
     7
100
AcDbLine
 10
-61.5249939
 20
-60.45000149999999
 30
0.0
 11
-58.5249939
 21
-60.45000149999999
 31
0.0
  0
LINE
  5
34
330
1E
100
AcDbEntity
  8
0
 62
     7
100
AcDbLine
 10
-57.1742438
 20
-62.887815
 30
0.0
 11
-57.1742438
 21
-55.28956929999999
 31
0.0
  0
LINE
  5
35
330
1E
100
AcDbEntity
  8
0
 62
     7
100
AcDbLine
 10
-58.5249939
 20
-60.45000149999999
 30
0.0
 11
-57.1742438
 21
-62.887815
 31
0.0
  0
LINE
  5
36
330
1E
100
AcDbEntity
  8
0
 62
     7
100
AcDbLine
 10
-51.109254
 20
-62.7413684
 30
0.0
 11
-49.50191929999999
 21
-61.1340337
 31
0.0
  0
ARC
  5
37
330
1E
100
AcDbEntity
  8
0
 62
     7
100
AcDbCircle
 10
-51.46280739999999
 20
-62.387815
 30
0.0
 40
0.5
100
AcDbArc
 50
270.0
 51
0.0
  0
LINE
  5
38
330
1E
100
AcDbEntity
  8
0
 62
     7
100
AcDbLine
 10
-50.9628074
 20
-55.28956929999999
 30
0.0
 11
-57.1742438
 21
-55.28956929999999
 31
0.0
  0
LINE
  5
39
330
1E
100
AcDbEntity
  8
0
 62
     7
100
AcDbLine
 10
-50.9628074
 20
-62.387815
 30
0.0
 11
-50.9628074
 21
-55.28956929999999
 31
0.0
  0
LINE
  5
3A
330
1E
100
AcDbEntity
  8
0
 62
     7
100
AcDbLine
 10
-51.46280739999999
 20
-62.887815
 30
0.0
 11
-57.1742438
 21
-62.887815
 31
0.0
  0
ARC
  5
3B
330
1E
100
AcDbEntity
  8
0
 62
     7
100
AcDbCircle
 10
-51.6232396
 20
-59.0127134
 30
0.0
 40
3.0
100
AcDbArc
 50
315.0
 51
0.0
  0
LINE
  5
3C
330
1E
100
AcDbEntity
  8
0
 62
     7
100
AcDbLine
 10
-62.875744
 20
-62.887815
 30
0.0
 11
-62.875744
 21
-55.28956929999999
 31
0.0
  0
LINE
  5
3D
330
1E
100
AcDbEntity
  8
0
 62
     7
100
AcDbLine
 10
-69.0871804
 20
-62.387815
 30
0.0
 11
-69.0871804
 21
-55.28956929999999
 31
0.0
  0
LINE
  5
3E
330
1E
100
AcDbEntity
  8
0
 62
     7
100
AcDbLine
 10
-69.0871804
 20
-55.28956929999999
 30
0.0
 11
-62.875744
 21
-55.28956929999999
 31
0.0
  0
LINE
  5
3F
330
1E
100
AcDbEntity
  8
0
 62
     7
100
AcDbLine
 10
-61.5249939
 20
-60.45000149999999
 30
0.0
 11
-62.875744
 21
-62.887815
 31
0.0
  0
LINE
  5
40
330
1E
100
AcDbEntity
  8
0
 62
     7
100
AcDbLine
 10
-68.58718039999999
 20
-62.887815
 30
0.0
 11
-62.875744
 21
-62.887815
 31
0.0
  0
LINE
  5
41
330
1E
100
AcDbEntity
  8
0
 62
     7
100
AcDbLine
 10
-68.9407338
 20
-62.7413684
 30
0.0
 11
-70.5480685
 21
-61.1340337
 31
0.0
  0
ARC
  5
42
330
1E
100
AcDbEntity
  8
0
 62
     7
100
AcDbCircle
 10
-68.58718039999999
 20
-62.387815
 30
0.0
 40
0.5
100
AcDbArc
 50
180.0
 51
270.0
  0
ARC
  5
43
330
1E
100
AcDbEntity
  8
0
 62
     7
100
AcDbCircle
 10
-68.4267481
 20
-59.0127134
 30
0.0
 40
3.0
100
AcDbArc
 50
180.0
 51
225.0
  0
LINE
  5
44
330
1E
100
AcDbEntity
  8
0
  6
PHANTOM
 62
     6
100
AcDbLine
 10
-82.02499389999999
 20
-38.1500015
 30
0.0
 11
-82.02499389999999
 21
-43.1500015
 31
0.0
  0
LINE
  5
45
330
1E
100
AcDbEntity
  8
0
  6
PHANTOM
 62
     6
100
AcDbLine
 10
-38.02499389999999
 20
-38.1500015
 30
0.0
 11
-38.02499389999999
 21
-43.1500015
 31
0.0
  0
LINE
  5
46
330
1E
100
AcDbEntity
  8
0
  6
PHANTOM
 62
     6
100
AcDbLine
 10
-45.02499389999999
 20
-27.1500015
 30
0.0
 11
-38.02499389999999
 21
-27.1500015
 31
0.0
  0
LINE
  5
47
330
1E
100
AcDbEntity
  8
0
  6
PHANTOM
 62
     6
100
AcDbLine
 10
-45.02499389999999
 20
-43.1500015
 30
0.0
 11
-38.02499389999999
 21
-43.1500015
 31
0.0
  0
LINE
  5
48
330
1E
100
AcDbEntity
  8
0
  6
PHANTOM
 62
     6
100
AcDbLine
 10
-45.02499389999999
 20
-29.74722449999999
 30
0.0
 11
-38.02499389999999
 21
-29.74722449999999
 31
0.0
  0
LINE
  5
49
330
1E
100
AcDbEntity
  8
0
  6
PHANTOM
 62
     6
100
AcDbLine
 10
-45.02499389999999
 20
-31.05303549999999
 30
0.0
 11
-38.02499389999999
 21
-31.05303549999999
 31
0.0
  0
LINE
  5
4A
330
1E
100
AcDbEntity
  8
0
  6
PHANTOM
 62
     6
100
AcDbLine
 10
-45.02499389999999
 20
-40.55277849999999
 30
0.0
 11
-38.02499389999999
 21
-40.55277849999999
 31
0.0
  0
LINE
  5
4B
330
1E
100
AcDbEntity
  8
0
  6
PHANTOM
 62
     6
100
AcDbLine
 10
-45.02499389999999
 20
-39.24696749999999
 30
0.0
 11
-38.02499389999999
 21
-39.24696749999999
 31
0.0
  0
LINE
  5
4C
330
1E
100
AcDbEntity
  8
0
  6
PHANTOM
 62
     6
100
AcDbLine
 10
-82.02499389999999
 20
-40.55277849999999
 30
0.0
 11
-75.0249939
 21
-40.55277849999999
 31
0.0
  0
LINE
  5
4D
330
1E
100
AcDbEntity
  8
0
  6
PHANTOM
 62
     6
100
AcDbLine
 10
-82.02499389999999
 20
-29.74722449999999
 30
0.0
 11
-75.0249939
 21
-29.74722449999999
 31
0.0
  0
LINE
  5
4E
330
1E
100
AcDbEntity
  8
0
  6
PHANTOM
 62
     6
100
AcDbLine
 10
-82.02499389999999
 20
-39.24696749999999
 30
0.0
 11
-75.0249939
 21
-39.24696749999999
 31
0.0
  0
LINE
  5
4F
330
1E
100
AcDbEntity
  8
0
  6
PHANTOM
 62
     6
100
AcDbLine
 10
-82.02499389999999
 20
-31.05303549999999
 30
0.0
 11
-75.0249939
 21
-31.05303549999999
 31
0.0
  0
LINE
  5
50
330
1E
100
AcDbEntity
  8
0
  6
PHANTOM
 62
     6
100
AcDbLine
 10
-45.02499389999999
 20
-38.1500015
 30
0.0
 11
-38.02499389999999
 21
-38.1500015
 31
0.0
  0
LINE
  5
51
330
1E
100
AcDbEntity
  8
0
  6
PHANTOM
 62
     6
100
AcDbLine
 10
-45.02499389999999
 20
-32.1500015
 30
0.0
 11
-38.02499389999999
 21
-32.1500015
 31
0.0
  0
LINE
  5
52
330
1E
100
AcDbEntity
  8
0
  6
PHANTOM
 62
     6
100
AcDbLine
 10
-82.02499389999999
 20
-38.1500015
 30
0.0
 11
-75.0249939
 21
-38.1500015
 31
0.0
  0
LINE
  5
53
330
1E
100
AcDbEntity
  8
0
  6
PHANTOM
 62
     6
100
AcDbLine
 10
-82.02499389999999
 20
-32.1500015
 30
0.0
 11
-75.0249939
 21
-32.1500015
 31
0.0
  0
LINE
  5
54
330
1E
100
AcDbEntity
  8
0
  6
PHANTOM
 62
     6
100
AcDbLine
 10
-38.02499389999999
 20
-27.1500015
 30
0.0
 11
-38.02499389999999
 21
-32.1500015
 31
0.0
  0
LINE
  5
55
330
1E
100
AcDbEntity
  8
0
  6
PHANTOM
 62
     6
100
AcDbLine
 10
-82.02499389999999
 20
-27.1500015
 30
0.0
 11
-82.02499389999999
 21
-32.1500015
 31
0.0
  0
LINE
  5
56
330
1E
100
AcDbEntity
  8
0
  6
PHANTOM
 62
     6
100
AcDbLine
 10
-82.02499389999999
 20
-43.1500015
 30
0.0
 11
-75.0249939
 21
-43.1500015
 31
0.0
  0
LINE
  5
57
330
1E
100
AcDbEntity
  8
0
  6
PHANTOM
 62
     6
100
AcDbLine
 10
-82.02499389999999
 20
-27.1500015
 30
0.0
 11
-75.0249939
 21
-27.1500015
 31
0.0
  0
ARC
  5
58
330
1E
100
AcDbEntity
  8
0
 62
     7
100
AcDbCircle
 10
-84.2249939
 20
-30.4500015
 30
0.0
 40
0.2
100
AcDbArc
 50
90.00000020000001
 51
180.0
  0
ARC
  5
59
330
1E
100
AcDbEntity
  8
0
 62
     7
100
AcDbCircle
 10
-84.2249939
 20
-39.8500015
 30
0.0
 40
0.2
100
AcDbArc
 50
180.0
 51
270.0
  0
LINE
  5
5A
330
1E
100
AcDbEntity
  8
0
  6
DASHED
 62
     2
100
AcDbLine
 10
-84.4249939
 20
-32.1500015
 30
0.0
 11
-81.32499389999999
 21
-32.1500015
 31
0.0
  0
LINE
  5
5B
330
1E
100
AcDbEntity
  8
0
  6
DASHED
 62
     2
100
AcDbLine
 10
-84.4249939
 20
-38.1500015
 30
0.0
 11
-81.32499389999999
 21
-38.1500015
 31
0.0
  0
LINE
  5
5C
330
1E
100
AcDbEntity
  8
0
 62
     7
100
AcDbLine
 10
-82.32499389999999
 20
-30.6000015
 30
0.0
 11
-81.63217359999999
 21
-30.2000015
 31
0.0
  0
LINE
  5
5D
330
1E
100
AcDbEntity
  8
0
 62
     7
100
AcDbLine
 10
-82.32499389999999
 20
-39.7000015
 30
0.0
 11
-81.63217359999999
 21
-40.1000015
 31
0.0
  0
LINE
  5
5E
330
1E
100
AcDbEntity
  8
0
 62
     7
100
AcDbLine
 10
-84.4249939
 20
-39.8500015
 30
0.0
 11
-84.4249939
 21
-30.4500015
 31
0.0
  0
LINE
  5
5F
330
1E
100
AcDbEntity
  8
0
 62
     7
100
AcDbLine
 10
-81.63217359999999
 20
-30.2000015
 30
0.0
 11
-75.0249939
 21
-30.2000015
 31
0.0
  0
LINE
  5
60
330
1E
100
AcDbEntity
  8
0
 62
     7
100
AcDbLine
 10
-84.2249939
 20
-30.2500015
 30
0.0
 11
-83.4249939
 21
-30.2500015
 31
0.0
  0
LINE
  5
61
330
1E
100
AcDbEntity
  8
0
 62
     7
100
AcDbLine
 10
-83.4249939
 20
-30.2500015
 30
0.0
 11
-82.92499390000001
 21
-31.11602689999999
 31
0.0
  0
LINE
  5
62
330
1E
100
AcDbEntity
  8
0
 62
     7
100
AcDbLine
 10
-82.92499390000001
 20
-31.6500015
 30
0.0
 11
-82.32499389999999
 21
-31.6500015
 31
0.0
  0
LINE
  5
63
330
1E
100
AcDbEntity
  8
0
 62
     7
100
AcDbLine
 10
-83.4249939
 20
-30.2500015
 30
0.0
 11
-83.4249939
 21
-40.05000149999999
 31
0.0
  0
LINE
  5
64
330
1E
100
AcDbEntity
  8
0
 62
     7
100
AcDbLine
 10
-82.92499390000001
 20
-31.11602689999999
 30
0.0
 11
-82.92499390000001
 21
-39.1839761
 31
0.0
  0
LINE
  5
65
330
1E
100
AcDbEntity
  8
0
 62
     7
100
AcDbLine
 10
-82.32499389999999
 20
-30.6000015
 30
0.0
 11
-82.32499389999999
 21
-39.7000015
 31
0.0
  0
LINE
  5
66
330
1E
100
AcDbEntity
  8
0
 62
     7
100
AcDbLine
 10
-82.92499390000001
 20
-38.6500015
 30
0.0
 11
-82.32499389999999
 21
-38.6500015
 31
0.0
  0
LINE
  5
67
330
1E
100
AcDbEntity
  8
0
 62
     7
100
AcDbLine
 10
-83.4249939
 20
-40.05000149999999
 30
0.0
 11
-82.92499390000001
 21
-39.1839761
 31
0.0
  0
LINE
  5
68
330
1E
100
AcDbEntity
  8
0
 62
     7
100
AcDbLine
 10
-84.2249939
 20
-40.05000149999999
 30
0.0
 11
-83.4249939
 21
-40.05000149999999
 31
0.0
  0
LINE
  5
69
330
1E
100
AcDbEntity
  8
0
 62
     7
100
AcDbLine
 10
-81.63217359999999
 20
-40.1000015
 30
0.0
 11
-75.0249939
 21
-40.1000015
 31
0.0
  0
LINE
  5
6A
330
1E
100
AcDbEntity
  8
0
 62
     7
100
AcDbLine
 10
-38.4178142
 20
-40.1000015
 30
0.0
 11
-45.02499389999999
 21
-40.1000015
 31
0.0
  0
LINE
  5
6B
330
1E
100
AcDbEntity
  8
0
 62
     7
100
AcDbLine
 10
-35.8249939
 20
-40.05000149999999
 30
0.0
 11
-36.6249939
 21
-40.05000149999999
 31
0.0
  0
LINE
  5
6C
330
1E
100
AcDbEntity
  8
0
 62
     7
100
AcDbLine
 10
-36.6249939
 20
-40.05000149999999
 30
0.0
 11
-37.1249939
 21
-39.1839761
 31
0.0
  0
LINE
  5
6D
330
1E
100
AcDbEntity
  8
0
 62
     7
100
AcDbLine
 10
-37.1249939
 20
-38.6500015
 30
0.0
 11
-37.7249939
 21
-38.6500015
 31
0.0
  0
LINE
  5
6E
330
1E
100
AcDbEntity
  8
0
 62
     7
100
AcDbLine
 10
-37.7249939
 20
-30.6000015
 30
0.0
 11
-37.7249939
 21
-39.7000015
 31
0.0
  0
LINE
  5
6F
330
1E
100
AcDbEntity
  8
0
 62
     7
100
AcDbLine
 10
-37.1249939
 20
-31.11602689999999
 30
0.0
 11
-37.1249939
 21
-39.1839761
 31
0.0
  0
LINE
  5
70
330
1E
100
AcDbEntity
  8
0
 62
     7
100
AcDbLine
 10
-36.6249939
 20
-30.2500015
 30
0.0
 11
-36.6249939
 21
-40.05000149999999
 31
0.0
  0
LINE
  5
71
330
1E
100
AcDbEntity
  8
0
 62
     7
100
AcDbLine
 10
-37.1249939
 20
-31.6500015
 30
0.0
 11
-37.7249939
 21
-31.6500015
 31
0.0
  0
LINE
  5
72
330
1E
100
AcDbEntity
  8
0
 62
     7
100
AcDbLine
 10
-36.6249939
 20
-30.2500015
 30
0.0
 11
-37.1249939
 21
-31.11602689999999
 31
0.0
  0
LINE
  5
73
330
1E
100
AcDbEntity
  8
0
 62
     7
100
AcDbLine
 10
-35.8249939
 20
-30.2500015
 30
0.0
 11
-36.6249939
 21
-30.2500015
 31
0.0
  0
LINE
  5
74
330
1E
100
AcDbEntity
  8
0
 62
     7
100
AcDbLine
 10
-38.4178142
 20
-30.2000015
 30
0.0
 11
-45.02499389999999
 21
-30.2000015
 31
0.0
  0
LINE
  5
75
330
1E
100
AcDbEntity
  8
0
 62
     7
100
AcDbLine
 10
-35.6249939
 20
-39.8500015
 30
0.0
 11
-35.6249939
 21
-30.4500015
 31
0.0
  0
LINE
  5
76
330
1E
100
AcDbEntity
  8
0
 62
     7
100
AcDbLine
 10
-37.7249939
 20
-39.7000015
 30
0.0
 11
-38.4178142
 21
-40.1000015
 31
0.0
  0
LINE
  5
77
330
1E
100
AcDbEntity
  8
0
 62
     7
100
AcDbLine
 10
-37.7249939
 20
-30.6000015
 30
0.0
 11
-38.4178142
 21
-30.2000015
 31
0.0
  0
LINE
  5
78
330
1E
100
AcDbEntity
  8
0
  6
DASHED
 62
     2
100
AcDbLine
 10
-35.6249939
 20
-38.1500015
 30
0.0
 11
-38.7249939
 21
-38.1500015
 31
0.0
  0
LINE
  5
79
330
1E
100
AcDbEntity
  8
0
  6
DASHED
 62
     2
100
AcDbLine
 10
-35.6249939
 20
-32.1500015
 30
0.0
 11
-38.7249939
 21
-32.1500015
 31
0.0
  0
ARC
  5
7A
330
1E
100
AcDbEntity
  8
0
 62
     7
100
AcDbCircle
 10
-35.8249939
 20
-39.8500015
 30
0.0
 40
0.2
100
AcDbArc
 50
270.0
 51
0.0
  0
ARC
  5
7B
330
1E
100
AcDbEntity
  8
0
 62
     7
100
AcDbCircle
 10
-35.8249939
 20
-30.4500015
 30
0.0
 40
0.2
100
AcDbArc
 50
0.0
 51
90.00000020000001
  0
ARC
  5
7C
330
1E
100
AcDbEntity
  8
0
 62
     7
100
AcDbCircle
 10
-46.0249939
 20
-24.6500015
 30
0.0
 40
1.0
100
AcDbArc
 50
0.0
 51
90.00000020000001
  0
ARC
  5
7D
330
1E
100
AcDbEntity
  8
0
 62
     7
100
AcDbCircle
 10
-74.0249939
 20
-24.6500015
 30
0.0
 40
1.0
100
AcDbArc
 50
90.00000020000001
 51
180.0
  0
LINE
  5
7E
330
1E
100
AcDbEntity
  8
0
 62
     7
100
AcDbLine
 10
-46.0249939
 20
-23.6500015
 30
0.0
 11
-48.5249939
 21
-23.6500015
 31
0.0
  0
LINE
  5
7F
330
1E
100
AcDbEntity
  8
0
 62
     7
100
AcDbLine
 10
-74.0249939
 20
-23.6500015
 30
0.0
 11
-71.5249939
 21
-23.6500015
 31
0.0
  0
ARC
  5
80
330
1E
100
AcDbEntity
  8
0
 62
     7
100
AcDbCircle
 10
-74.0249939
 20
-45.6500015
 30
0.0
 40
1.0
100
AcDbArc
 50
180.0
 51
270.0
  0
ARC
  5
81
330
1E
100
AcDbEntity
  8
0
 62
     7
100
AcDbCircle
 10
-46.0249939
 20
-45.6500015
 30
0.0
 40
1.0
100
AcDbArc
 50
270.0
 51
0.0
  0
LINE
  5
82
330
1E
100
AcDbEntity
  8
0
 62
     7
100
AcDbLine
 10
-73.6249939
 20
-25.3500015
 30
0.0
 11
-70.4249939
 21
-25.3500015
 31
0.0
  0
LINE
  5
83
330
1E
100
AcDbEntity
  8
0
 62
     7
100
AcDbLine
 10
-46.4249939
 20
-25.3500015
 30
0.0
 11
-49.6249939
 21
-25.3500015
 31
0.0
  0
LINE
  5
84
330
1E
100
AcDbEntity
  8
0
 62
     7
100
AcDbLine
 10
-71.5249939
 20
-19.1500015
 30
0.0
 11
-48.5249939
 21
-19.1500015
 31
0.0
  0
LINE
  5
85
330
1E
100
AcDbEntity
  8
0
 62
     7
100
AcDbLine
 10
-71.5249939
 20
-19.1500015
 30
0.0
 11
-48.5249939
 21
-19.1500015
 31
0.0
  0
LINE
  5
86
330
1E
100
AcDbEntity
  8
0
 62
     7
100
AcDbLine
 10
-71.5249939
 20
-51.1500015
 30
0.0
 11
-71.5249939
 21
-46.6500015
 31
0.0
  0
LINE
  5
87
330
1E
100
AcDbEntity
  8
0
 62
     7
100
AcDbLine
 10
-48.5249939
 20
-51.1500015
 30
0.0
 11
-48.5249939
 21
-46.6500015
 31
0.0
  0
LINE
  5
88
330
1E
100
AcDbEntity
  8
0
  6
CENTER
 62
     2
100
AcDbLine
 10
-86.0806301
 20
-35.1500015
 30
0.0
 11
-33.94174249999999
 21
-35.1500015
 31
0.0
  0
LINE
  5
89
330
1E
100
AcDbEntity
  8
0
 62
     7
100
AcDbLine
 10
-74.0249939
 20
-46.6500015
 30
0.0
 11
-71.5249939
 21
-46.6500015
 31
0.0
  0
LINE
  5
8A
330
1E
100
AcDbEntity
  8
0
 62
     7
100
AcDbLine
 10
-71.5249939
 20
-23.6500015
 30
0.0
 11
-71.5249939
 21
-19.1500015
 31
0.0
  0
LINE
  5
8B
330
1E
100
AcDbEntity
  8
0
 62
     7
100
AcDbLine
 10
-75.0249939
 20
-45.6500015
 30
0.0
 11
-75.0249939
 21
-24.6500015
 31
0.0
  0
LINE
  5
8C
330
1E
100
AcDbEntity
  8
0
 62
     7
100
AcDbLine
 10
-45.02499389999999
 20
-45.6500015
 30
0.0
 11
-45.02499389999999
 21
-24.6500015
 31
0.0
  0
LINE
  5
8D
330
1E
100
AcDbEntity
  8
0
 62
     7
100
AcDbLine
 10
-46.0249939
 20
-46.6500015
 30
0.0
 11
-48.5249939
 21
-46.6500015
 31
0.0
  0
LINE
  5
8E
330
1E
100
AcDbEntity
  8
0
 62
     7
100
AcDbLine
 10
-48.5249939
 20
-23.6500015
 30
0.0
 11
-48.5249939
 21
-19.1500015
 31
0.0
  0
LINE
  5
8F
330
1E
100
AcDbEntity
  8
0
 62
     7
100
AcDbLine
 10
-71.5249939
 20
-51.1500015
 30
0.0
 11
-48.5249939
 21
-51.1500015
 31
0.0
  0
LINE
  5
90
330
1E
100
AcDbEntity
  8
0
 62
     7
100
AcDbLine
 10
-71.5249939
 20
-51.1500015
 30
0.0
 11
-48.5249939
 21
-51.1500015
 31
0.0
  0
ARC
  5
91
330
1E
100
AcDbEntity
  8
0
 62
     7
100
AcDbCircle
 10
-72.02499389999999
 20
-26.9500015
 30
0.0
 40
1.6
100
AcDbArc
 50
180.0
 51
0.0
  0
LINE
  5
92
330
1E
100
AcDbEntity
  8
0
 62
     7
100
AcDbLine
 10
-73.6249939
 20
-26.9500015
 30
0.0
 11
-73.6249939
 21
-25.3500015
 31
0.0
  0
LINE
  5
93
330
1E
100
AcDbEntity
  8
0
 62
     7
100
AcDbLine
 10
-70.4249939
 20
-26.9500015
 30
0.0
 11
-70.4249939
 21
-25.3500015
 31
0.0
  0
LINE
  5
94
330
1E
100
AcDbEntity
  8
0
  6
CENTER
 62
     2
100
AcDbLine
 10
-74.5107902
 20
-26.9500015
 30
0.0
 11
-69.5074272
 21
-26.9500015
 31
0.0
  0
LINE
  5
95
330
1E
100
AcDbEntity
  8
0
  6
CENTER
 62
     2
100
AcDbLine
 10
-72.02499389999999
 20
-29.4352594
 30
0.0
 11
-72.02499389999999
 21
-24.6382206
 31
0.0
  0
LINE
  5
96
330
1E
100
AcDbEntity
  8
0
 62
     7
100
AcDbLine
 10
-46.4249939
 20
-26.9500015
 30
0.0
 11
-46.4249939
 21
-25.3500015
 31
0.0
  0
LINE
  5
97
330
1E
100
AcDbEntity
  8
0
  6
CENTER
 62
     2
100
AcDbLine
 10
-45.6391976
 20
-26.9500015
 30
0.0
 11
-50.6425606
 21
-26.9500015
 31
0.0
  0
LINE
  5
98
330
1E
100
AcDbEntity
  8
0
  6
CENTER
 62
     2
100
AcDbLine
 10
-48.0249939
 20
-29.4352594
 30
0.0
 11
-48.0249939
 21
-24.6382206
 31
0.0
  0
LINE
  5
99
330
1E
100
AcDbEntity
  8
0
 62
     7
100
AcDbLine
 10
-49.6249939
 20
-26.9500015
 30
0.0
 11
-49.6249939
 21
-25.3500015
 31
0.0
  0
ARC
  5
9A
330
1E
100
AcDbEntity
  8
0
 62
     7
100
AcDbCircle
 10
-48.0249939
 20
-26.9500015
 30
0.0
 40
1.6
100
AcDbArc
 50
180.0
 51
0.0
  0
LINE
  5
9B
330
1E
100
AcDbEntity
  8
0
 62
     7
100
AcDbLine
 10
-58.5249939
 20
-53.0500015
 30
0.0
 11
-48.6232396
 21
-53.0500015
 31
0.0
  0
LINE
  5
9C
330
1E
100
AcDbEntity
  8
0
 62
     7
100
AcDbLine
 10
-71.42674809999999
 20
-53.0500015
 30
0.0
 11
-61.5249939
 21
-53.0500015
 31
0.0
  0
LINE
  5
9D
330
1E
100
AcDbEntity
  8
0
 62
     7
100
AcDbLine
 10
-60.0249939
 20
-48.1500015
 30
0.0
 11
-56.5249939
 21
-47.84379119999999
 31
0.0
  0
LINE
  5
9E
330
1E
100
AcDbEntity
  8
0
 62
     7
100
AcDbLine
 10
-56.5249939
 20
-47.84379119999999
 30
0.0
 11
-56.5249939
 21
-45.1500015
 31
0.0
  0
LINE
  5
9F
330
1E
100
AcDbEntity
  8
0
 62
     7
100
AcDbLine
 10
-63.5249939
 20
-48.1500015
 30
0.0
 11
-63.5249939
 21
-45.1500015
 31
0.0
  0
LINE
  5
A0
330
1E
100
AcDbEntity
  8
0
 62
     7
100
AcDbLine
 10
-63.5249939
 20
-45.1500015
 30
0.0
 11
-56.5249939
 21
-45.1500015
 31
0.0
  0
LINE
  5
A1
330
1E
100
AcDbEntity
  8
0
 62
     7
100
AcDbLine
 10
-65.32499389999999
 20
-48.1500015
 30
0.0
 11
-65.32499389999999
 21
-44.7500015
 31
0.0
  0
LINE
  5
A2
330
1E
100
AcDbEntity
  8
0
 62
     7
100
AcDbLine
 10
-56.42499390000001
 20
-48.1500015
 30
0.0
 11
-56.42499390000001
 21
-44.7500015
 31
0.0
  0
LINE
  5
A3
330
1E
100
AcDbEntity
  8
0
 62
     7
100
AcDbLine
 10
-65.32499389999999
 20
-44.7500015
 30
0.0
 11
-56.42499390000001
 21
-44.7500015
 31
0.0
  0
LINE
  5
A4
330
1E
100
AcDbEntity
  8
0
 62
     7
100
AcDbLine
 10
-65.32499389999999
 20
-48.1500015
 30
0.0
 11
-56.42499390000001
 21
-48.1500015
 31
0.0
  0
LINE
  5
A5
330
1E
100
AcDbEntity
  8
0
 62
     7
100
AcDbLine
 10
-60.0249939
 20
-22.1500015
 30
0.0
 11
-63.5249939
 21
-22.4562118
 31
0.0
  0
LINE
  5
A6
330
1E
100
AcDbEntity
  8
0
 62
     7
100
AcDbLine
 10
-56.5249939
 20
-25.1500015
 30
0.0
 11
-56.5249939
 21
-22.1500015
 31
0.0
  0
LINE
  5
A7
330
1E
100
AcDbEntity
  8
0
 62
     7
100
AcDbLine
 10
-63.5249939
 20
-25.1500015
 30
0.0
 11
-63.5249939
 21
-22.4562118
 31
0.0
  0
LINE
  5
A8
330
1E
100
AcDbEntity
  8
0
 62
     7
100
AcDbLine
 10
-63.62499389999999
 20
-25.5500015
 30
0.0
 11
-63.62499389999999
 21
-22.1500015
 31
0.0
  0
LINE
  5
A9
330
1E
100
AcDbEntity
  8
0
 62
     7
100
AcDbLine
 10
-54.7249939
 20
-25.5500015
 30
0.0
 11
-54.7249939
 21
-22.1500015
 31
0.0
  0
LINE
  5
AA
330
1E
100
AcDbEntity
  8
0
 62
     7
100
AcDbLine
 10
-63.62499389999999
 20
-22.1500015
 30
0.0
 11
-54.7249939
 21
-22.1500015
 31
0.0
  0
LINE
  5
AB
330
1E
100
AcDbEntity
  8
0
 62
     7
100
AcDbLine
 10
-63.5249939
 20
-25.1500015
 30
0.0
 11
-56.5249939
 21
-25.1500015
 31
0.0
  0
LINE
  5
AC
330
1E
100
AcDbEntity
  8
0
 62
     7
100
AcDbLine
 10
-54.7249939
 20
-25.5500015
 30
0.0
 11
-63.62499389999999
 21
-25.5500015
 31
0.0
  0
CIRCLE
  5
AD
330
1E
100
AcDbEntity
  8
0
 62
     7
100
AcDbCircle
 10
-60.0249939
 20
-35.1500015
 30
0.0
 40
4.25
  0
LINE
  5
AE
330
1E
100
AcDbEntity
  8
0
 62
     7
100
AcDbLine
 10
-71.5249939
 20
-19.1500015
 30
0.0
 11
-71.5249939
 21
-11.09264219999999
 31
0.0
  0
LINE
  5
AF
330
1E
100
AcDbEntity
  8
0
 62
     7
100
AcDbLine
 10
-48.5249939
 20
-19.1500015
 30
0.0
 11
-48.5249939
 21
-11.09264219999999
 31
0.0
  0
LINE
  5
B0
330
1E
100
AcDbEntity
  8
0
 62
     7
100
AcDbLine
 10
-71.42674809999999
 20
-11.2872897
 30
0.0
 11
-71.42674809999999
 21
-17.2500015
 31
0.0
  0
ARC
  5
B1
330
1E
100
AcDbEntity
  8
0
 62
     7
100
AcDbCircle
 10
-68.4267481
 20
-11.2872897
 30
0.0
 40
3.0
100
AcDbArc
 50
135.0
 51
180.0
  0
ARC
  5
B2
330
1E
100
AcDbEntity
  8
0
 62
     7
100
AcDbCircle
 10
-68.58718039999999
 20
-7.91218802
 30
0.0
 40
0.5
100
AcDbArc
 50
90.00000020000001
 51
180.0
  0
LINE
  5
B3
330
1E
100
AcDbEntity
  8
0
 62
     7
100
AcDbLine
 10
-68.9407338
 20
-7.55863463
 30
0.0
 11
-70.5480685
 21
-9.16596934
 31
0.0
  0
LINE
  5
B4
330
1E
100
AcDbEntity
  8
0
 62
     7
100
AcDbLine
 10
-68.58718039999999
 20
-7.41218802
 30
0.0
 11
-62.875744
 21
-7.41218802
 31
0.0
  0
LINE
  5
B5
330
1E
100
AcDbEntity
  8
0
 62
     7
100
AcDbLine
 10
-61.5249939
 20
-9.85000153
 30
0.0
 11
-62.875744
 21
-7.41218802
 31
0.0
  0
LINE
  5
B6
330
1E
100
AcDbEntity
  8
0
 62
     7
100
AcDbLine
 10
-69.0871804
 20
-14.9104338
 30
0.0
 11
-62.875744
 21
-14.9104338
 31
0.0
  0
LINE
  5
B7
330
1E
100
AcDbEntity
  8
0
 62
     7
100
AcDbLine
 10
-62.875744
 20
-14.9104338
 30
0.0
 11
-61.5249939
 21
-17.2500015
 31
0.0
  0
LINE
  5
B8
330
1E
100
AcDbEntity
  8
0
 62
     7
100
AcDbLine
 10
-71.42674809999999
 20
-17.2500015
 30
0.0
 11
-69.0871804
 21
-14.9104338
 31
0.0
  0
LINE
  5
B9
330
1E
100
AcDbEntity
  8
0
 62
     7
100
AcDbLine
 10
-69.0871804
 20
-7.91218801
 30
0.0
 11
-69.0871804
 21
-14.9104338
 31
0.0
  0
LINE
  5
BA
330
1E
100
AcDbEntity
  8
0
 62
     7
100
AcDbLine
 10
-62.875744
 20
-7.41218801
 30
0.0
 11
-62.875744
 21
-14.9104338
 31
0.0
  0
LINE
  5
BB
330
1E
100
AcDbEntity
  8
0
 62
     7
100
AcDbLine
 10
-71.42674809999999
 20
-17.2500015
 30
0.0
 11
-61.5249939
 21
-17.2500015
 31
0.0
  0
LINE
  5
BC
330
1E
100
AcDbEntity
  8
0
 62
     7
100
AcDbLine
 10
-61.5249939
 20
-9.85000153
 30
0.0
 11
-61.5249939
 21
-17.2500015
 31
0.0
  0
LINE
  5
BD
330
1E
100
AcDbEntity
  8
0
 62
     7
100
AcDbLine
 10
-48.6232396
 20
-11.2872897
 30
0.0
 11
-48.6232396
 21
-17.2500015
 31
0.0
  0
ARC
  5
BE
330
1E
100
AcDbEntity
  8
0
 62
     7
100
AcDbCircle
 10
-51.6232396
 20
-11.2872897
 30
0.0
 40
3.0
100
AcDbArc
 50
0.0
 51
45.0
  0
LINE
  5
BF
330
1E
100
AcDbEntity
  8
0
 62
     7
100
AcDbLine
 10
-51.46280739999999
 20
-7.41218802
 30
0.0
 11
-57.1742438
 21
-7.41218802
 31
0.0
  0
LINE
  5
C0
330
1E
100
AcDbEntity
  8
0
 62
     7
100
AcDbLine
 10
-57.1742438
 20
-14.9104338
 30
0.0
 11
-58.5249939
 21
-17.2500015
 31
0.0
  0
LINE
  5
C1
330
1E
100
AcDbEntity
  8
0
 62
     7
100
AcDbLine
 10
-58.5249939
 20
-9.85000153
 30
0.0
 11
-58.5249939
 21
-17.2500015
 31
0.0
  0
LINE
  5
C2
330
1E
100
AcDbEntity
  8
0
 62
     7
100
AcDbLine
 10
-50.9628074
 20
-7.91218801
 30
0.0
 11
-50.9628074
 21
-14.9104338
 31
0.0
  0
LINE
  5
C3
330
1E
100
AcDbEntity
  8
0
 62
     7
100
AcDbLine
 10
-50.9628074
 20
-14.9104338
 30
0.0
 11
-57.1742438
 21
-14.9104338
 31
0.0
  0
ARC
  5
C4
330
1E
100
AcDbEntity
  8
0
 62
     7
100
AcDbCircle
 10
-51.46280739999999
 20
-7.91218802
 30
0.0
 40
0.5
100
AcDbArc
 50
0.0
 51
90.00000020000001
  0
LINE
  5
C5
330
1E
100
AcDbEntity
  8
0
 62
     7
100
AcDbLine
 10
-51.109254
 20
-7.55863463
 30
0.0
 11
-49.50191929999999
 21
-9.16596934
 31
0.0
  0
LINE
  5
C6
330
1E
100
AcDbEntity
  8
0
 62
     7
100
AcDbLine
 10
-48.6232396
 20
-17.2500015
 30
0.0
 11
-50.9628074
 21
-14.9104338
 31
0.0
  0
LINE
  5
C7
330
1E
100
AcDbEntity
  8
0
 62
     7
100
AcDbLine
 10
-58.5249939
 20
-9.85000153
 30
0.0
 11
-57.1742438
 21
-7.41218802
 31
0.0
  0
LINE
  5
C8
330
1E
100
AcDbEntity
  8
0
 62
     7
100
AcDbLine
 10
-57.1742438
 20
-7.41218801
 30
0.0
 11
-57.1742438
 21
-14.9104338
 31
0.0
  0
LINE
  5
C9
330
1E
100
AcDbEntity
  8
0
 62
     7
100
AcDbLine
 10
-61.5249939
 20
-9.85000153
 30
0.0
 11
-58.5249939
 21
-9.85000153
 31
0.0
  0
LINE
  5
CA
330
1E
100
AcDbEntity
  8
0
 62
     7
100
AcDbLine
 10
-58.5249939
 20
-17.2500015
 30
0.0
 11
-48.6232396
 21
-17.2500015
 31
0.0
  0
ARC
  5
CB
330
1E
100
AcDbEntity
  8
0
 62
     7
100
AcDbCircle
 10
-51.5249939
 20
-11.09264219999999
 30
0.0
 40
3.0
100
AcDbArc
 50
0.0
 51
45.0
  0
ARC
  5
CC
330
1E
100
AcDbEntity
  8
0
 62
     7
100
AcDbCircle
 10
-53.7676346
 20
-8.85000153
 30
0.0
 40
3.0
100
AcDbArc
 50
45.0
 51
90.00000020000001
  0
ARC
  5
CD
330
1E
100
AcDbEntity
  8
0
 62
     7
100
AcDbCircle
 10
-66.2823532
 20
-8.85000153
 30
0.0
 40
3.0
100
AcDbArc
 50
90.00000020000001
 51
135.0
  0
ARC
  5
CE
330
1E
100
AcDbEntity
  8
0
 62
     7
100
AcDbCircle
 10
-68.5249939
 20
-11.09264219999999
 30
0.0
 40
3.0
100
AcDbArc
 50
135.0
 51
180.0
  0
LINE
  5
CF
330
1E
100
AcDbEntity
  8
0
 62
     7
100
AcDbLine
 10
-51.6463142
 20
-6.728681179999999
 30
0.0
 11
-49.4036736
 21
-8.97132187
 31
0.0
  0
LINE
  5
D0
330
1E
100
AcDbEntity
  8
0
 62
     7
100
AcDbLine
 10
-70.64631420000001
 20
-8.97132187
 30
0.0
 11
-68.40367359999999
 21
-6.728681179999999
 31
0.0
  0
LINE
  5
D1
330
1E
100
AcDbEntity
  8
0
 62
     7
100
AcDbLine
 10
-66.2823532
 20
-5.85000153
 30
0.0
 11
-53.7676346
 21
-5.85000153
 31
0.0
  0
LINE
  5
D2
330
1E
100
AcDbEntity
  8
0
 62
     7
100
AcDbLine
 10
-72.82499389999999
 20
-31.1500015
 30
0.0
 11
-72.82499389999999
 21
-29.6500015
 31
0.0
  0
LINE
  5
D3
330
1E
100
AcDbEntity
  8
0
 62
     7
100
AcDbLine
 10
-72.82499389999999
 20
-34.1500015
 30
0.0
 11
-75.0249939
 21
-34.1500015
 31
0.0
  0
LINE
  5
D4
330
1E
100
AcDbEntity
  8
0
 62
     7
100
AcDbLine
 10
-72.82499389999999
 20
-36.1500015
 30
0.0
 11
-75.0249939
 21
-36.1500015
 31
0.0
  0
LINE
  5
D5
330
1E
100
AcDbEntity
  8
0
 62
     7
100
AcDbLine
 10
-71.32499389999999
 20
-40.6500015
 30
0.0
 11
-71.32499389999999
 21
-29.6500015
 31
0.0
  0
ARC
  5
D6
330
1E
100
AcDbEntity
  8
0
 62
     7
100
AcDbCircle
 10
-71.9749939
 20
-30.8000015
 30
0.0
 40
0.65
100
AcDbArc
 50
0.0
 51
180.0
  0
LINE
  5
D7
330
1E
100
AcDbEntity
  8
0
  6
CENTER
 62
     2
100
AcDbLine
 10
-71.9749939
 20
-28.79395099999999
 30
0.0
 11
-71.9749939
 21
-41.851672
 31
0.0
  0
ARC
  5
D8
330
1E
100
AcDbEntity
  8
0
 62
     7
100
AcDbCircle
 10
-71.9749939
 20
-39.5000015
 30
0.0
 40
0.65
100
AcDbArc
 50
180.0
 51
0.0
  0
LINE
  5
D9
330
1E
100
AcDbEntity
  8
0
 62
     7
100
AcDbLine
 10
-72.62499390000001
 20
-30.8000015
 30
0.0
 11
-72.62499390000001
 21
-39.5000015
 31
0.0
  0
LINE
  5
DA
330
1E
100
AcDbEntity
  8
0
 62
     7
100
AcDbLine
 10
-71.5249939
 20
-34.1500015
 30
0.0
 11
-71.32499389999999
 21
-34.1500015
 31
0.0
  0
LINE
  5
DB
330
1E
100
AcDbEntity
  8
0
 62
     7
100
AcDbLine
 10
-71.5249939
 20
-36.1500015
 30
0.0
 11
-71.5249939
 21
-34.1500015
 31
0.0
  0
LINE
  5
DC
330
1E
100
AcDbEntity
  8
0
 62
     7
100
AcDbLine
 10
-71.5249939
 20
-36.1500015
 30
0.0
 11
-71.32499389999999
 21
-36.1500015
 31
0.0
  0
LINE
  5
DD
330
1E
100
AcDbEntity
  8
0
 62
     7
100
AcDbLine
 10
-71.32499389999999
 20
-40.6500015
 30
0.0
 11
-72.82499389999999
 21
-40.6500015
 31
0.0
  0
LINE
  5
DE
330
1E
100
AcDbEntity
  8
0
 62
     7
100
AcDbLine
 10
-72.62499390000001
 20
-39.1500015
 30
0.0
 11
-72.82499389999999
 21
-39.1500015
 31
0.0
  0
LINE
  5
DF
330
1E
100
AcDbEntity
  8
0
 62
     7
100
AcDbLine
 10
-72.62499390000001
 20
-39.1500015
 30
0.0
 11
-72.62499390000001
 21
-38.1500015
 31
0.0
  0
LINE
  5
E0
330
1E
100
AcDbEntity
  8
0
 62
     7
100
AcDbLine
 10
-72.82499389999999
 20
-40.6500015
 30
0.0
 11
-72.82499389999999
 21
-39.1500015
 31
0.0
  0
LINE
  5
E1
330
1E
100
AcDbEntity
  8
0
 62
     7
100
AcDbLine
 10
-72.62499390000001
 20
-38.1500015
 30
0.0
 11
-72.82499389999999
 21
-38.1500015
 31
0.0
  0
LINE
  5
E2
330
1E
100
AcDbEntity
  8
0
 62
     7
100
AcDbLine
 10
-72.82499389999999
 20
-38.1500015
 30
0.0
 11
-72.82499389999999
 21
-36.1500015
 31
0.0
  0
LINE
  5
E3
330
1E
100
AcDbEntity
  8
0
 62
     7
100
AcDbLine
 10
-72.62499390000001
 20
-32.1500015
 30
0.0
 11
-72.82499389999999
 21
-32.1500015
 31
0.0
  0
LINE
  5
E4
330
1E
100
AcDbEntity
  8
0
 62
     7
100
AcDbLine
 10
-72.82499389999999
 20
-34.1500015
 30
0.0
 11
-72.82499389999999
 21
-32.1500015
 31
0.0
  0
LINE
  5
E5
330
1E
100
AcDbEntity
  8
0
 62
     7
100
AcDbLine
 10
-72.62499390000001
 20
-32.1500015
 30
0.0
 11
-72.62499390000001
 21
-31.1500015
 31
0.0
  0
LINE
  5
E6
330
1E
100
AcDbEntity
  8
0
 62
     7
100
AcDbLine
 10
-72.62499390000001
 20
-31.1500015
 30
0.0
 11
-72.82499389999999
 21
-31.1500015
 31
0.0
  0
LINE
  5
E7
330
1E
100
AcDbEntity
  8
0
 62
     7
100
AcDbLine
 10
-71.32499389999999
 20
-29.6500015
 30
0.0
 11
-72.82499389999999
 21
-29.6500015
 31
0.0
  0
LINE
  5
E8
330
1E
100
AcDbEntity
  8
0
 62
     7
100
AcDbLine
 10
-47.2249939
 20
-34.1500015
 30
0.0
 11
-45.02499389999999
 21
-34.1500015
 31
0.0
  0
LINE
  5
E9
330
1E
100
AcDbEntity
  8
0
 62
     7
100
AcDbLine
 10
-47.2249939
 20
-36.1500015
 30
0.0
 11
-45.02499389999999
 21
-36.1500015
 31
0.0
  0
LINE
  5
EA
330
1E
100
AcDbEntity
  8
0
  6
CENTER
 62
     2
100
AcDbLine
 10
-48.0749939
 20
-28.79395099999999
 30
0.0
 11
-48.0749939
 21
-41.851672
 31
0.0
  0
ARC
  5
EB
330
1E
100
AcDbEntity
  8
0
 62
     7
100
AcDbCircle
 10
-48.0749939
 20
-39.5000015
 30
0.0
 40
0.65
100
AcDbArc
 50
180.0
 51
0.0
  0
ARC
  5
EC
330
1E
100
AcDbEntity
  8
0
 62
     7
100
AcDbCircle
 10
-48.0749939
 20
-30.8000015
 30
0.0
 40
0.65
100
AcDbArc
 50
0.0
 51
180.0
  0
LINE
  5
ED
330
1E
100
AcDbEntity
  8
0
 62
     7
100
AcDbLine
 10
-47.4249939
 20
-30.8000015
 30
0.0
 11
-47.4249939
 21
-39.5000015
 31
0.0
  0
LINE
  5
EE
330
1E
100
AcDbEntity
  8
0
 62
     7
100
AcDbLine
 10
-47.4249939
 20
-31.1500015
 30
0.0
 11
-47.2249939
 21
-31.1500015
 31
0.0
  0
LINE
  5
EF
330
1E
100
AcDbEntity
  8
0
 62
     7
100
AcDbLine
 10
-47.4249939
 20
-32.1500015
 30
0.0
 11
-47.4249939
 21
-31.1500015
 31
0.0
  0
LINE
  5
F0
330
1E
100
AcDbEntity
  8
0
 62
     7
100
AcDbLine
 10
-48.7249939
 20
-29.6500015
 30
0.0
 11
-47.2249939
 21
-29.6500015
 31
0.0
  0
LINE
  5
F1
330
1E
100
AcDbEntity
  8
0
 62
     7
100
AcDbLine
 10
-47.2249939
 20
-31.1500015
 30
0.0
 11
-47.2249939
 21
-29.6500015
 31
0.0
  0
LINE
  5
F2
330
1E
100
AcDbEntity
  8
0
 62
     7
100
AcDbLine
 10
-47.4249939
 20
-32.1500015
 30
0.0
 11
-47.2249939
 21
-32.1500015
 31
0.0
  0
LINE
  5
F3
330
1E
100
AcDbEntity
  8
0
 62
     7
100
AcDbLine
 10
-48.5249939
 20
-34.1500015
 30
0.0
 11
-48.7249939
 21
-34.1500015
 31
0.0
  0
LINE
  5
F4
330
1E
100
AcDbEntity
  8
0
 62
     7
100
AcDbLine
 10
-48.5249939
 20
-36.1500015
 30
0.0
 11
-48.7249939
 21
-36.1500015
 31
0.0
  0
LINE
  5
F5
330
1E
100
AcDbEntity
  8
0
 62
     7
100
AcDbLine
 10
-48.5249939
 20
-36.1500015
 30
0.0
 11
-48.5249939
 21
-34.1500015
 31
0.0
  0
LINE
  5
F6
330
1E
100
AcDbEntity
  8
0
 62
     7
100
AcDbLine
 10
-48.7249939
 20
-40.6500015
 30
0.0
 11
-48.7249939
 21
-29.6500015
 31
0.0
  0
LINE
  5
F7
330
1E
100
AcDbEntity
  8
0
 62
     7
100
AcDbLine
 10
-48.7249939
 20
-40.6500015
 30
0.0
 11
-47.2249939
 21
-40.6500015
 31
0.0
  0
LINE
  5
F8
330
1E
100
AcDbEntity
  8
0
 62
     7
100
AcDbLine
 10
-47.4249939
 20
-39.1500015
 30
0.0
 11
-47.2249939
 21
-39.1500015
 31
0.0
  0
LINE
  5
F9
330
1E
100
AcDbEntity
  8
0
 62
     7
100
AcDbLine
 10
-47.2249939
 20
-40.6500015
 30
0.0
 11
-47.2249939
 21
-39.1500015
 31
0.0
  0
LINE
  5
FA
330
1E
100
AcDbEntity
  8
0
 62
     7
100
AcDbLine
 10
-47.4249939
 20
-39.1500015
 30
0.0
 11
-47.4249939
 21
-38.1500015
 31
0.0
  0
LINE
  5
FB
330
1E
100
AcDbEntity
  8
0
 62
     7
100
AcDbLine
 10
-47.4249939
 20
-38.1500015
 30
0.0
 11
-47.2249939
 21
-38.1500015
 31
0.0
  0
LINE
  5
FC
330
1E
100
AcDbEntity
  8
0
 62
     7
100
AcDbLine
 10
-47.2249939
 20
-38.1500015
 30
0.0
 11
-47.2249939
 21
-36.1500015
 31
0.0
  0
LINE
  5
FD
330
1E
100
AcDbEntity
  8
0
 62
     7
100
AcDbLine
 10
-47.2249939
 20
-34.1500015
 30
0.0
 11
-47.2249939
 21
-32.1500015
 31
0.0
  0
CIRCLE
  5
FE
330
1E
100
AcDbEntity
  8
0
 62
     7
100
AcDbCircle
 10
-67.5249939
 20
-41.1500015
 30
0.0
 40
1.5
  0
LINE
  5
FF
330
1E
100
AcDbEntity
  8
0
 62
     7
100
AcDbLine
 10
-66.2749939
 20
-41.1500015
 30
0.0
 11
-68.1499939
 21
-40.06746979999999
 31
0.0
  0
LINE
  5
100
330
1E
100
AcDbEntity
  8
0
 62
     7
100
AcDbLine
 10
-68.1499939
 20
-42.2325333
 30
0.0
 11
-68.1499939
 21
-40.06746979999999
 31
0.0
  0
LINE
  5
101
330
1E
100
AcDbEntity
  8
0
 62
     7
100
AcDbLine
 10
-66.2749939
 20
-41.1500015
 30
0.0
 11
-68.1499939
 21
-42.2325333
 31
0.0
  0
LINE
  5
102
330
1E
100
AcDbEntity
  8
0
 62
     7
100
AcDbLine
 10
-71.42674809999999
 20
-59.0127134
 30
0.0
 11
-71.42674809999999
 21
-53.0500015
 31
0.0
  0
LINE
  5
103
330
1E
100
AcDbEntity
  8
0
 62
     7
100
AcDbLine
 10
-62.875744
 20
-55.28956929999999
 30
0.0
 11
-61.5249939
 21
-53.0500015
 31
0.0
  0
LINE
  5
104
330
1E
100
AcDbEntity
  8
0
 62
     7
100
AcDbLine
 10
-71.42674809999999
 20
-53.0500015
 30
0.0
 11
-69.0871804
 21
-55.28956929999999
 31
0.0
  0
LINE
  5
105
330
1E
100
AcDbEntity
  8
0
 62
     7
100
AcDbLine
 10
-61.5249939
 20
-60.45000149999999
 30
0.0
 11
-61.5249939
 21
-53.0500015
 31
0.0
  0
LINE
  5
106
330
1E
100
AcDbEntity
  8
0
 62
     7
100
AcDbLine
 10
-48.6232396
 20
-59.0127134
 30
0.0
 11
-48.6232396
 21
-53.0500015
 31
0.0
  0
LINE
  5
107
330
1E
100
AcDbEntity
  8
0
 62
     7
100
AcDbLine
 10
-57.1742438
 20
-55.28956929999999
 30
0.0
 11
-58.5249939
 21
-53.0500015
 31
0.0
  0
LINE
  5
108
330
1E
100
AcDbEntity
  8
0
 62
     7
100
AcDbLine
 10
-58.5249939
 20
-60.45000149999999
 30
0.0
 11
-58.5249939
 21
-53.0500015
 31
0.0
  0
LINE
  5
109
330
1E
100
AcDbEntity
  8
0
 62
     7
100
AcDbLine
 10
-48.6232396
 20
-53.0500015
 30
0.0
 11
-50.9628074
 21
-55.28956929999999
 31
0.0
  0
LINE
  5
10A
330
1E
100
AcDbEntity
  8
0
 62
     7
100
AcDbLine
 10
-48.5249939
 20
-51.1500015
 30
0.0
 11
-48.5249939
 21
-59.20736080000001
 31
0.0
  0
LINE
  5
10B
330
1E
100
AcDbEntity
  8
0
 62
     7
100
AcDbLine
 10
-71.5249939
 20
-51.1500015
 30
0.0
 11
-71.5249939
 21
-59.20736080000001
 31
0.0
  0
LINE
  5
10C
330
1E
100
AcDbEntity
  8
0
  6
CENTER
 62
     2
100
AcDbLine
 10
-60.0249939
 20
-67.20627109999999
 30
0.0
 11
-60.0249939
 21
-4.57437464
 31
0.0
  0
LINE
  5
10D
330
1E
100
AcDbEntity
  8
0
 62
     7
100
AcDbLine
 10
8.717646789999999
 20
-64.6500015
 30
0.0
 11
21.2323654
 21
-64.6500015
 31
0.0
  0
LINE
  5
10E
330
1E
100
AcDbEntity
  8
0
 62
     7
100
AcDbLine
 10
4.35368576
 20
-61.5286812
 30
0.0
 11
6.59632645
 21
-63.77132190000001
 31
0.0
  0
LINE
  5
10F
330
1E
100
AcDbEntity
  8
0
 62
     7
100
AcDbLine
 10
23.3536858
 20
-63.77132190000001
 30
0.0
 11
25.5963264
 21
-61.5286812
 31
0.0
  0
ARC
  5
110
330
1E
100
AcDbEntity
  8
0
 62
     7
100
AcDbCircle
 10
6.475006099999999
 20
-59.4073608
 30
0.0
 40
3.0
100
AcDbArc
 50
180.0
 51
225.0
  0
ARC
  5
111
330
1E
100
AcDbEntity
  8
0
 62
     7
100
AcDbCircle
 10
8.717646789999999
 20
-61.6500015
 30
0.0
 40
3.0
100
AcDbArc
 50
225.0
 51
270.0
  0
ARC
  5
112
330
1E
100
AcDbEntity
  8
0
 62
     7
100
AcDbCircle
 10
21.2323654
 20
-61.6500015
 30
0.0
 40
3.0
100
AcDbArc
 50
270.0
 51
315.0
  0
ARC
  5
113
330
1E
100
AcDbEntity
  8
0
 62
     7
100
AcDbCircle
 10
23.4750061
 20
-59.4073608
 30
0.0
 40
3.0
100
AcDbArc
 50
315.0
 51
0.0
  0
LINE
  5
114
330
1E
100
AcDbEntity
  8
0
 62
     7
100
AcDbLine
 10
12.12425599999999
 20
-63.087815
 30
0.0
 11
12.12425599999999
 21
-55.4895693
 31
0.0
  0
LINE
  5
115
330
1E
100
AcDbEntity
  8
0
 62
     7
100
AcDbLine
 10
5.912819609999999
 20
-62.587815
 30
0.0
 11
5.912819609999999
 21
-55.4895693
 31
0.0
  0
LINE
  5
116
330
1E
100
AcDbEntity
  8
0
 62
     7
100
AcDbLine
 10
5.912819609999999
 20
-55.4895693
 30
0.0
 11
12.12425599999999
 21
-55.4895693
 31
0.0
  0
LINE
  5
117
330
1E
100
AcDbEntity
  8
0
 62
     7
100
AcDbLine
 10
13.47500609999999
 20
-60.6500015
 30
0.0
 11
16.47500609999999
 21
-60.6500015
 31
0.0
  0
LINE
  5
118
330
1E
100
AcDbEntity
  8
0
 62
     7
100
AcDbLine
 10
6.412819609999999
 20
-63.087815
 30
0.0
 11
12.12425599999999
 21
-63.087815
 31
0.0
  0
ARC
  5
119
330
1E
100
AcDbEntity
  8
0
 62
     7
100
AcDbCircle
 10
6.412819609999999
 20
-62.587815
 30
0.0
 40
0.5
100
AcDbArc
 50
180.0
 51
270.0
  0
LINE
  5
11A
330
1E
100
AcDbEntity
  8
0
 62
     7
100
AcDbLine
 10
13.47500609999999
 20
-60.6500015
 30
0.0
 11
12.12425599999999
 21
-63.087815
 31
0.0
  0
LINE
  5
11B
330
1E
100
AcDbEntity
  8
0
 62
     7
100
AcDbLine
 10
6.059266219999999
 20
-62.9413684
 30
0.0
 11
4.451931509999999
 21
-61.3340337
 31
0.0
  0
ARC
  5
11C
330
1E
100
AcDbEntity
  8
0
 62
     7
100
AcDbCircle
 10
6.57325185
 20
-59.2127134
 30
0.0
 40
3.0
100
AcDbArc
 50
180.0
 51
225.0
  0
LINE
  5
11D
330
1E
100
AcDbEntity
  8
0
 62
     7
100
AcDbLine
 10
17.8257562
 20
-63.087815
 30
0.0
 11
17.8257562
 21
-55.4895693
 31
0.0
  0
LINE
  5
11E
330
1E
100
AcDbEntity
  8
0
 62
     7
100
AcDbLine
 10
16.47500609999999
 20
-60.6500015
 30
0.0
 11
17.8257562
 21
-63.087815
 31
0.0
  0
LINE
  5
11F
330
1E
100
AcDbEntity
  8
0
 62
     7
100
AcDbLine
 10
23.5371926
 20
-63.087815
 30
0.0
 11
17.8257562
 21
-63.087815
 31
0.0
  0
LINE
  5
120
330
1E
100
AcDbEntity
  8
0
 62
     7
100
AcDbLine
 10
24.0371926
 20
-62.587815
 30
0.0
 11
24.0371926
 21
-55.4895693
 31
0.0
  0
LINE
  5
121
330
1E
100
AcDbEntity
  8
0
 62
     7
100
AcDbLine
 10
24.0371926
 20
-55.4895693
 30
0.0
 11
17.8257562
 21
-55.4895693
 31
0.0
  0
ARC
  5
122
330
1E
100
AcDbEntity
  8
0
 62
     7
100
AcDbCircle
 10
23.37676039999999
 20
-59.2127134
 30
0.0
 40
3.0
100
AcDbArc
 50
315.0
 51
0.0
  0
LINE
  5
123
330
1E
100
AcDbEntity
  8
0
 62
     7
100
AcDbLine
 10
23.890746
 20
-62.9413684
 30
0.0
 11
25.4980807
 21
-61.3340337
 31
0.0
  0
ARC
  5
124
330
1E
100
AcDbEntity
  8
0
 62
     7
100
AcDbCircle
 10
23.5371926
 20
-62.587815
 30
0.0
 40
0.5
100
AcDbArc
 50
270.0
 51
0.0
  0
LINE
  5
125
330
1E
100
AcDbEntity
  8
0
  6
PHANTOM
 62
     6
100
AcDbLine
 10
32.9750061
 20
-29.1500015
 30
0.0
 11
32.9750061
 21
-27.1500015
 31
0.0
  0
LINE
  5
126
330
1E
100
AcDbEntity
  8
0
  6
PHANTOM
 62
     6
100
AcDbLine
 10
32.9750061
 20
-38.1500015
 30
0.0
 11
32.9750061
 21
-32.1500015
 31
0.0
  0
LINE
  5
127
330
1E
100
AcDbEntity
  8
0
  6
PHANTOM
 62
     6
100
AcDbLine
 10
32.9750061
 20
-43.1500015
 30
0.0
 11
32.9750061
 21
-41.1500015
 31
0.0
  0
LINE
  5
128
330
1E
100
AcDbEntity
  8
0
  6
PHANTOM
 62
     6
100
AcDbLine
 10
32.9750061
 20
-27.1500015
 30
0.0
 11
35.9750061
 21
-27.1500015
 31
0.0
  0
ARC
  5
129
330
1E
100
AcDbEntity
  8
0
  6
PHANTOM
 62
     6
100
AcDbCircle
 10
34.9750061
 20
-30.1500015
 30
0.0
 40
1.0
100
AcDbArc
 50
0.0
 51
90.00000020000001
  0
LINE
  5
12A
330
1E
100
AcDbEntity
  8
0
  6
PHANTOM
 62
     6
100
AcDbLine
 10
20.2665087
 20
-29.1500015
 30
0.0
 11
34.9750061
 21
-29.1500015
 31
0.0
  0
LINE
  5
12B
330
1E
100
AcDbEntity
  8
0
  6
PHANTOM
 62
     6
100
AcDbLine
 10
9.075006099999999
 20
-31.053036
 30
0.0
 11
9.075006099999999
 21
-29.74722449999999
 31
0.0
  0
LINE
  5
12C
330
1E
100
AcDbEntity
  8
0
  6
PHANTOM
 62
     6
100
AcDbLine
 10
10.97500609999999
 20
-32.1500015
 30
0.0
 11
9.075006099999999
 21
-31.053036
 31
0.0
  0
LINE
  5
12D
330
1E
100
AcDbEntity
  8
0
  6
PHANTOM
 62
     6
100
AcDbLine
 10
18.9750061
 20
-32.1500015
 30
0.0
 11
32.9750061
 21
-32.1500015
 31
0.0
  0
LINE
  5
12E
330
1E
100
AcDbEntity
  8
0
  6
PHANTOM
 62
     6
100
AcDbLine
 10
18.9750061
 20
-38.1500015
 30
0.0
 11
32.9750061
 21
-38.1500015
 31
0.0
  0
ARC
  5
12F
330
1E
100
AcDbEntity
  8
0
  6
PHANTOM
 62
     6
100
AcDbCircle
 10
14.97500609999999
 20
-35.1500015
 30
0.0
 40
5.0
100
AcDbArc
 50
216.869898
 51
323.130102
  0
LINE
  5
130
330
1E
100
AcDbEntity
  8
0
  6
PHANTOM
 62
     6
100
AcDbLine
 10
10.97500609999999
 20
-38.1500015
 30
0.0
 11
9.075006099999999
 21
-39.246967
 31
0.0
  0
LINE
  5
131
330
1E
100
AcDbEntity
  8
0
  6
PHANTOM
 62
     6
100
AcDbLine
 10
9.075006099999999
 20
-40.5527786
 30
0.0
 11
9.075006099999999
 21
-39.246967
 31
0.0
  0
ARC
  5
132
330
1E
100
AcDbEntity
  8
0
  6
PHANTOM
 62
     6
100
AcDbCircle
 10
14.97500609999999
 20
-35.1500015
 30
0.0
 40
8.0
100
AcDbArc
 50
222.4811129999999
 51
311.409622
  0
LINE
  5
133
330
1E
100
AcDbEntity
  8
0
  6
PHANTOM
 62
     6
100
AcDbLine
 10
20.2665087
 20
-41.1500015
 30
0.0
 11
34.9750061
 21
-41.1500015
 31
0.0
  0
ARC
  5
134
330
1E
100
AcDbEntity
  8
0
  6
PHANTOM
 62
     6
100
AcDbCircle
 10
34.9750061
 20
-40.1500015
 30
0.0
 40
1.0
100
AcDbArc
 50
270.0
 51
0.0
  0
LINE
  5
135
330
1E
100
AcDbEntity
  8
0
  6
PHANTOM
 62
     6
100
AcDbLine
 10
35.9750061
 20
-43.1500015
 30
0.0
 11
35.9750061
 21
-27.1500015
 31
0.0
  0
LINE
  5
136
330
1E
100
AcDbEntity
  8
0
  6
PHANTOM
 62
     6
100
AcDbLine
 10
32.9750061
 20
-43.1500015
 30
0.0
 11
35.9750061
 21
-43.1500015
 31
0.0
  0
ARC
  5
137
330
1E
100
AcDbEntity
  8
0
 62
     7
100
AcDbCircle
 10
25.4750061
 20
-24.6500015
 30
0.0
 40
1.0
100
AcDbArc
 50
0.0
 51
90.00000020000001
  0
ARC
  5
138
330
1E
100
AcDbEntity
  8
0
 62
     7
100
AcDbCircle
 10
4.475006099999999
 20
-24.6500015
 30
0.0
 40
1.0
100
AcDbArc
 50
90.00000020000001
 51
180.0
  0
LINE
  5
139
330
1E
100
AcDbEntity
  8
0
 62
     7
100
AcDbLine
 10
20.2750061
 20
-23.6500015
 30
0.0
 11
25.4750061
 21
-23.6500015
 31
0.0
  0
LINE
  5
13A
330
1E
100
AcDbEntity
  8
0
 62
     7
100
AcDbLine
 10
4.475006099999999
 20
-23.6500015
 30
0.0
 11
11.3750061
 21
-23.6500015
 31
0.0
  0
LINE
  5
13B
330
1E
100
AcDbEntity
  8
0
 62
     7
100
AcDbLine
 10
24.9750061
 20
-51.2500015
 30
0.0
 11
24.9750061
 21
-51.1500015
 31
0.0
  0
LINE
  5
13C
330
1E
100
AcDbEntity
  8
0
 62
     7
100
AcDbLine
 10
4.975006099999999
 20
-51.2500015
 30
0.0
 11
4.975006099999999
 21
-51.1500015
 31
0.0
  0
ARC
  5
13D
330
1E
100
AcDbEntity
  8
0
 62
     7
100
AcDbCircle
 10
3.6750061
 20
-51.4500015
 30
0.0
 40
0.2
100
AcDbArc
 50
90.00000020000001
 51
180.0
  0
ARC
  5
13E
330
1E
100
AcDbEntity
  8
0
 62
     7
100
AcDbCircle
 10
26.2750061
 20
-51.4500015
 30
0.0
 40
0.2
100
AcDbArc
 50
0.0
 51
90.00000020000001
  0
LINE
  5
13F
330
1E
100
AcDbEntity
  8
0
 62
     7
100
AcDbLine
 10
3.6750061
 20
-51.2500015
 30
0.0
 11
26.2750061
 21
-51.2500015
 31
0.0
  0
LINE
  5
140
330
1E
100
AcDbEntity
  8
0
 62
     7
100
AcDbLine
 10
9.675006099999999
 20
-48.1500015
 30
0.0
 11
18.5750061
 21
-48.1500015
 31
0.0
  0
LINE
  5
141
330
1E
100
AcDbEntity
  8
0
 62
     7
100
AcDbLine
 10
9.675006099999999
 20
-44.7500015
 30
0.0
 11
18.5750061
 21
-44.7500015
 31
0.0
  0
LINE
  5
142
330
1E
100
AcDbEntity
  8
0
 62
     7
100
AcDbLine
 10
18.5750061
 20
-48.1500015
 30
0.0
 11
18.5750061
 21
-44.7500015
 31
0.0
  0
LINE
  5
143
330
1E
100
AcDbEntity
  8
0
 62
     7
100
AcDbLine
 10
9.675006099999999
 20
-48.1500015
 30
0.0
 11
9.675006099999999
 21
-44.7500015
 31
0.0
  0
LINE
  5
144
330
1E
100
AcDbEntity
  8
0
 62
     7
100
AcDbLine
 10
11.4750061
 20
-45.1500015
 30
0.0
 11
18.4750061
 21
-45.1500015
 31
0.0
  0
LINE
  5
145
330
1E
100
AcDbEntity
  8
0
 62
     7
100
AcDbLine
 10
11.4750061
 20
-48.1500015
 30
0.0
 11
11.4750061
 21
-45.1500015
 31
0.0
  0
LINE
  5
146
330
1E
100
AcDbEntity
  8
0
 62
     7
100
AcDbLine
 10
18.4750061
 20
-47.84379119999999
 30
0.0
 11
18.4750061
 21
-45.1500015
 31
0.0
  0
LINE
  5
147
330
1E
100
AcDbEntity
  8
0
 62
     7
100
AcDbLine
 10
14.97500609999999
 20
-48.1500015
 30
0.0
 11
18.4750061
 21
-47.84379119999999
 31
0.0
  0
LINE
  5
148
330
1E
100
AcDbEntity
  8
0
 62
     7
100
AcDbLine
 10
3.57325185
 20
-53.1500015
 30
0.0
 11
13.47500609999999
 21
-53.1500015
 31
0.0
  0
LINE
  5
149
330
1E
100
AcDbEntity
  8
0
 62
     7
100
AcDbLine
 10
16.47500609999999
 20
-53.1500015
 30
0.0
 11
26.3767604
 21
-53.1500015
 31
0.0
  0
LINE
  5
14A
330
1E
100
AcDbEntity
  8
0
  6
CENTER
 62
     2
100
AcDbLine
 10
1.37490588
 20
-35.1500015
 30
0.0
 11
38.0400187
 21
-35.1500015
 31
0.0
  0
CIRCLE
  5
14B
330
1E
100
AcDbEntity
  8
0
 62
     7
100
AcDbCircle
 10
14.97500609999999
 20
-35.1500015
 30
0.0
 40
5.0
  0
CIRCLE
  5
14C
330
1E
100
AcDbEntity
  8
0
 62
     7
100
AcDbCircle
 10
14.97500609999999
 20
-35.1500015
 30
0.0
 40
3.0
  0
LINE
  5
14D
330
1E
100
AcDbEntity
  8
0
 62
     7
100
AcDbLine
 10
4.475006099999999
 20
-46.6500015
 30
0.0
 11
9.675006099999999
 21
-46.6500015
 31
0.0
  0
ARC
  5
14E
330
1E
100
AcDbEntity
  8
0
 62
     7
100
AcDbCircle
 10
26.2750061
 20
-50.9500015
 30
0.0
 40
0.2
100
AcDbArc
 50
270.0
 51
0.0
  0
ARC
  5
14F
330
1E
100
AcDbEntity
  8
0
 62
     7
100
AcDbCircle
 10
3.6750061
 20
-50.9500015
 30
0.0
 40
0.2
100
AcDbArc
 50
180.0
 51
270.0
  0
LINE
  5
150
330
1E
100
AcDbEntity
  8
0
 62
     7
100
AcDbLine
 10
3.6750061
 20
-51.1500015
 30
0.0
 11
26.2750061
 21
-51.1500015
 31
0.0
  0
LINE
  5
151
330
1E
100
AcDbEntity
  8
0
 62
     7
100
AcDbLine
 10
20.2750061
 20
-25.5500015
 30
0.0
 11
11.3750061
 21
-25.5500015
 31
0.0
  0
LINE
  5
152
330
1E
100
AcDbEntity
  8
0
 62
     7
100
AcDbLine
 10
11.4750061
 20
-25.1500015
 30
0.0
 11
18.4750061
 21
-25.1500015
 31
0.0
  0
LINE
  5
153
330
1E
100
AcDbEntity
  8
0
 62
     7
100
AcDbLine
 10
11.3750061
 20
-22.1500015
 30
0.0
 11
20.2750061
 21
-22.1500015
 31
0.0
  0
LINE
  5
154
330
1E
100
AcDbEntity
  8
0
 62
     7
100
AcDbLine
 10
3.475006099999999
 20
-19.1500015
 30
0.0
 11
26.47500609999999
 21
-19.1500015
 31
0.0
  0
LINE
  5
155
330
1E
100
AcDbEntity
  8
0
 62
     7
100
AcDbLine
 10
3.475006099999999
 20
-19.0500015
 30
0.0
 11
26.47500609999999
 21
-19.0500015
 31
0.0
  0
LINE
  5
156
330
1E
100
AcDbEntity
  8
0
 62
     7
100
AcDbLine
 10
3.475006099999999
 20
-50.9500015
 30
0.0
 11
3.475006099999999
 21
-19.1500015
 31
0.0
  0
LINE
  5
157
330
1E
100
AcDbEntity
  8
0
 62
     7
100
AcDbLine
 10
26.47500609999999
 20
-50.9500015
 30
0.0
 11
26.47500609999999
 21
-19.1500015
 31
0.0
  0
LINE
  5
158
330
1E
100
AcDbEntity
  8
0
 62
     7
100
AcDbLine
 10
20.2750061
 20
-25.5500015
 30
0.0
 11
20.2750061
 21
-22.1500015
 31
0.0
  0
LINE
  5
159
330
1E
100
AcDbEntity
  8
0
 62
     7
100
AcDbLine
 10
11.3750061
 20
-25.5500015
 30
0.0
 11
11.3750061
 21
-22.1500015
 31
0.0
  0
LINE
  5
15A
330
1E
100
AcDbEntity
  8
0
 62
     7
100
AcDbLine
 10
11.4750061
 20
-25.1500015
 30
0.0
 11
11.4750061
 21
-22.4562118
 31
0.0
  0
LINE
  5
15B
330
1E
100
AcDbEntity
  8
0
 62
     7
100
AcDbLine
 10
18.4750061
 20
-25.1500015
 30
0.0
 11
18.4750061
 21
-22.1500015
 31
0.0
  0
LINE
  5
15C
330
1E
100
AcDbEntity
  8
0
 62
     7
100
AcDbLine
 10
14.97500609999999
 20
-22.1500015
 30
0.0
 11
11.4750061
 21
-22.4562118
 31
0.0
  0
LINE
  5
15D
330
1E
100
AcDbEntity
  8
0
 62
     7
100
AcDbLine
 10
4.975006099999999
 20
-19.1500015
 30
0.0
 11
4.975006099999999
 21
-19.0500015
 31
0.0
  0
LINE
  5
15E
330
1E
100
AcDbEntity
  8
0
 62
     7
100
AcDbLine
 10
24.9750061
 20
-19.1500015
 30
0.0
 11
24.9750061
 21
-19.0500015
 31
0.0
  0
ARC
  5
15F
330
1E
100
AcDbEntity
  8
0
 62
     7
100
AcDbCircle
 10
4.475006099999999
 20
-45.6500015
 30
0.0
 40
1.0
100
AcDbArc
 50
180.0
 51
270.0
  0
ARC
  5
160
330
1E
100
AcDbEntity
  8
0
 62
     7
100
AcDbCircle
 10
25.4750061
 20
-45.6500015
 30
0.0
 40
1.0
100
AcDbArc
 50
270.0
 51
0.0
  0
LINE
  5
161
330
1E
100
AcDbEntity
  8
0
 62
     7
100
AcDbLine
 10
18.5750061
 20
-46.6500015
 30
0.0
 11
25.4750061
 21
-46.6500015
 31
0.0
  0
LINE
  5
162
330
1E
100
AcDbEntity
  8
0
 62
     7
100
AcDbLine
 10
3.475006099999999
 20
-19.0500015
 30
0.0
 11
3.475006099999999
 21
-10.8926422
 31
0.0
  0
LINE
  5
163
330
1E
100
AcDbEntity
  8
0
 62
     7
100
AcDbLine
 10
26.47500609999999
 20
-19.0500015
 30
0.0
 11
26.47500609999999
 21
-10.8926422
 31
0.0
  0
ARC
  5
164
330
1E
100
AcDbEntity
  8
0
 62
     7
100
AcDbCircle
 10
23.5371926
 20
-7.71218802
 30
0.0
 40
0.5
100
AcDbArc
 50
0.0
 51
90.00000020000001
  0
LINE
  5
165
330
1E
100
AcDbEntity
  8
0
 62
     7
100
AcDbLine
 10
23.890746
 20
-7.35863463
 30
0.0
 11
25.4980807
 21
-8.965969339999999
 31
0.0
  0
ARC
  5
166
330
1E
100
AcDbEntity
  8
0
 62
     7
100
AcDbCircle
 10
23.37676039999999
 20
-11.0872897
 30
0.0
 40
3.0
100
AcDbArc
 50
0.0
 51
45.0
  0
LINE
  5
167
330
1E
100
AcDbEntity
  8
0
 62
     7
100
AcDbLine
 10
26.3767604
 20
-11.0872897
 30
0.0
 11
26.3767604
 21
-17.1500015
 31
0.0
  0
LINE
  5
168
330
1E
100
AcDbEntity
  8
0
 62
     7
100
AcDbLine
 10
24.0371926
 20
-14.8104338
 30
0.0
 11
17.8257562
 21
-14.8104338
 31
0.0
  0
LINE
  5
169
330
1E
100
AcDbEntity
  8
0
 62
     7
100
AcDbLine
 10
26.3767604
 20
-17.1500015
 30
0.0
 11
24.0371926
 21
-14.8104338
 31
0.0
  0
LINE
  5
16A
330
1E
100
AcDbEntity
  8
0
 62
     7
100
AcDbLine
 10
24.0371926
 20
-7.71218801
 30
0.0
 11
24.0371926
 21
-14.8104338
 31
0.0
  0
LINE
  5
16B
330
1E
100
AcDbEntity
  8
0
 62
     7
100
AcDbLine
 10
23.5371926
 20
-7.21218802
 30
0.0
 11
17.8257562
 21
-7.21218802
 31
0.0
  0
LINE
  5
16C
330
1E
100
AcDbEntity
  8
0
 62
     7
100
AcDbLine
 10
16.47500609999999
 20
-9.65000153
 30
0.0
 11
16.47500609999999
 21
-17.1500015
 31
0.0
  0
LINE
  5
16D
330
1E
100
AcDbEntity
  8
0
 62
     7
100
AcDbLine
 10
16.47500609999999
 20
-9.65000153
 30
0.0
 11
17.8257562
 21
-7.21218802
 31
0.0
  0
LINE
  5
16E
330
1E
100
AcDbEntity
  8
0
 62
     7
100
AcDbLine
 10
17.8257562
 20
-7.21218801
 30
0.0
 11
17.8257562
 21
-14.8104338
 31
0.0
  0
LINE
  5
16F
330
1E
100
AcDbEntity
  8
0
 62
     7
100
AcDbLine
 10
17.8257562
 20
-14.8104338
 30
0.0
 11
16.47500609999999
 21
-17.1500015
 31
0.0
  0
ARC
  5
170
330
1E
100
AcDbEntity
  8
0
 62
     7
100
AcDbCircle
 10
6.57325185
 20
-11.0872897
 30
0.0
 40
3.0
100
AcDbArc
 50
135.0
 51
180.0
  0
LINE
  5
171
330
1E
100
AcDbEntity
  8
0
 62
     7
100
AcDbLine
 10
6.059266219999999
 20
-7.35863463
 30
0.0
 11
4.451931509999999
 21
-8.965969339999999
 31
0.0
  0
LINE
  5
172
330
1E
100
AcDbEntity
  8
0
 62
     7
100
AcDbLine
 10
13.47500609999999
 20
-9.65000153
 30
0.0
 11
12.12425599999999
 21
-7.21218802
 31
0.0
  0
ARC
  5
173
330
1E
100
AcDbEntity
  8
0
 62
     7
100
AcDbCircle
 10
6.412819609999999
 20
-7.71218802
 30
0.0
 40
0.5
100
AcDbArc
 50
90.00000020000001
 51
180.0
  0
LINE
  5
174
330
1E
100
AcDbEntity
  8
0
 62
     7
100
AcDbLine
 10
6.412819609999999
 20
-7.21218802
 30
0.0
 11
12.12425599999999
 21
-7.21218802
 31
0.0
  0
LINE
  5
175
330
1E
100
AcDbEntity
  8
0
 62
     7
100
AcDbLine
 10
13.47500609999999
 20
-9.65000153
 30
0.0
 11
16.47500609999999
 21
-9.65000153
 31
0.0
  0
LINE
  5
176
330
1E
100
AcDbEntity
  8
0
 62
     7
100
AcDbLine
 10
12.12425599999999
 20
-14.8104338
 30
0.0
 11
13.47500609999999
 21
-17.1500015
 31
0.0
  0
LINE
  5
177
330
1E
100
AcDbEntity
  8
0
 62
     7
100
AcDbLine
 10
5.912819609999999
 20
-14.8104338
 30
0.0
 11
12.12425599999999
 21
-14.8104338
 31
0.0
  0
LINE
  5
178
330
1E
100
AcDbEntity
  8
0
 62
     7
100
AcDbLine
 10
3.57325185
 20
-17.1500015
 30
0.0
 11
5.912819609999999
 21
-14.8104338
 31
0.0
  0
LINE
  5
179
330
1E
100
AcDbEntity
  8
0
 62
     7
100
AcDbLine
 10
5.912819609999999
 20
-7.71218801
 30
0.0
 11
5.912819609999999
 21
-14.8104338
 31
0.0
  0
LINE
  5
17A
330
1E
100
AcDbEntity
  8
0
 62
     7
100
AcDbLine
 10
3.57325185
 20
-11.0872897
 30
0.0
 11
3.57325185
 21
-17.1500015
 31
0.0
  0
LINE
  5
17B
330
1E
100
AcDbEntity
  8
0
 62
     7
100
AcDbLine
 10
12.12425599999999
 20
-7.21218801
 30
0.0
 11
12.12425599999999
 21
-14.8104338
 31
0.0
  0
LINE
  5
17C
330
1E
100
AcDbEntity
  8
0
 62
     7
100
AcDbLine
 10
16.47500609999999
 20
-17.1500015
 30
0.0
 11
26.3767604
 21
-17.1500015
 31
0.0
  0
LINE
  5
17D
330
1E
100
AcDbEntity
  8
0
 62
     7
100
AcDbLine
 10
3.57325185
 20
-17.1500015
 30
0.0
 11
13.47500609999999
 21
-17.1500015
 31
0.0
  0
LINE
  5
17E
330
1E
100
AcDbEntity
  8
0
 62
     7
100
AcDbLine
 10
13.47500609999999
 20
-9.65000153
 30
0.0
 11
13.47500609999999
 21
-17.1500015
 31
0.0
  0
ARC
  5
17F
330
1E
100
AcDbEntity
  8
0
 62
     7
100
AcDbCircle
 10
23.4750061
 20
-10.8926422
 30
0.0
 40
3.0
100
AcDbArc
 50
0.0
 51
45.0
  0
ARC
  5
180
330
1E
100
AcDbEntity
  8
0
 62
     7
100
AcDbCircle
 10
21.2323654
 20
-8.65000153
 30
0.0
 40
3.0
100
AcDbArc
 50
45.0
 51
90.00000020000001
  0
ARC
  5
181
330
1E
100
AcDbEntity
  8
0
 62
     7
100
AcDbCircle
 10
8.717646789999999
 20
-8.65000153
 30
0.0
 40
3.0
100
AcDbArc
 50
90.00000020000001
 51
135.0
  0
ARC
  5
182
330
1E
100
AcDbEntity
  8
0
 62
     7
100
AcDbCircle
 10
6.475006099999999
 20
-10.8926422
 30
0.0
 40
3.0
100
AcDbArc
 50
135.0
 51
180.0
  0
LINE
  5
183
330
1E
100
AcDbEntity
  8
0
 62
     7
100
AcDbLine
 10
23.3536858
 20
-6.52868118
 30
0.0
 11
25.5963264
 21
-8.771321869999999
 31
0.0
  0
LINE
  5
184
330
1E
100
AcDbEntity
  8
0
 62
     7
100
AcDbLine
 10
4.35368576
 20
-8.771321869999999
 30
0.0
 11
6.59632645
 21
-6.52868118
 31
0.0
  0
LINE
  5
185
330
1E
100
AcDbEntity
  8
0
 62
     7
100
AcDbLine
 10
8.717646789999999
 20
-5.650001529999999
 30
0.0
 11
21.2323654
 21
-5.650001529999999
 31
0.0
  0
ARC
  5
186
330
1E
100
AcDbEntity
  8
0
  6
PHANTOM
 62
     6
100
AcDbCircle
 10
14.97500609999999
 20
-35.1500015
 30
0.0
 40
8.0
100
AcDbArc
 50
48.5903779
 51
137.518887
  0
ARC
  5
187
330
1E
100
AcDbEntity
  8
0
  6
PHANTOM
 62
     6
100
AcDbCircle
 10
14.97500609999999
 20
-35.1500015
 30
0.0
 40
5.0
100
AcDbArc
 50
36.8698977
 51
143.130102
  0
LINE
  5
188
330
1E
100
AcDbEntity
  8
0
 62
     7
100
AcDbLine
 10
3.475006099999999
 20
-34.1500015
 30
0.0
 11
8.975006099999999
 21
-34.1500015
 31
0.0
  0
LINE
  5
189
330
1E
100
AcDbEntity
  8
0
 62
     7
100
AcDbLine
 10
4.475006099999999
 20
-36.1500015
 30
0.0
 11
4.475006099999999
 21
-34.1500015
 31
0.0
  0
LINE
  5
18A
330
1E
100
AcDbEntity
  8
0
 62
     7
100
AcDbLine
 10
5.6090061
 20
-36.1500015
 30
0.0
 11
5.6090061
 21
-34.1500015
 31
0.0
  0
LINE
  5
18B
330
1E
100
AcDbEntity
  8
0
 62
     7
100
AcDbLine
 10
3.475006099999999
 20
-36.1500015
 30
0.0
 11
6.62220806
 21
-36.1500015
 31
0.0
  0
ARC
  5
18C
330
1E
100
AcDbEntity
  8
0
 62
     7
100
AcDbCircle
 10
11.14064689999999
 20
-35.1500015
 30
0.0
 40
4.9
100
AcDbArc
 50
168.2242559999999
 51
192.479285
  0
LINE
  5
18D
330
1E
100
AcDbEntity
  8
0
 62
     7
100
AcDbLine
 10
6.62220806
 20
-36.1500015
 30
0.0
 11
8.975006099999999
 21
-36.1500015
 31
0.0
  0
ARC
  5
18E
330
1E
100
AcDbEntity
  8
0
 62
     7
100
AcDbCircle
 10
11.14064689999999
 20
-35.1500015
 30
0.0
 40
3.7
100
AcDbArc
 50
164.3196499999999
 51
195.6803499999999
  0
LINE
  5
18F
330
1E
100
AcDbEntity
  8
0
 62
     7
100
AcDbLine
 10
8.975006099999999
 20
-36.1500015
 30
0.0
 11
8.975006099999999
 21
-34.1500015
 31
0.0
  0
LINE
  5
190
330
1E
100
AcDbEntity
  8
0
 62
     7
100
AcDbLine
 10
6.975006099999999
 20
-32.1500015
 30
0.0
 11
10.97500609999999
 21
-32.1500015
 31
0.0
  0
ARC
  5
191
330
1E
100
AcDbEntity
  8
0
 62
     7
100
AcDbCircle
 10
11.14064689999999
 20
-35.1500015
 30
0.0
 40
3.7
100
AcDbArc
 50
90.00000020000001
 51
125.824774
  0
LINE
  5
192
330
1E
100
AcDbEntity
  8
0
 62
     7
100
AcDbLine
 10
11.14064689999999
 20
-31.4500015
 30
0.0
 11
11.6119718
 21
-31.4500015
 31
0.0
  0
LINE
  5
193
330
1E
100
AcDbEntity
  8
0
 62
     7
100
AcDbLine
 10
6.975006099999999
 20
-31.1500015
 30
0.0
 11
11.9750061
 21
-31.1500015
 31
0.0
  0
ARC
  5
194
330
1E
100
AcDbEntity
  8
0
 62
     7
100
AcDbCircle
 10
11.14064689999999
 20
-35.1500015
 30
0.0
 40
4.9
100
AcDbArc
 50
125.281262
 51
142.247999
  0
LINE
  5
195
330
1E
100
AcDbEntity
  8
0
 62
     7
100
AcDbLine
 10
6.975006099999999
 20
-32.1500015
 30
0.0
 11
6.975006099999999
 21
-31.1500015
 31
0.0
  0
LINE
  5
196
330
1E
100
AcDbEntity
  8
0
 62
     7
100
AcDbLine
 10
6.975006099999999
 20
-39.1500015
 30
0.0
 11
6.975006099999999
 21
-38.1500015
 31
0.0
  0
ARC
  5
197
330
1E
100
AcDbEntity
  8
0
 62
     7
100
AcDbCircle
 10
11.14064689999999
 20
-35.1500015
 30
0.0
 40
4.9
100
AcDbArc
 50
217.752002
 51
234.718738
  0
LINE
  5
198
330
1E
100
AcDbEntity
  8
0
 62
     7
100
AcDbLine
 10
6.975006099999999
 20
-38.1500015
 30
0.0
 11
10.97500609999999
 21
-38.1500015
 31
0.0
  0
ARC
  5
199
330
1E
100
AcDbEntity
  8
0
 62
     7
100
AcDbCircle
 10
11.14064689999999
 20
-35.1500015
 30
0.0
 40
3.7
100
AcDbArc
 50
234.175225
 51
270.0
  0
LINE
  5
19A
330
1E
100
AcDbEntity
  8
0
 62
     7
100
AcDbLine
 10
11.14064689999999
 20
-38.8500015
 30
0.0
 11
11.6119718
 21
-38.8500015
 31
0.0
  0
LINE
  5
19B
330
1E
100
AcDbEntity
  8
0
 62
     7
100
AcDbLine
 10
6.975006099999999
 20
-39.1500015
 30
0.0
 11
11.9750061
 21
-39.1500015
 31
0.0
  0
LINE
  5
19C
330
1E
100
AcDbEntity
  8
0
 62
     7
100
AcDbLine
 10
15.47500609999999
 20
-40.6500015
 30
0.0
 11
22.9750061
 21
-40.6500015
 31
0.0
  0
LINE
  5
19D
330
1E
100
AcDbEntity
  8
0
 62
     7
100
AcDbLine
 10
15.47500609999999
 20
-40.6500015
 30
0.0
 11
15.47500609999999
 21
-40.1249387
 31
0.0
  0
LINE
  5
19E
330
1E
100
AcDbEntity
  8
0
 62
     7
100
AcDbLine
 10
15.96999349999999
 20
-40.05000149999999
 30
0.0
 11
18.24064689999999
 21
-40.05000149999999
 31
0.0
  0
LINE
  5
19F
330
1E
100
AcDbEntity
  8
0
 62
     7
100
AcDbLine
 10
18.24064689999999
 20
-40.05000149999999
 30
0.0
 11
18.24064689999999
 21
-38.9362385
 31
0.0
  0
LINE
  5
1A0
330
1E
100
AcDbEntity
  8
0
 62
     7
100
AcDbLine
 10
22.9750061
 20
-40.6500015
 30
0.0
 11
22.9750061
 21
-38.6500015
 31
0.0
  0
LINE
  5
1A1
330
1E
100
AcDbEntity
  8
0
 62
     7
100
AcDbLine
 10
18.54572029999999
 20
-38.6500015
 30
0.0
 11
22.9750061
 21
-38.6500015
 31
0.0
  0
LINE
  5
1A2
330
1E
100
AcDbEntity
  8
0
 62
     7
100
AcDbLine
 10
18.54572029999999
 20
-31.6500015
 30
0.0
 11
22.9750061
 21
-31.6500015
 31
0.0
  0
LINE
  5
1A3
330
1E
100
AcDbEntity
  8
0
 62
     7
100
AcDbLine
 10
22.9750061
 20
-31.6500015
 30
0.0
 11
22.9750061
 21
-29.6500015
 31
0.0
  0
LINE
  5
1A4
330
1E
100
AcDbEntity
  8
0
 62
     7
100
AcDbLine
 10
15.47500609999999
 20
-29.6500015
 30
0.0
 11
22.9750061
 21
-29.6500015
 31
0.0
  0
LINE
  5
1A5
330
1E
100
AcDbEntity
  8
0
 62
     7
100
AcDbLine
 10
18.24064689999999
 20
-31.3637646
 30
0.0
 11
18.24064689999999
 21
-30.2500015
 31
0.0
  0
LINE
  5
1A6
330
1E
100
AcDbEntity
  8
0
 62
     7
100
AcDbLine
 10
15.96999349999999
 20
-30.2500015
 30
0.0
 11
18.24064689999999
 21
-30.2500015
 31
0.0
  0
LINE
  5
1A7
330
1E
100
AcDbEntity
  8
0
 62
     7
100
AcDbLine
 10
15.47500609999999
 20
-30.1750643
 30
0.0
 11
15.47500609999999
 21
-29.6500015
 31
0.0
  0
LINE
  5
1A8
330
1E
100
AcDbEntity
  8
0
 62
     7
100
AcDbLine
 10
26.3767604
 20
-59.2127134
 30
0.0
 11
26.3767604
 21
-53.1500015
 31
0.0
  0
LINE
  5
1A9
330
1E
100
AcDbEntity
  8
0
 62
     7
100
AcDbLine
 10
26.3767604
 20
-53.1500015
 30
0.0
 11
24.0371926
 21
-55.4895693
 31
0.0
  0
LINE
  5
1AA
330
1E
100
AcDbEntity
  8
0
 62
     7
100
AcDbLine
 10
16.47500609999999
 20
-60.6500015
 30
0.0
 11
16.47500609999999
 21
-53.1500015
 31
0.0
  0
LINE
  5
1AB
330
1E
100
AcDbEntity
  8
0
 62
     7
100
AcDbLine
 10
17.8257562
 20
-55.4895693
 30
0.0
 11
16.47500609999999
 21
-53.1500015
 31
0.0
  0
LINE
  5
1AC
330
1E
100
AcDbEntity
  8
0
 62
     7
100
AcDbLine
 10
12.12425599999999
 20
-55.4895693
 30
0.0
 11
13.47500609999999
 21
-53.1500015
 31
0.0
  0
LINE
  5
1AD
330
1E
100
AcDbEntity
  8
0
 62
     7
100
AcDbLine
 10
3.57325185
 20
-53.1500015
 30
0.0
 11
5.912819609999999
 21
-55.4895693
 31
0.0
  0
LINE
  5
1AE
330
1E
100
AcDbEntity
  8
0
 62
     7
100
AcDbLine
 10
3.57325185
 20
-59.2127134
 30
0.0
 11
3.57325185
 21
-53.1500015
 31
0.0
  0
LINE
  5
1AF
330
1E
100
AcDbEntity
  8
0
 62
     7
100
AcDbLine
 10
13.47500609999999
 20
-60.6500015
 30
0.0
 11
13.47500609999999
 21
-53.1500015
 31
0.0
  0
LINE
  5
1B0
330
1E
100
AcDbEntity
  8
0
 62
     7
100
AcDbLine
 10
26.47500609999999
 20
-51.4500015
 30
0.0
 11
26.47500609999999
 21
-59.4073608
 31
0.0
  0
LINE
  5
1B1
330
1E
100
AcDbEntity
  8
0
 62
     7
100
AcDbLine
 10
3.475006099999999
 20
-51.4500015
 30
0.0
 11
3.475006099999999
 21
-59.4073608
 31
0.0
  0
LINE
  5
1B2
330
1E
100
AcDbEntity
  8
0
  6
CENTER
 62
     2
100
AcDbLine
 10
14.97500609999999
 20
-66.7774425
 30
0.0
 11
14.97500609999999
 21
-4.57437464
 31
0.0
  0
LINE
  5
1B3
330
1E
100
AcDbEntity
  8
0
  6
CENTER
 62
     2
100
AcDbLine
 10
-86.0806301
 20
29.84999849999999
 30
0.0
 11
-33.94174249999999
 21
29.84999849999999
 31
0.0
  0
LINE
  5
1B4
330
1E
100
AcDbEntity
  8
0
 62
     7
100
AcDbLine
 10
-74.0249939
 20
41.34999849999999
 30
0.0
 11
-46.0249939
 21
41.34999849999999
 31
0.0
  0
LINE
  5
1B5
330
1E
100
AcDbEntity
  8
0
 62
     7
100
AcDbLine
 10
-74.0249939
 20
18.34999849999999
 30
0.0
 11
-46.0249939
 21
18.34999849999999
 31
0.0
  0
LINE
  5
1B6
330
1E
100
AcDbEntity
  8
0
 62
     7
100
AcDbLine
 10
-75.0249939
 20
19.34999849999999
 30
0.0
 11
-75.0249939
 21
40.3499985
 31
0.0
  0
LINE
  5
1B7
330
1E
100
AcDbEntity
  8
0
 62
     7
100
AcDbLine
 10
-45.02499389999999
 20
19.34999849999999
 30
0.0
 11
-45.02499389999999
 21
40.3499985
 31
0.0
  0
ARC
  5
1B8
330
1E
100
AcDbEntity
  8
0
 62
     7
100
AcDbCircle
 10
-74.0249939
 20
19.34999849999999
 30
0.0
 40
1.0
100
AcDbArc
 50
180.0
 51
270.0
  0
ARC
  5
1B9
330
1E
100
AcDbEntity
  8
0
 62
     7
100
AcDbCircle
 10
-46.0249939
 20
40.3499985
 30
0.0
 40
1.0
100
AcDbArc
 50
0.0
 51
90.00000020000001
  0
ARC
  5
1BA
330
1E
100
AcDbEntity
  8
0
 62
     7
100
AcDbCircle
 10
-46.0249939
 20
19.34999849999999
 30
0.0
 40
1.0
100
AcDbArc
 50
270.0
 51
0.0
  0
ARC
  5
1BB
330
1E
100
AcDbEntity
  8
0
 62
     7
100
AcDbCircle
 10
-74.0249939
 20
40.3499985
 30
0.0
 40
1.0
100
AcDbArc
 50
90.00000020000001
 51
180.0
  0
LINE
  5
1BC
330
1E
100
AcDbEntity
  8
0
  6
CENTER
 62
     2
100
AcDbLine
 10
-60.0249939
 20
16.8828212
 30
0.0
 11
-60.0249939
 21
42.4860666
 31
0.0
  0
LINE
  5
1BD
330
1E
100
AcDbEntity
  8
0
 62
     7
100
AcDbLine
 10
-38.4178142
 20
34.7999985
 30
0.0
 11
-45.02499389999999
 21
34.7999985
 31
0.0
  0
LINE
  5
1BE
330
1E
100
AcDbEntity
  8
0
 62
     7
100
AcDbLine
 10
-37.7249939
 20
34.39999849999999
 30
0.0
 11
-38.4178142
 21
34.7999985
 31
0.0
  0
LINE
  5
1BF
330
1E
100
AcDbEntity
  8
0
 62
     7
100
AcDbLine
 10
-38.4178142
 20
24.8999985
 30
0.0
 11
-45.02499389999999
 21
24.8999985
 31
0.0
  0
LINE
  5
1C0
330
1E
100
AcDbEntity
  8
0
 62
     7
100
AcDbLine
 10
-37.7249939
 20
25.29999849999999
 30
0.0
 11
-38.4178142
 21
24.8999985
 31
0.0
  0
LINE
  5
1C1
330
1E
100
AcDbEntity
  8
0
 62
     7
100
AcDbLine
 10
-37.7249939
 20
34.39999849999999
 30
0.0
 11
-37.7249939
 21
25.29999849999999
 31
0.0
  0
LINE
  5
1C2
330
1E
100
AcDbEntity
  8
0
 62
     7
100
AcDbLine
 10
-37.1249939
 20
33.8839731
 30
0.0
 11
-37.1249939
 21
25.8160239
 31
0.0
  0
LINE
  5
1C3
330
1E
100
AcDbEntity
  8
0
 62
     7
100
AcDbLine
 10
-36.6249939
 20
34.74999849999999
 30
0.0
 11
-36.6249939
 21
24.9499985
 31
0.0
  0
LINE
  5
1C4
330
1E
100
AcDbEntity
  8
0
 62
     7
100
AcDbLine
 10
-35.6249939
 20
25.1499985
 30
0.0
 11
-35.6249939
 21
34.5499985
 31
0.0
  0
LINE
  5
1C5
330
1E
100
AcDbEntity
  8
0
  6
DASHED
 62
     2
100
AcDbLine
 10
-35.6249939
 20
32.8499985
 30
0.0
 11
-38.7249939
 21
32.8499985
 31
0.0
  0
ARC
  5
1C6
330
1E
100
AcDbEntity
  8
0
 62
     7
100
AcDbCircle
 10
-35.8249939
 20
34.5499985
 30
0.0
 40
0.2
100
AcDbArc
 50
0.0
 51
90.00000020000001
  0
LINE
  5
1C7
330
1E
100
AcDbEntity
  8
0
 62
     7
100
AcDbLine
 10
-35.8249939
 20
34.74999849999999
 30
0.0
 11
-36.6249939
 21
34.74999849999999
 31
0.0
  0
LINE
  5
1C8
330
1E
100
AcDbEntity
  8
0
 62
     7
100
AcDbLine
 10
-36.6249939
 20
34.74999849999999
 30
0.0
 11
-37.1249939
 21
33.8839731
 31
0.0
  0
LINE
  5
1C9
330
1E
100
AcDbEntity
  8
0
 62
     7
100
AcDbLine
 10
-37.1249939
 20
33.34999849999999
 30
0.0
 11
-37.7249939
 21
33.34999849999999
 31
0.0
  0
LINE
  5
1CA
330
1E
100
AcDbEntity
  8
0
  6
DASHED
 62
     2
100
AcDbLine
 10
-35.6249939
 20
26.8499985
 30
0.0
 11
-38.7249939
 21
26.8499985
 31
0.0
  0
ARC
  5
1CB
330
1E
100
AcDbEntity
  8
0
 62
     7
100
AcDbCircle
 10
-35.8249939
 20
25.1499985
 30
0.0
 40
0.2
100
AcDbArc
 50
270.0
 51
0.0
  0
LINE
  5
1CC
330
1E
100
AcDbEntity
  8
0
 62
     7
100
AcDbLine
 10
-37.1249939
 20
26.34999849999999
 30
0.0
 11
-37.7249939
 21
26.34999849999999
 31
0.0
  0
LINE
  5
1CD
330
1E
100
AcDbEntity
  8
0
 62
     7
100
AcDbLine
 10
-36.6249939
 20
24.9499985
 30
0.0
 11
-37.1249939
 21
25.8160239
 31
0.0
  0
LINE
  5
1CE
330
1E
100
AcDbEntity
  8
0
 62
     7
100
AcDbLine
 10
-35.8249939
 20
24.9499985
 30
0.0
 11
-36.6249939
 21
24.9499985
 31
0.0
  0
LINE
  5
1CF
330
1E
100
AcDbEntity
  8
0
  6
DASHED
 62
     2
100
AcDbLine
 10
-84.4249939
 20
32.8499985
 30
0.0
 11
-81.32499389999999
 21
32.8499985
 31
0.0
  0
LINE
  5
1D0
330
1E
100
AcDbEntity
  8
0
 62
     7
100
AcDbLine
 10
-82.32499389999999
 20
34.39999849999999
 30
0.0
 11
-81.63217359999999
 21
34.7999985
 31
0.0
  0
LINE
  5
1D1
330
1E
100
AcDbEntity
  8
0
 62
     7
100
AcDbLine
 10
-84.4249939
 20
25.1499985
 30
0.0
 11
-84.4249939
 21
34.5499985
 31
0.0
  0
LINE
  5
1D2
330
1E
100
AcDbEntity
  8
0
 62
     7
100
AcDbLine
 10
-83.4249939
 20
34.74999849999999
 30
0.0
 11
-83.4249939
 21
24.9499985
 31
0.0
  0
LINE
  5
1D3
330
1E
100
AcDbEntity
  8
0
 62
     7
100
AcDbLine
 10
-82.92499390000001
 20
33.8839731
 30
0.0
 11
-82.92499390000001
 21
25.8160239
 31
0.0
  0
LINE
  5
1D4
330
1E
100
AcDbEntity
  8
0
 62
     7
100
AcDbLine
 10
-82.32499389999999
 20
34.39999849999999
 30
0.0
 11
-82.32499389999999
 21
25.29999849999999
 31
0.0
  0
LINE
  5
1D5
330
1E
100
AcDbEntity
  8
0
 62
     7
100
AcDbLine
 10
-82.92499390000001
 20
33.34999849999999
 30
0.0
 11
-82.32499389999999
 21
33.34999849999999
 31
0.0
  0
LINE
  5
1D6
330
1E
100
AcDbEntity
  8
0
 62
     7
100
AcDbLine
 10
-83.4249939
 20
34.74999849999999
 30
0.0
 11
-82.92499390000001
 21
33.8839731
 31
0.0
  0
LINE
  5
1D7
330
1E
100
AcDbEntity
  8
0
 62
     7
100
AcDbLine
 10
-84.2249939
 20
34.74999849999999
 30
0.0
 11
-83.4249939
 21
34.74999849999999
 31
0.0
  0
ARC
  5
1D8
330
1E
100
AcDbEntity
  8
0
 62
     7
100
AcDbCircle
 10
-84.2249939
 20
34.5499985
 30
0.0
 40
0.2
100
AcDbArc
 50
90.00000020000001
 51
180.0
  0
LINE
  5
1D9
330
1E
100
AcDbEntity
  8
0
  6
DASHED
 62
     2
100
AcDbLine
 10
-84.4249939
 20
26.8499985
 30
0.0
 11
-81.32499389999999
 21
26.8499985
 31
0.0
  0
LINE
  5
1DA
330
1E
100
AcDbEntity
  8
0
 62
     7
100
AcDbLine
 10
-82.32499389999999
 20
25.29999849999999
 30
0.0
 11
-81.63217359999999
 21
24.8999985
 31
0.0
  0
LINE
  5
1DB
330
1E
100
AcDbEntity
  8
0
 62
     7
100
AcDbLine
 10
-84.2249939
 20
24.9499985
 30
0.0
 11
-83.4249939
 21
24.9499985
 31
0.0
  0
LINE
  5
1DC
330
1E
100
AcDbEntity
  8
0
 62
     7
100
AcDbLine
 10
-83.4249939
 20
24.9499985
 30
0.0
 11
-82.92499390000001
 21
25.8160239
 31
0.0
  0
LINE
  5
1DD
330
1E
100
AcDbEntity
  8
0
 62
     7
100
AcDbLine
 10
-82.92499390000001
 20
26.34999849999999
 30
0.0
 11
-82.32499389999999
 21
26.34999849999999
 31
0.0
  0
ARC
  5
1DE
330
1E
100
AcDbEntity
  8
0
 62
     7
100
AcDbCircle
 10
-84.2249939
 20
25.1499985
 30
0.0
 40
0.2
100
AcDbArc
 50
180.0
 51
270.0
  0
LINE
  5
1DF
330
1E
100
AcDbEntity
  8
0
 62
     7
100
AcDbLine
 10
-81.63217359999999
 20
24.8999985
 30
0.0
 11
-75.0249939
 21
24.8999985
 31
0.0
  0
LINE
  5
1E0
330
1E
100
AcDbEntity
  8
0
 62
     7
100
AcDbLine
 10
-81.63217359999999
 20
34.7999985
 30
0.0
 11
-75.0249939
 21
34.7999985
 31
0.0
  0
LINE
  5
1E1
330
1E
100
AcDbEntity
  8
0
  6
PHANTOM
 62
     6
100
AcDbLine
 10
-82.02499389999999
 20
50.84999849999999
 30
0.0
 11
-38.02499389999999
 21
50.84999849999999
 31
0.0
  0
LINE
  5
1E2
330
1E
100
AcDbEntity
  8
0
  6
PHANTOM
 62
     6
100
AcDbLine
 10
-82.02499389999999
 20
23.9499985
 30
0.0
 11
-82.02499389999999
 21
50.84999849999999
 31
0.0
  0
LINE
  5
1E3
330
1E
100
AcDbEntity
  8
0
  6
PHANTOM
 62
     6
100
AcDbLine
 10
-38.02499389999999
 20
23.9499985
 30
0.0
 11
-38.02499389999999
 21
50.84999849999999
 31
0.0
  0
LINE
  5
1E4
330
1E
100
AcDbEntity
  8
0
  6
PHANTOM
 62
     6
100
AcDbLine
 10
-82.02499389999999
 20
23.9499985
 30
0.0
 11
-75.0249939
 21
23.9499985
 31
0.0
  0
LINE
  5
1E5
330
1E
100
AcDbEntity
  8
0
  6
PHANTOM
 62
     6
100
AcDbLine
 10
-45.02499389999999
 20
23.9499985
 30
0.0
 11
-38.02499389999999
 21
23.9499985
 31
0.0
  0
LINE
  5
1E6
330
1E
100
AcDbEntity
  8
0
  6
PHANTOM
 62
     6
100
AcDbLine
 10
-48.5249939
 20
41.4499985
 30
0.0
 11
-48.5249939
 21
50.84999849999999
 31
0.0
  0
LINE
  5
1E7
330
1E
100
AcDbEntity
  8
0
  6
PHANTOM
 62
     6
100
AcDbLine
 10
-71.5249939
 20
41.4499985
 30
0.0
 11
-71.5249939
 21
50.84999849999999
 31
0.0
  0
LINE
  5
1E8
330
1E
100
AcDbEntity
  8
0
  6
PHANTOM
 62
     6
100
AcDbLine
 10
-71.5249939
 20
47.8499985
 30
0.0
 11
-48.5249939
 21
47.8499985
 31
0.0
  0
LINE
  5
1E9
330
1E
100
AcDbEntity
  8
0
  6
PHANTOM
 62
     6
100
AcDbLine
 10
-75.0249939
 20
41.4499985
 30
0.0
 11
-71.5249939
 21
41.4499985
 31
0.0
  0
LINE
  5
1EA
330
1E
100
AcDbEntity
  8
0
  6
PHANTOM
 62
     6
100
AcDbLine
 10
-48.5249939
 20
41.4499985
 30
0.0
 11
-45.02499389999999
 21
41.4499985
 31
0.0
  0
LINE
  5
1EB
330
1E
100
AcDbEntity
  8
0
  6
PHANTOM
 62
     6
100
AcDbLine
 10
-45.02499389999999
 20
40.3499985
 30
0.0
 11
-45.02499389999999
 21
41.4499985
 31
0.0
  0
LINE
  5
1EC
330
1E
100
AcDbEntity
  8
0
  6
PHANTOM
 62
     6
100
AcDbLine
 10
-75.0249939
 20
40.3499985
 30
0.0
 11
-75.0249939
 21
41.4499985
 31
0.0
  0
LINE
  5
1ED
330
1E
100
AcDbEntity
  8
0
 62
     7
100
AcDbLine
 10
-48.5249939
 20
35.14999849999999
 30
0.0
 11
-45.02499389999999
 21
35.14999849999999
 31
0.0
  0
LINE
  5
1EE
330
1E
100
AcDbEntity
  8
0
 62
     7
100
AcDbLine
 10
-48.5249939
 20
26.2499985
 30
0.0
 11
-45.02499389999999
 21
26.2499985
 31
0.0
  0
LINE
  5
1EF
330
1E
100
AcDbEntity
  8
0
 62
     7
100
AcDbLine
 10
-71.5249939
 20
33.4499985
 30
0.0
 11
-75.0249939
 21
33.4499985
 31
0.0
  0
LINE
  5
1F0
330
1E
100
AcDbEntity
  8
0
 62
     7
100
AcDbLine
 10
-71.5249939
 20
24.5499985
 30
0.0
 11
-75.0249939
 21
24.5499985
 31
0.0
  0
ARC
  5
1F1
330
1E
100
AcDbEntity
  8
0
 62
     7
100
AcDbCircle
 10
-70.4874084
 20
30.737626
 30
0.0
 40
1.0
100
AcDbArc
 50
119.9999999999999
 51
175.150659
  0
ARC
  5
1F2
330
1E
100
AcDbEntity
  8
0
 62
     7
100
AcDbCircle
 10
-70.4874084
 20
28.962371
 30
0.0
 40
1.0
100
AcDbArc
 50
184.8493409999999
 51
239.9999999999999
  0
ARC
  5
1F3
330
1E
100
AcDbEntity
  8
0
 62
     7
100
AcDbCircle
 10
-60.91262140000001
 20
19.387584
 30
0.0
 40
1.0
100
AcDbArc
 50
210.0
 51
265.1506589999999
  0
ARC
  5
1F4
330
1E
100
AcDbEntity
  8
0
 62
     7
100
AcDbCircle
 10
-59.13736639999999
 20
19.387584
 30
0.0
 40
1.0
100
AcDbArc
 50
274.849341
 51
330.0
  0
ARC
  5
1F5
330
1E
100
AcDbEntity
  8
0
 62
     7
100
AcDbCircle
 10
-49.5625794
 20
28.962371
 30
0.0
 40
1.0
100
AcDbArc
 50
300.0
 51
355.1506589999999
  0
ARC
  5
1F6
330
1E
100
AcDbEntity
  8
0
 62
     7
100
AcDbCircle
 10
-49.5625794
 20
30.737626
 30
0.0
 40
1.0
100
AcDbArc
 50
4.84934093
 51
59.9999999
  0
ARC
  5
1F7
330
1E
100
AcDbEntity
  8
0
 62
     7
100
AcDbCircle
 10
-59.13736639999999
 20
40.312413
 30
0.0
 40
1.0
100
AcDbArc
 50
30.0
 51
85.15065899999999
  0
ARC
  5
1F8
330
1E
100
AcDbEntity
  8
0
 62
     7
100
AcDbCircle
 10
-60.91262140000001
 20
40.312413
 30
0.0
 40
1.0
100
AcDbArc
 50
94.8493408
 51
150.0
  0
ARC
  5
1F9
330
1E
100
AcDbEntity
  8
0
 62
     7
100
AcDbCircle
 10
-69.91464740000001
 20
33.3777108
 30
0.0
 40
1.0
100
AcDbArc
 50
300.0
 51
340.368308
  0
ARC
  5
1FA
330
1E
100
AcDbEntity
  8
0
 62
     7
100
AcDbCircle
 10
-69.91464740000001
 20
26.3222861
 30
0.0
 40
1.0
100
AcDbArc
 50
19.6316923
 51
59.9999999
  0
ARC
  5
1FB
330
1E
100
AcDbEntity
  8
0
 62
     7
100
AcDbCircle
 10
-63.5527062
 20
19.960345
 30
0.0
 40
1.0
100
AcDbArc
 50
30.0
 51
70.36830779999999
  0
ARC
  5
1FC
330
1E
100
AcDbEntity
  8
0
 62
     7
100
AcDbCircle
 10
-56.4972816
 20
19.960345
 30
0.0
 40
1.0
100
AcDbArc
 50
109.6316919999999
 51
150.0
  0
ARC
  5
1FD
330
1E
100
AcDbEntity
  8
0
 62
     7
100
AcDbCircle
 10
-50.13534039999999
 20
26.3222861
 30
0.0
 40
1.0
100
AcDbArc
 50
119.9999999999999
 51
160.368308
  0
ARC
  5
1FE
330
1E
100
AcDbEntity
  8
0
 62
     7
100
AcDbCircle
 10
-50.13534039999999
 20
33.3777108
 30
0.0
 40
1.0
100
AcDbArc
 50
199.631692
 51
239.9999999999999
  0
ARC
  5
1FF
330
1E
100
AcDbEntity
  8
0
 62
     7
100
AcDbCircle
 10
-56.4972816
 20
39.73965189999999
 30
0.0
 40
1.0
100
AcDbArc
 50
210.0
 51
250.368308
  0
ARC
  5
200
330
1E
100
AcDbEntity
  8
0
 62
     7
100
AcDbCircle
 10
-63.5527062
 20
39.73965189999999
 30
0.0
 40
1.0
100
AcDbArc
 50
289.6316919999999
 51
330.0
  0
LINE
  5
201
330
1E
100
AcDbEntity
  8
0
 62
     7
100
AcDbLine
 10
-48.5249939
 20
38.34999849999999
 30
0.0
 11
-48.5249939
 21
21.34999849999999
 31
0.0
  0
LINE
  5
202
330
1E
100
AcDbEntity
  8
0
 62
     7
100
AcDbLine
 10
-71.5249939
 20
38.34999849999999
 30
0.0
 11
-71.5249939
 21
21.34999849999999
 31
0.0
  0
ARC
  5
203
330
1E
100
AcDbEntity
  8
0
 62
     7
100
AcDbCircle
 10
-51.5249939
 20
38.34999849999999
 30
0.0
 40
3.0
100
AcDbArc
 50
0.0
 51
90.00000020000001
  0
ARC
  5
204
330
1E
100
AcDbEntity
  8
0
 62
     7
100
AcDbCircle
 10
-51.5249939
 20
21.34999849999999
 30
0.0
 40
3.0
100
AcDbArc
 50
270.0
 51
0.0
  0
ARC
  5
205
330
1E
100
AcDbEntity
  8
0
 62
     7
100
AcDbCircle
 10
-68.5249939
 20
21.34999849999999
 30
0.0
 40
3.0
100
AcDbArc
 50
180.0
 51
270.0
  0
ARC
  5
206
330
1E
100
AcDbEntity
  8
0
 62
     7
100
AcDbCircle
 10
-68.5249939
 20
38.34999849999999
 30
0.0
 40
3.0
100
AcDbArc
 50
90.00000020000001
 51
180.0
  0
CIRCLE
  5
207
330
1E
100
AcDbEntity
  8
0
 62
     7
100
AcDbCircle
 10
-60.0249939
 20
29.84999849999999
 30
0.0
 40
9.5
  0
CIRCLE
  5
208
330
1E
100
AcDbEntity
  8
0
 62
     7
100
AcDbCircle
 10
-60.0249939
 20
29.84999849999999
 30
0.0
 40
11.5
  0
LINE
  5
209
330
1E
100
AcDbEntity
  8
0
 62
     7
100
AcDbLine
 10
-58.27134100000001
 20
40.812413
 30
0.0
 11
-57.36330699999999
 21
39.2396519
 31
0.0
  0
LINE
  5
20A
330
1E
100
AcDbEntity
  8
0
 62
     7
100
AcDbLine
 10
-61.77864679999999
 20
18.887584
 30
0.0
 11
-62.6866808
 21
20.460345
 31
0.0
  0
LINE
  5
20B
330
1E
100
AcDbEntity
  8
0
 62
     7
100
AcDbLine
 10
-58.27134100000001
 20
18.887584
 30
0.0
 11
-57.36330699999999
 21
20.460345
 31
0.0
  0
LINE
  5
20C
330
1E
100
AcDbEntity
  8
0
 62
     7
100
AcDbLine
 10
-61.77864679999999
 20
40.812413
 30
0.0
 11
-62.6866808
 21
39.2396519
 31
0.0
  0
LINE
  5
20D
330
1E
100
AcDbEntity
  8
0
 62
     7
100
AcDbLine
 10
-49.06257939999999
 20
31.60365139999999
 30
0.0
 11
-50.6353404
 21
32.5116854
 31
0.0
  0
LINE
  5
20E
330
1E
100
AcDbEntity
  8
0
 62
     7
100
AcDbLine
 10
-49.06257939999999
 20
28.0963456
 30
0.0
 11
-50.6353404
 21
27.18831149999999
 31
0.0
  0
LINE
  5
20F
330
1E
100
AcDbEntity
  8
0
 62
     7
100
AcDbLine
 10
-70.98740840000001
 20
28.0963456
 30
0.0
 11
-69.4146474
 21
27.18831149999999
 31
0.0
  0
LINE
  5
210
330
1E
100
AcDbEntity
  8
0
 62
     7
100
AcDbLine
 10
-71.42674809999999
 20
31.34999849999999
 30
0.0
 11
-69.0871804
 21
32.70074849999999
 31
0.0
  0
CIRCLE
  5
211
330
1E
100
AcDbEntity
  8
0
 62
     7
100
AcDbCircle
 10
-60.0249939
 20
29.84999849999999
 30
0.0
 40
7.5
  0
LINE
  5
212
330
1E
100
AcDbEntity
  8
0
 62
     7
100
AcDbLine
 10
-71.42674809999999
 20
28.34999849999999
 30
0.0
 11
-69.0871804
 21
26.99924839999999
 31
0.0
  0
LINE
  5
213
330
1E
100
AcDbEntity
  8
0
 62
     7
100
AcDbLine
 10
-70.98740840000001
 20
31.60365139999999
 30
0.0
 11
-69.4146474
 21
32.5116854
 31
0.0
  0
LINE
  5
214
330
1E
100
AcDbEntity
  8
0
  6
DASHED
 62
     2
100
AcDbLine
 10
-75.0249939
 20
30.84999849999999
 30
0.0
 11
-71.5249939
 21
29.84999849999999
 31
0.0
  0
LINE
  5
215
330
1E
100
AcDbEntity
  8
0
  6
DASHED
 62
     2
100
AcDbLine
 10
-75.0249939
 20
28.84999849999999
 30
0.0
 11
-71.5249939
 21
29.84999849999999
 31
0.0
  0
LINE
  5
216
330
1E
100
AcDbEntity
  8
0
 62
     7
100
AcDbLine
 10
-67.9999939
 20
94.50000000000001
 30
0.0
 11
-67.9999939
 21
84.50000000000001
 31
0.0
  0
LINE
  5
217
330
1E
100
AcDbEntity
  8
0
 62
     7
100
AcDbLine
 10
-138.399994
 20
84.50000000000001
 30
0.0
 11
-67.9999939
 21
84.50000000000001
 31
0.0
  0
TEXT
  5
218
330
1E
100
AcDbEntity
  8
0
 62
     7
100
AcDbText
 10
-136.3428499999999
 20
87.90000009999999
 30
0.0
 40
3.19999981
  1
SMALL-SIZED FR SERIES
 41
1.06060606
  7
MONOTXT
100
AcDbText
  0
LINE
  5
219
330
1E
100
AcDbEntity
  8
0
  6
CENTER
 62
     6
100
AcDbLine
 10
72.90026109999999
 20
-35.1500015
 30
0.0
 11
123.4436059999999
 21
-35.1500015
 31
0.0
  0
LINE
  5
21A
330
1E
100
AcDbEntity
  8
0
 62
     4
100
AcDbLine
 10
82.9750061
 20
-41.1500015
 30
0.0
 11
82.9750061
 21
-43.1500015
 31
0.0
  0
LINE
  5
21B
330
1E
100
AcDbEntity
  8
0
 62
     4
100
AcDbLine
 10
86.47500609999999
 20
-41.1500015
 30
0.0
 11
86.47500609999999
 21
-43.1500015
 31
0.0
  0
LINE
  5
21C
330
1E
100
AcDbEntity
  8
0
 62
     4
100
AcDbLine
 10
112.975006
 20
-41.1500015
 30
0.0
 11
112.975006
 21
-43.1500015
 31
0.0
  0
LINE
  5
21D
330
1E
100
AcDbEntity
  8
0
 62
     4
100
AcDbLine
 10
109.475006
 20
-41.1500015
 30
0.0
 11
109.475006
 21
-43.1500015
 31
0.0
  0
LINE
  5
21E
330
1E
100
AcDbEntity
  8
0
  6
DASHED
 62
     6
100
AcDbLine
 10
112.975006
 20
-29.1500015
 30
0.0
 11
112.975006
 21
-32.1500015
 31
0.0
  0
LINE
  5
21F
330
1E
100
AcDbEntity
  8
0
  6
DASHED
 62
     6
100
AcDbLine
 10
109.475006
 20
-29.1500015
 30
0.0
 11
109.475006
 21
-32.1500015
 31
0.0
  0
LINE
  5
220
330
1E
100
AcDbEntity
  8
0
  6
DASHED
 62
     6
100
AcDbLine
 10
86.47500609999999
 20
-29.1500015
 30
0.0
 11
86.47500609999999
 21
-32.1500015
 31
0.0
  0
LINE
  5
221
330
1E
100
AcDbEntity
  8
0
  6
DASHED
 62
     6
100
AcDbLine
 10
82.9750061
 20
-29.1500015
 30
0.0
 11
82.9750061
 21
-32.1500015
 31
0.0
  0
LINE
  5
222
330
1E
100
AcDbEntity
  8
0
 62
     4
100
AcDbLine
 10
75.9750061
 20
-27.1500015
 30
0.0
 11
82.9750061
 21
-27.1500015
 31
0.0
  0
LINE
  5
223
330
1E
100
AcDbEntity
  8
0
 62
     4
100
AcDbLine
 10
75.9750061
 20
-43.1500015
 30
0.0
 11
82.9750061
 21
-43.1500015
 31
0.0
  0
LINE
  5
224
330
1E
100
AcDbEntity
  8
0
 62
     4
100
AcDbLine
 10
75.9750061
 20
-27.1500015
 30
0.0
 11
75.9750061
 21
-43.1500015
 31
0.0
  0
LINE
  5
225
330
1E
100
AcDbEntity
  8
0
 62
     4
100
AcDbLine
 10
119.975006
 20
-27.1500015
 30
0.0
 11
119.975006
 21
-43.1500015
 31
0.0
  0
LINE
  5
226
330
1E
100
AcDbEntity
  8
0
 62
     4
100
AcDbLine
 10
112.975006
 20
-27.1500015
 30
0.0
 11
112.975006
 21
-29.1500015
 31
0.0
  0
LINE
  5
227
330
1E
100
AcDbEntity
  8
0
 62
     4
100
AcDbLine
 10
82.9750061
 20
-27.1500015
 30
0.0
 11
82.9750061
 21
-29.1500015
 31
0.0
  0
LINE
  5
228
330
1E
100
AcDbEntity
  8
0
 62
     4
100
AcDbLine
 10
86.47500609999999
 20
-27.1500015
 30
0.0
 11
86.47500609999999
 21
-29.1500015
 31
0.0
  0
LINE
  5
229
330
1E
100
AcDbEntity
  8
0
 62
     4
100
AcDbLine
 10
109.475006
 20
-27.1500015
 30
0.0
 11
109.475006
 21
-29.1500015
 31
0.0
  0
LINE
  5
22A
330
1E
100
AcDbEntity
  8
0
 62
     4
100
AcDbLine
 10
82.9750061
 20
-29.1500015
 30
0.0
 11
86.47500609999999
 21
-29.1500015
 31
0.0
  0
LINE
  5
22B
330
1E
100
AcDbEntity
  8
0
 62
     4
100
AcDbLine
 10
82.9750061
 20
-41.1500015
 30
0.0
 11
86.47500609999999
 21
-41.1500015
 31
0.0
  0
LINE
  5
22C
330
1E
100
AcDbEntity
  8
0
  6
DASHED
 62
     6
100
AcDbLine
 10
75.9750061
 20
-32.1500015
 30
0.0
 11
86.47500609999999
 21
-32.1500015
 31
0.0
  0
LINE
  5
22D
330
1E
100
AcDbEntity
  8
0
  6
DASHED
 62
     6
100
AcDbLine
 10
75.9750061
 20
-38.1500015
 30
0.0
 11
86.47500609999999
 21
-38.1500015
 31
0.0
  0
LINE
  5
22E
330
1E
100
AcDbEntity
  8
0
 62
     4
100
AcDbLine
 10
109.475006
 20
-29.1500015
 30
0.0
 11
112.975006
 21
-29.1500015
 31
0.0
  0
LINE
  5
22F
330
1E
100
AcDbEntity
  8
0
  6
DASHED
 62
     6
100
AcDbLine
 10
109.475006
 20
-32.1500015
 30
0.0
 11
119.975006
 21
-32.1500015
 31
0.0
  0
LINE
  5
230
330
1E
100
AcDbEntity
  8
0
  6
DASHED
 62
     6
100
AcDbLine
 10
109.475006
 20
-38.1500015
 30
0.0
 11
119.975006
 21
-38.1500015
 31
0.0
  0
LINE
  5
231
330
1E
100
AcDbEntity
  8
0
 62
     4
100
AcDbLine
 10
109.475006
 20
-41.1500015
 30
0.0
 11
112.975006
 21
-41.1500015
 31
0.0
  0
LINE
  5
232
330
1E
100
AcDbEntity
  8
0
  6
CENTER
 62
     6
100
AcDbLine
 10
82.9750061
 20
-38.7082205
 30
0.0
 11
82.9750061
 21
-31.050138
 31
0.0
  0
LINE
  5
233
330
1E
100
AcDbEntity
  8
0
  6
CENTER
 62
     6
100
AcDbLine
 10
112.975006
 20
-38.8613822
 30
0.0
 11
112.975006
 21
-31.50962299999999
 31
0.0
  0
LINE
  5
234
330
1E
100
AcDbEntity
  8
0
  6
DASHED
 62
     6
100
AcDbLine
 10
86.47500609999999
 20
-38.1500015
 30
0.0
 11
86.47500609999999
 21
-41.1500015
 31
0.0
  0
LINE
  5
235
330
1E
100
AcDbEntity
  8
0
  6
DASHED
 62
     6
100
AcDbLine
 10
109.475006
 20
-38.1500015
 30
0.0
 11
109.475006
 21
-41.1500015
 31
0.0
  0
CIRCLE
  5
236
330
1E
100
AcDbEntity
  8
0
 62
     4
100
AcDbCircle
 10
82.9750061
 20
-35.1500015
 30
0.0
 40
1.75
  0
CIRCLE
  5
237
330
1E
100
AcDbEntity
  8
0
 62
     4
100
AcDbCircle
 10
112.975006
 20
-35.1500015
 30
0.0
 40
1.75
  0
LINE
  5
238
330
1E
100
AcDbEntity
  8
0
  6
DASHED
 62
     6
100
AcDbLine
 10
82.9750061
 20
-38.1500015
 30
0.0
 11
82.9750061
 21
-41.1500015
 31
0.0
  0
LINE
  5
239
330
1E
100
AcDbEntity
  8
0
  6
DASHED
 62
     6
100
AcDbLine
 10
112.975006
 20
-38.1500015
 30
0.0
 11
112.975006
 21
-41.1500015
 31
0.0
  0
LINE
  5
23A
330
1E
100
AcDbEntity
  8
0
  6
DASHED
 62
     6
100
AcDbLine
 10
75.9750061
 20
-31.05303549999999
 30
0.0
 11
82.9750061
 21
-31.05303549999999
 31
0.0
  0
LINE
  5
23B
330
1E
100
AcDbEntity
  8
0
  6
DASHED
 62
     6
100
AcDbLine
 10
75.9750061
 20
-39.24696749999999
 30
0.0
 11
82.9750061
 21
-39.24696749999999
 31
0.0
  0
LINE
  5
23C
330
1E
100
AcDbEntity
  8
0
  6
DASHED
 62
     6
100
AcDbLine
 10
112.975006
 20
-39.24696749999999
 30
0.0
 11
119.975006
 21
-39.24696749999999
 31
0.0
  0
LINE
  5
23D
330
1E
100
AcDbEntity
  8
0
  6
DASHED
 62
     6
100
AcDbLine
 10
112.975006
 20
-31.05303549999999
 30
0.0
 11
119.975006
 21
-31.05303549999999
 31
0.0
  0
LINE
  5
23E
330
1E
100
AcDbEntity
  8
0
 62
     4
100
AcDbLine
 10
86.47500609999999
 20
-27.1500015
 30
0.0
 11
109.475006
 21
-27.1500015
 31
0.0
  0
LINE
  5
23F
330
1E
100
AcDbEntity
  8
0
 62
     4
100
AcDbLine
 10
86.47500609999999
 20
-43.1500015
 30
0.0
 11
109.475006
 21
-43.1500015
 31
0.0
  0
LINE
  5
240
330
1E
100
AcDbEntity
  8
0
 62
     4
100
AcDbLine
 10
112.975006
 20
-43.1500015
 30
0.0
 11
119.975006
 21
-43.1500015
 31
0.0
  0
LINE
  5
241
330
1E
100
AcDbEntity
  8
0
 62
     4
100
AcDbLine
 10
112.975006
 20
-27.1500015
 30
0.0
 11
119.975006
 21
-27.1500015
 31
0.0
  0
LINE
  5
242
330
1E
100
AcDbEntity
  8
0
 62
     7
100
AcDbLine
 10
-138.399994
 20
94.50000000000001
 30
0.0
 11
138.350006
 21
94.50000000000001
 31
0.0
  0
LINE
  5
243
330
1E
100
AcDbEntity
  8
0
 62
     7
100
AcDbLine
 10
138.350006
 20
94.50000000000001
 30
0.0
 11
138.350006
 21
-94.80000309999999
 31
0.0
  0
LINE
  5
244
330
1E
100
AcDbEntity
  8
0
 62
     7
100
AcDbLine
 10
-138.399994
 20
-94.80000309999999
 30
0.0
 11
138.350006
 21
-94.80000309999999
 31
0.0
  0
LINE
  5
245
330
1E
100
AcDbEntity
  8
0
 62
     7
100
AcDbLine
 10
-138.399994
 20
94.50000000000001
 30
0.0
 11
-138.399994
 21
-94.80000309999999
 31
0.0
  0
LINE
  5
246
330
1E
100
AcDbEntity
  8
0
 62
     7
100
AcDbLine
 10
73.3500061
 20
-84.80000309999999
 30
0.0
 11
138.350006
 21
-84.80000309999999
 31
0.0
  0
LINE
  5
247
330
1E
100
AcDbEntity
  8
0
 62
     7
100
AcDbLine
 10
73.3500061
 20
84.50000000000001
 30
0.0
 11
138.350006
 21
84.50000000000001
 31
0.0
  0
LINE
  5
248
330
1E
100
AcDbEntity
  8
0
 62
     7
100
AcDbLine
 10
73.3500061
 20
-84.80000309999999
 30
0.0
 11
73.3500061
 21
-94.80000309999999
 31
0.0
  0
LINE
  5
249
330
1E
100
AcDbEntity
  8
0
 62
     7
100
AcDbLine
 10
73.3500061
 20
94.50000000000001
 30
0.0
 11
73.3500061
 21
84.50000000000001
 31
0.0
  0
TEXT
  5
24A
330
1E
100
AcDbEntity
  8
0
 62
     7
100
AcDbText
 10
77.2426624
 20
-92.0500031
 30
0.0
 40
4.5
  1
KOGANEI CORP.
 41
1.0483871
  7
MONOTXT
100
AcDbText
  0
TEXT
  5
24B
330
1E
100
AcDbEntity
  8
0
 62
     7
100
AcDbText
 10
93.5071493
 20
87.90000009999999
 30
0.0
 40
3.19999981
  1
Ver. 1.0
 41
1.081081079999999
  7
MONOTXT
100
AcDbText
  0
TEXT
  5
24C
330
1E
100
AcDbEntity
  8
0
 62
     7
100
AcDbText
 10
-129.085994
 20
72.90000009999999
 30
0.0
 40
3.19999981
  1
MODEL:VFN100-J6(J4)
  7
MONOTXT
100
AcDbText
  0
ENDSEC
  0
SECTION
  2
OBJECTS
  0
DICTIONARY
  5
C
330
0
100
AcDbDictionary
  3
ACAD_GROUP
350
D
  3
ACAD_MLINESTYLE
350
16
  3
ACAD_PLOTSETTINGS
350
18
  3
ACAD_LAYOUT
350
19
1001
ACAD
1000
TREAT_AS_HARD
1070
     0
  0
DICTIONARY
  5
287
330
1E
100
AcDbDictionary
  3
ACAD_LAYOUTSELFREF
350
288
  0
DICTIONARY
  5
285
330
1A
100
AcDbDictionary
  3
ACAD_LAYOUTSELFREF
350
286
  0
DICTIONARY
  5
D
102
{ACAD_REACTORS
330
C
102
}
330
C
100
AcDbDictionary
1001
ACAD
1000
TREAT_AS_HARD
1070
     0
  0
DICTIONARY
  5
16
102
{ACAD_REACTORS
330
C
102
}
330
C
100
AcDbDictionary
  3
STANDARD
350
17
1001
ACAD
1000
TREAT_AS_HARD
1070
     0
  0
DICTIONARY
  5
18
102
{ACAD_REACTORS
330
C
102
}
330
C
100
AcDbDictionary
1001
ACAD
1000
TREAT_AS_HARD
1070
     0
  0
DICTIONARY
  5
19
102
{ACAD_REACTORS
330
C
102
}
330
C
100
AcDbDictionary
1001
ACAD
1000
TREAT_AS_HARD
1070
     0
  0
XRECORD
  5
288
102
{ACAD_REACTORS
330
287
102
}
330
287
100
AcDbXrecord
340
1E
  0
XRECORD
  5
286
102
{ACAD_REACTORS
330
285
102
}
330
285
100
AcDbXrecord
340
1A
  0
MLINESTYLE
  5
17
102
{ACAD_REACTORS
330
16
102
}
330
16
100
AcDbMlineStyle
  2
STANDARD
 70
     0
  3

 62
   256
 51
90.0
 52
90.0
 71
     2
 49
0.5
 62
   256
  6
BYLAYER
 49
-0.5
 62
   256
  6
BYLAYER
  0
ENDSEC
  0
EOF
