  0
SECTION
  2
HEADER
  0
ENDSEC
  0
SECTION
  2
TABLES
  0
TABLE
  2
LTYPE
 70
     4
  0
LTYPE
  2
CONTINUOUS
 70
    64
  3
Solid line
 72
    65
 73
     0
 40
0.000000
  0
LTYPE
  2
DASHED
 70
    64
  3
__ __ __ __ __ __ __ __ __ __ __ __ __ __ __
 72
    65
 73
     2
 40
3.500000
 49
2.000000
 49
-1.500000
  0
LTYPE
  2
CENTER
 70
    64
  3
____ _ ____ _ ____ _ ____ _ ____ _ ____ _ ____
 72
    65
 73
     4
 40
17.500000
 49
13.000000
 49
-1.500000
 49
1.500000
 49
-1.500000
  0
LTYPE
  2
PHANTOM
 70
    64
  3
_____ _ _ _____ _ _ _____ _ _ _____ _ _ ____  
 72
    65
 73
     6
 40
15.500000
 49
8.000000
 49
-1.500000
 49
1.500000
 49
-1.500000
 49
1.500000
 49
-1.500000
  0
LTYPE
  2
DASHED1
 70
    64
  3
__ __ __ __ __ __ __ __ __ __ __ __ __ __ __
 72
    65
 73
     2
 40
1.500000
 49
1.000000
 49
-0.500000
  0
LTYPE
  2
DASHED2
 70
    64
  3
__ __ __ __ __ __ __ __ __ __ __ __ __ __ __
 72
    65
 73
     2
 40
3.500000
 49
2.500000
 49
-1.000000
  0
LTYPE
  2
DASHED3
 70
    64
  3
__ __ __ __ __ __ __ __ __ __ __ __ __ __ __
 72
    65
 73
     2
 40
6.000000
 49
4.000000
 49
-2.000000
  0
LTYPE
  2
DASHED4
 70
    64
  3
__ __ __ __ __ __ __ __ __ __ __ __ __ __ __
 72
    65
 73
     2
 40
12.000000
 49
10.000000
 49
-2.000000
  0
LTYPE
  2
DASHED5
 70
    64
  3
__ __ __ __ __ __ __ __ __ __ __ __ __ __ __
 72
    65
 73
     2
 40
17.000000
 49
15.000000
 49
-2.000000
  0
LTYPE
  2
DASHED6
 70
    64
  3
__ __ __ __ __ __ __ __ __ __ __ __ __ __ __
 72
    65
 73
     2
 40
29.000000
 49
27.000000
 49
-2.000000
  0
LTYPE
  2
PHANTOM1
 70
    64
  3
_____ _ _ _____ _ _ _____ _ _ _____ _ _ ____  
 72
    65
 73
     6
 40
31.000000
 49
25.000000
 49
-1.500000
 49
1.000000
 49
-1.000000
 49
1.000000
 49
-1.500000
  0
LTYPE
  2
PHANTOM2
 70
    64
  3
_____ _ _ _____ _ _ _____ _ _ _____ _ _ ____  
 72
    65
 73
     6
 40
36.000000
 49
27.000000
 49
-1.500000
 49
2.500000
 49
-1.000000
 49
2.500000
 49
-1.500000
  0
LTYPE
  2
PHANTOM3
 70
    64
  3
_____ _ _ _____ _ _ _____ _ _ _____ _ _ ____  
 72
    65
 73
     6
 40
78.000000
 49
64.000000
 49
-2.000000
 49
4.000000
 49
-2.000000
 49
4.000000
 49
-2.000000
  0
LTYPE
  2
CENTER1
 70
    64
  3
____ _ ____ _ ____ _ ____ _ ____ _ ____ _ ____
 72
    65
 73
     4
 40
19.000000
 49
14.000000
 49
-1.000000
 49
3.000000
 49
-1.000000
  0
LTYPE
  2
CENTER2
 70
    64
  3
____ _ ____ _ ____ _ ____ _ ____ _ ____ _ ____
 72
    65
 73
     4
 40
28.500000
 49
25.000000
 49
-1.000000
 49
1.500000
 49
-1.000000
  0
LTYPE
  2
CENTER3
 70
    64
  3
____ _ ____ _ ____ _ ____ _ ____ _ ____ _ ____
 72
    65
 73
     4
 40
31.500000
 49
27.000000
 49
-1.000000
 49
2.500000
 49
-1.000000
  0
LTYPE
  2
CENTER4
 70
    64
  3
____ _ ____ _ ____ _ ____ _ ____ _ ____ _ ____
 72
    65
 73
     4
 40
50.000000
 49
45.000000
 49
-1.000000
 49
3.000000
 49
-1.000000
  0
LTYPE
  2
CENTER5
 70
    64
  3
____ _ ____ _ ____ _ ____ _ ____ _ ____ _ ____
 72
    65
 73
     4
 40
100.000000
 49
92.000000
 49
-2.000000
 49
4.000000
 49
-2.000000
  0
LTYPE
  2
SBK1
 70
    64
  3
______ _ _ _ ______ _ _ _ ______ _ _ _ _____  
 72
    65
 73
     8
 40
60.500000
 49
45.000000
 49
-2.000000
 49
2.500000
 49
-2.000000
 49
2.500000
 49
-2.000000
 49
2.500000
 49
-2.000000
  0
LTYPE
  2
SBK2
 70
    64
  3
______ _ _ _ ______ _ _ _ ______ _ _ _ _____  
 72
    65
 73
     8
 40
84.000000
 49
64.000000
 49
-2.000000
 49
4.000000
 49
-2.000000
 49
4.000000
 49
-2.000000
 49
4.000000
 49
-2.000000
  0
LTYPE
  2
STCH
 70
    64
  3
__ __ __ __ __ __ __ __ __ __ __ __ __ __ __
 72
    65
 73
     2
 40
3.000000
 49
1.000000
 49
-2.000000
  0
LTYPE
  2
MTCH
 70
    64
  3
_____ _ _ _____ _ _ _____ _ _ _____ _ _ ____  
 72
    65
 73
     6
 40
80.000000
 49
66.000000
 49
-2.000000
 49
4.000000
 49
-2.000000
 49
4.000000
 49
-2.000000
  0
ENDTAB
  0
TABLE
  2
LAYER
 70
     1
  0
LAYER
  2
0
 70
     0
 62
     7
  6
CONTINUOUS
  0
ENDTAB
  0
TABLE
  2
STYLE
 70
     1
  0
STYLE
  2
STANDARD
 70
     0
 40
0.000000
 41
1.000000
 50
0.000000
 71
     0
 42
0.200000
  3
txt
  4
BIGFONT
  0
ENDTAB
  0
TABLE
  2
VIEW
 70
     0
  0
ENDTAB
  0
ENDSEC
  0
SECTION
  2
BLOCKS
  0
ENDSEC
  0
SECTION
  2
ENTITIES
  0
LINE
  8
0
 10
-281.250000
 20
195.500000
 11
282.099976
 21
195.500000
  0
LINE
  8
0
 10
-281.250000
 20
195.500000
 11
-281.250000
 21
-195.000000
  0
LINE
  8
0
 10
282.099976
 20
195.500000
 11
282.099976
 21
-195.000000
  0
LINE
  8
0
 10
-281.250000
 20
-195.000000
 11
282.099976
 21
-195.000000
  0
LINE
  8
0
 10
162.099976
 20
-175.000000
 11
162.099976
 21
-195.000000
  0
LINE
  8
0
 10
162.099976
 20
-175.000000
 11
282.099976
 21
-175.000000
  0
LINE
  8
0
 10
162.099976
 20
175.500000
 11
282.099976
 21
175.500000
  0
LINE
  8
0
 10
-281.250000
 20
175.500000
 11
-161.250000
 21
175.500000
  0
LINE
  8
0
 10
162.099976
 20
195.500000
 11
162.099976
 21
175.500000
  0
LINE
  8
0
 10
-161.250000
 20
195.500000
 11
-161.250000
 21
175.500000
  0
LINE
  8
0
 10
-1.675049
 20
37.250000
 11
-24.675049
 21
37.250000
  0
LINE
  8
0
 10
-1.675049
 20
90.250000
 11
-24.675049
 21
90.250000
  0
LINE
  8
0
 10
-24.675049
 20
19.750000
 11
-1.675049
 21
19.750000
  0
LINE
  8
0
 10
-1.675049
 20
107.750000
 11
-24.675049
 21
107.750000
  0
LINE
  8
0
  6
CENTER
 62
     2
 10
-13.175049
 20
-4.618912
 11
-13.175049
 21
132.750000
  0
LINE
  8
0
 10
-24.675049
 20
107.750000
 11
-24.675049
 21
19.750000
  0
LINE
  8
0
 10
-1.675049
 20
107.750000
 11
-1.675049
 21
19.750000
  0
LINE
  8
0
 10
-1.675049
 20
33.750000
 11
9.324951
 21
33.750000
  0
LINE
  8
0
 10
-1.675049
 20
102.250000
 11
-1.175034
 21
102.250000
  0
LINE
  8
0
  6
CENTER
 62
     2
 10
4.824951
 20
100.750000
 11
4.824951
 21
92.750000
  0
LINE
  8
0
  6
CENTER
 62
     2
 10
0.824951
 20
96.750000
 11
8.824951
 21
96.750000
  0
LINE
  8
0
 10
0.824966
 20
101.250000
 11
9.324951
 21
101.250000
  0
LINE
  8
0
 10
9.324951
 20
101.250000
 11
9.324951
 21
33.750000
  0
LINE
  8
0
 10
-1.175049
 20
90.250000
 11
-1.175049
 21
37.250000
  0
LINE
  8
0
 10
-1.675049
 20
37.250000
 11
-1.175049
 21
37.250000
  0
LINE
  8
0
 10
-1.675049
 20
90.250000
 11
-1.175049
 21
90.250000
  0
LINE
  8
0
 10
3.324951
 20
92.750000
 11
3.324951
 21
33.750000
  0
LINE
  8
0
 10
1.824966
 20
92.750000
 11
9.324951
 21
92.750000
  0
LINE
  8
0
 10
-1.675049
 20
102.250000
 11
0.824966
 21
102.250000
  0
LINE
  8
0
 10
0.824966
 20
102.250000
 11
0.824966
 21
93.750000
  0
LINE
  8
0
 10
-33.675049
 20
33.750000
 11
-24.675049
 21
33.750000
  0
LINE
  8
0
  6
CENTER
 62
     2
 10
-29.175049
 20
42.250000
 11
-29.175049
 21
34.250000
  0
LINE
  8
0
  6
CENTER
 62
     2
 10
-33.175049
 20
38.250000
 11
-25.175049
 21
38.250000
  0
LINE
  8
0
 10
-33.675049
 20
101.250000
 11
-27.175018
 21
101.250000
  0
LINE
  8
0
 10
-33.675049
 20
101.250000
 11
-33.675049
 21
33.750000
  0
LINE
  8
0
 10
-25.175049
 20
90.250000
 11
-25.175049
 21
33.750000
  0
LINE
  8
0
 10
-25.175049
 20
90.250000
 11
-24.675049
 21
90.250000
  0
LINE
  8
0
 10
-25.175049
 20
37.250000
 11
-24.675049
 21
37.250000
  0
LINE
  8
0
 10
-27.675049
 20
101.250000
 11
-27.675049
 21
42.750000
  0
LINE
  8
0
 10
-33.675049
 20
42.750000
 11
-26.175049
 21
42.750000
  0
LINE
  8
0
 10
-27.175018
 20
102.250000
 11
-24.675049
 21
102.250000
  0
LINE
  8
0
 10
-27.175018
 20
101.250000
 11
-27.175018
 21
102.250000
  0
LINE
  8
0
 10
-22.175049
 20
53.749992
 11
-24.675049
 21
53.749992
  0
LINE
  8
0
 10
-22.175049
 20
47.749992
 11
-24.675049
 21
47.749992
  0
LINE
  8
0
 10
-4.675049
 20
41.250000
 11
-1.675049
 21
41.250000
  0
LINE
  8
0
 10
-4.675049
 20
46.250000
 11
-1.675049
 21
46.250000
  0
LINE
  8
0
 10
-4.175049
 20
65.749992
 11
-1.675049
 21
65.749992
  0
LINE
  8
0
 10
-4.175049
 20
71.749992
 11
-1.675049
 21
71.749992
  0
LINE
  8
0
 10
-21.675049
 20
86.249985
 11
-24.675049
 21
86.249985
  0
LINE
  8
0
 10
-21.675049
 20
81.249985
 11
-24.675049
 21
81.249985
  0
LINE
  8
0
 10
-22.175049
 20
79.749985
 11
-24.675049
 21
79.749985
  0
LINE
  8
0
 10
-22.175049
 20
73.749992
 11
-24.675049
 21
73.749992
  0
LINE
  8
0
 10
-23.175049
 20
88.749985
 11
-23.175049
 21
86.249985
  0
LINE
  8
0
 10
-3.175049
 20
88.749985
 11
-3.175049
 21
71.749992
  0
LINE
  8
0
 10
-23.175049
 20
88.749985
 11
-3.175049
 21
88.749985
  0
LINE
  8
0
 10
-23.175049
 20
38.750000
 11
-3.175049
 21
38.750000
  0
LINE
  8
0
 10
-23.175049
 20
47.749992
 11
-23.175049
 21
38.750000
  0
LINE
  8
0
 10
-23.175049
 20
73.749992
 11
-23.175049
 21
53.749992
  0
LINE
  8
0
 10
-23.175049
 20
81.249985
 11
-23.175049
 21
79.749985
  0
LINE
  8
0
 10
-3.175049
 20
65.749992
 11
-3.175049
 21
46.250000
  0
LINE
  8
0
 10
-3.175049
 20
41.250000
 11
-3.175049
 21
38.750000
  0
LINE
  8
0
 10
-24.675102
 20
37.250004
 11
-23.175089
 21
38.750015
  0
LINE
  8
0
 10
-3.175058
 20
38.750038
 11
-1.675045
 21
37.250023
  0
LINE
  8
0
 10
-1.675044
 20
90.250000
 11
-3.175035
 21
88.750008
  0
LINE
  8
0
 10
-24.675039
 20
90.249985
 11
-23.175047
 21
88.750000
  0
LINE
  8
0
 10
-5.735752
 20
42.689384
 11
-3.614431
 21
44.810703
  0
LINE
  8
0
 10
-22.735723
 20
82.689400
 11
-20.614403
 21
84.810722
  0
LINE
  8
0
 10
-22.735701
 20
84.810699
 11
-20.614380
 21
82.689377
  0
LINE
  8
0
 10
-5.735769
 20
44.810707
 11
-3.614448
 21
42.689384
  0
LINE
  8
0
 10
-23.235756
 20
75.689392
 11
-21.114447
 21
77.810707
  0
LINE
  8
0
 10
-23.235693
 20
77.810684
 11
-21.114372
 21
75.689369
  0
LINE
  8
0
 10
-5.235707
 20
67.689369
 11
-3.114397
 21
69.810677
  0
LINE
  8
0
 10
-5.235715
 20
69.810730
 11
-3.114395
 21
67.689407
  0
LINE
  8
0
 10
-23.235712
 20
49.689365
 11
-21.114386
 21
51.810692
  0
LINE
  8
0
 10
-23.235731
 20
51.810665
 11
-21.114416
 21
49.689350
  0
LINE
  8
0
 62
     4
 10
-24.675049
 20
128.750000
 11
-24.675049
 21
107.750000
  0
LINE
  8
0
 62
     4
 10
-1.675049
 20
128.750000
 11
-1.675049
 21
107.750000
  0
LINE
  8
0
 62
     4
 10
-24.675049
 20
127.750000
 11
-1.675049
 21
127.750000
  0
LINE
  8
0
 62
     4
 10
-24.675049
 20
128.750000
 11
-1.675049
 21
128.750000
  0
LINE
  8
0
 62
     4
 10
-2.675141
 20
130.749985
 11
-1.675133
 21
128.749969
  0
LINE
  8
0
 62
     4
 10
-17.175049
 20
130.750000
 11
-17.175049
 21
128.750000
  0
LINE
  8
0
 62
     4
 10
-23.925049
 20
129.450012
 11
-18.425049
 21
129.450012
  0
LINE
  8
0
 62
     4
 10
-18.425049
 20
129.450012
 11
-18.425049
 21
128.750000
  0
LINE
  8
0
 62
     4
 10
-23.925049
 20
129.450012
 11
-23.925049
 21
128.750000
  0
LINE
  8
0
 62
     4
 10
-23.675018
 20
130.750000
 11
-23.444916
 21
130.750000
  0
LINE
  8
0
 62
     4
 10
-21.925049
 20
131.450012
 11
-20.425049
 21
131.450012
  0
LINE
  8
0
 62
     4
 10
-5.925049
 20
131.450012
 11
-4.425049
 21
131.450012
  0
LINE
  8
0
 62
     4
 10
-18.905182
 20
130.750000
 11
-2.675079
 21
130.750000
  0
LINE
  8
0
 62
     4
 10
-24.675049
 20
126.750000
 11
-1.675049
 21
126.750000
  0
LINE
  8
0
 62
     4
 10
-23.675035
 20
130.750031
 11
-24.675045
 21
128.750031
  0
LINE
  8
0
 62
     4
 10
-1.675049
 20
-0.050003
 11
-1.675049
 21
20.949999
  0
LINE
  8
0
 62
     4
 10
-24.675049
 20
-0.049995
 11
-24.675049
 21
20.950003
  0
LINE
  8
0
 62
     4
 10
-1.675049
 20
0.950001
 11
-24.675049
 21
0.950001
  0
LINE
  8
0
 62
     4
 10
-1.675049
 20
-0.049999
 11
-24.675049
 21
-0.049999
  0
LINE
  8
0
 62
     4
 10
-23.675089
 20
-2.050026
 11
-24.675093
 21
-0.050019
  0
LINE
  8
0
 62
     4
 10
-9.175049
 20
-2.049999
 11
-9.175049
 21
-0.049999
  0
LINE
  8
0
 62
     4
 10
-2.425049
 20
-0.750011
 11
-7.925049
 21
-0.750011
  0
LINE
  8
0
 62
     4
 10
-7.925049
 20
-0.750011
 11
-7.925049
 21
-0.049999
  0
LINE
  8
0
 62
     4
 10
-2.425049
 20
-0.750015
 11
-2.425049
 21
-0.050003
  0
LINE
  8
0
 62
     4
 10
-2.675079
 20
-2.049999
 11
-2.905182
 21
-2.049999
  0
LINE
  8
0
 62
     4
 10
-4.425049
 20
-2.750011
 11
-5.925049
 21
-2.750011
  0
LINE
  8
0
 62
     4
 10
-20.425049
 20
-2.750011
 11
-21.925049
 21
-2.750011
  0
LINE
  8
0
 62
     4
 10
-7.444916
 20
-2.049999
 11
-23.675018
 21
-2.049999
  0
LINE
  8
0
 62
     4
 10
-1.675049
 20
1.950001
 11
-24.675049
 21
1.950001
  0
LINE
  8
0
 62
     4
 10
-2.675142
 20
-2.049977
 11
-1.675133
 21
-0.049964
  0
LINE
  8
0
  6
CENTER
 62
     2
 10
-27.413765
 20
154.750000
 11
6.192612
 21
154.750000
  0
LINE
  8
0
 10
-26.925026
 20
103.250000
 11
-24.675049
 21
103.250000
  0
LINE
  8
0
 10
0.574982
 20
154.750000
 11
0.574982
 21
102.249992
  0
LINE
  8
0
 10
-26.925018
 20
149.750000
 11
-26.925018
 21
102.249992
  0
LINE
  8
0
  6
CENTER
 62
     2
 10
-11.325027
 20
169.666077
 11
-11.325027
 21
140.214890
  0
LINE
  8
0
 10
-26.925018
 20
149.750000
 11
-22.175018
 21
149.750000
  0
LINE
  8
0
 10
-24.175018
 20
160.250000
 11
-24.175018
 21
149.750000
  0
LINE
  8
0
 10
-24.175018
 20
160.250000
 11
-22.175018
 21
160.250000
  0
LINE
  8
0
 10
-11.324993
 20
142.221542
 11
-13.718891
 21
143.603653
  0
LINE
  8
0
 10
-19.098063
 20
147.286667
 11
-13.901912
 21
144.286652
  0
LINE
  8
0
 10
-8.748038
 20
165.213394
 11
-3.551881
 21
162.213394
  0
LINE
  8
0
 10
-13.901881
 20
165.213272
 11
-19.098034
 21
162.213272
  0
LINE
  8
0
 10
-3.551925
 20
147.286545
 11
-8.748077
 21
144.286545
  0
LINE
  8
0
 10
-21.675018
 20
157.750000
 11
-21.675018
 21
151.750000
  0
LINE
  8
0
 10
-0.975021
 20
157.749985
 11
-0.975021
 21
151.749985
  0
LINE
  8
0
 10
-13.902328
 20
144.286530
 11
-13.719315
 21
143.603516
  0
LINE
  8
0
 10
-19.098057
 20
147.286606
 11
-19.781086
 21
147.103592
  0
LINE
  8
0
 10
-19.781080
 20
147.103668
 11
-22.174986
 21
148.485794
  0
LINE
  8
0
 10
-0.475009
 20
148.485687
 11
-2.868894
 21
147.103577
  0
LINE
  8
0
 10
-3.552020
 20
147.286316
 11
-2.868998
 21
147.103302
  0
LINE
  8
0
 10
-8.748232
 20
144.286652
 11
-8.931241
 21
143.603653
  0
LINE
  8
0
 10
-8.931072
 20
143.603577
 11
-11.325014
 21
142.221436
  0
LINE
  8
0
 10
-0.475006
 20
161.014236
 11
-0.475006
 21
158.250000
  0
LINE
  8
0
 10
-0.975003
 20
157.749954
 11
-0.475006
 21
158.249969
  0
LINE
  8
0
 10
-0.975275
 20
151.749741
 11
-0.475275
 21
151.249741
  0
LINE
  8
0
 10
-0.475006
 20
151.249985
 11
-0.475006
 21
148.485733
  0
LINE
  8
0
 10
-11.324981
 20
167.278580
 11
-8.931088
 21
165.896469
  0
LINE
  8
0
 10
-8.748279
 20
165.213287
 11
-8.931292
 21
165.896301
  0
LINE
  8
0
 10
-3.551943
 20
162.213287
 11
-2.868929
 21
162.396301
  0
LINE
  8
0
 10
-2.868899
 20
162.396454
 11
-0.474987
 21
161.014328
  0
LINE
  8
0
 10
-22.174973
 20
161.014160
 11
-19.781073
 21
162.396271
  0
LINE
  8
0
 10
-19.098122
 20
162.213211
 11
-19.781137
 21
162.396210
  0
LINE
  8
0
 10
-13.901951
 20
165.213364
 11
-13.718933
 21
165.896393
  0
LINE
  8
0
 10
-13.718882
 20
165.896286
 11
-11.324969
 21
167.278412
  0
LINE
  8
0
 10
-22.175018
 20
148.485764
 11
-22.175018
 21
151.250000
  0
LINE
  8
0
 10
-21.675049
 20
151.750031
 11
-22.175047
 21
151.250031
  0
LINE
  8
0
 10
-21.674757
 20
157.750229
 11
-22.174759
 21
158.250229
  0
LINE
  8
0
 10
-22.175018
 20
158.250015
 11
-22.175018
 21
161.014267
  0
LINE
  8
0
 10
-26.925026
 20
110.750000
 11
-24.675049
 21
110.750000
  0
LINE
  8
0
 10
-1.675049
 20
110.750000
 11
0.574982
 21
110.750000
  0
LINE
  8
0
 10
-1.675049
 20
103.250000
 11
0.574982
 21
103.250000
  0
LINE
  8
0
 10
-173.675018
 20
101.250000
 11
-173.675018
 21
33.750000
  0
LINE
  8
0
 10
-130.675018
 20
90.250000
 11
-130.675018
 21
37.250000
  0
LINE
  8
0
 10
-171.675018
 20
102.250000
 11
-131.675018
 21
102.250000
  0
LINE
  8
0
  6
CENTER
 62
     2
 10
-163.675018
 20
94.750000
 11
-163.675018
 21
82.750000
  0
LINE
  8
0
  6
CENTER
 62
     2
 10
-169.675018
 20
88.750000
 11
-157.675018
 21
88.750000
  0
LINE
  8
0
  6
CENTER
 62
     2
 10
-152.675018
 20
81.750000
 11
-152.675018
 21
66.750000
  0
LINE
  8
0
  6
CENTER
 62
     2
 10
-160.175018
 20
74.250000
 11
-145.175018
 21
74.250000
  0
LINE
  8
0
  6
CENTER
 62
     2
 10
-152.675018
 20
60.750000
 11
-152.675018
 21
45.750000
  0
LINE
  8
0
  6
CENTER
 62
     2
 10
-160.175018
 20
53.250000
 11
-145.175018
 21
53.250000
  0
LINE
  8
0
 10
-137.675018
 20
101.250000
 11
-137.675018
 21
42.750000
  0
LINE
  8
0
 10
-131.675018
 20
102.250000
 11
-131.675018
 21
33.750000
  0
LINE
  8
0
 10
-129.675049
 20
90.250000
 11
-131.675018
 21
90.250000
  0
LINE
  8
0
 10
-129.675049
 20
37.250000
 11
-131.675018
 21
37.250000
  0
LINE
  8
0
 10
-165.675018
 20
42.750000
 11
-165.675018
 21
33.750000
  0
LINE
  8
0
 10
-171.675018
 20
102.250000
 11
-171.675018
 21
101.250000
  0
LINE
  8
0
  6
CENTER
 62
     2
 10
-177.675018
 20
38.250000
 11
-160.637726
 21
38.250000
  0
LINE
  8
0
  6
CENTER
 62
     2
 10
-177.675018
 20
96.750000
 11
-160.637726
 21
96.750000
  0
LINE
  8
0
 10
-129.675049
 20
107.750000
 11
-129.675049
 21
19.750000
  0
LINE
  8
0
 10
-129.675049
 20
107.750000
 11
-94.675049
 21
107.750000
  0
LINE
  8
0
 10
-94.675049
 20
90.250000
 11
-129.675049
 21
90.250000
  0
LINE
  8
0
 10
-94.675049
 20
37.250000
 11
-129.675049
 21
37.250000
  0
LINE
  8
0
 10
-129.675049
 20
19.750000
 11
-94.675049
 21
19.750000
  0
LINE
  8
0
 10
-94.675049
 20
107.750000
 11
-94.675049
 21
19.750000
  0
LINE
  8
0
 62
     4
 10
-129.675049
 20
128.750000
 11
-129.675049
 21
107.750000
  0
LINE
  8
0
 62
     4
 10
-98.175049
 20
127.750000
 11
-129.675049
 21
127.750000
  0
LINE
  8
0
 62
     4
 10
-98.175049
 20
127.750000
 11
-98.175049
 21
107.750000
  0
LINE
  8
0
 62
     4
 10
-95.175049
 20
126.750000
 11
-98.175049
 21
126.750000
  0
LINE
  8
0
 62
     4
 10
-98.675049
 20
128.750000
 11
-129.675049
 21
128.750000
  0
LINE
  8
0
 62
     4
 10
-98.675049
 20
128.750000
 11
-98.675049
 21
127.750000
  0
LINE
  8
0
 62
     4
 10
-98.675110
 20
128.750000
 11
-99.675110
 21
130.750000
  0
LINE
  8
0
 62
     4
 10
-106.175049
 20
130.750000
 11
-106.175049
 21
128.750000
  0
LINE
  8
0
 62
     4
 10
-128.674957
 20
130.750015
 11
-129.674988
 21
128.749969
  0
LINE
  8
0
 62
     4
 10
-104.925049
 20
129.450012
 11
-99.425049
 21
129.450012
  0
LINE
  8
0
 62
     4
 10
-99.425049
 20
129.450012
 11
-99.425049
 21
128.750000
  0
LINE
  8
0
 62
     4
 10
-104.925049
 20
129.450012
 11
-104.925049
 21
128.750000
  0
LINE
  8
0
 62
     4
 10
-102.925049
 20
131.450012
 11
-101.425049
 21
131.450012
  0
LINE
  8
0
 62
     4
 10
-122.925049
 20
131.450012
 11
-121.425049
 21
131.450012
  0
LINE
  8
0
 62
     4
 10
-104.444916
 20
130.750000
 11
-128.674957
 21
130.750000
  0
LINE
  8
0
 62
     4
 10
-94.175049
 20
125.750000
 11
-94.175049
 21
108.750000
  0
LINE
  8
0
 62
     4
 10
-99.675079
 20
130.750000
 11
-99.905167
 21
130.750000
  0
LINE
  8
0
 62
     4
 10
-129.675049
 20
-1.250000
 11
-129.675049
 21
19.750002
  0
LINE
  8
0
 62
     4
 10
-98.175049
 20
-0.250000
 11
-129.675064
 21
-0.250000
  0
LINE
  8
0
 62
     4
 10
-98.175049
 20
-0.250000
 11
-98.175049
 21
19.749998
  0
LINE
  8
0
 62
     4
 10
-95.175049
 20
0.750000
 11
-98.175049
 21
0.750000
  0
LINE
  8
0
 62
     4
 10
-98.675049
 20
-1.250000
 11
-129.675064
 21
-1.250000
  0
LINE
  8
0
 62
     4
 10
-98.675049
 20
-1.250000
 11
-98.675049
 21
-0.250000
  0
LINE
  8
0
 62
     4
 10
-98.674995
 20
-1.250056
 11
-99.674988
 21
-3.250052
  0
LINE
  8
0
 62
     4
 10
-128.674988
 20
-3.250011
 11
-129.675018
 21
-1.249966
  0
LINE
  8
0
 62
     4
 10
-124.925049
 20
-1.950012
 11
-119.425049
 21
-1.950012
  0
LINE
  8
0
 62
     4
 10
-119.425049
 20
-1.950012
 11
-119.425049
 21
-1.250000
  0
LINE
  8
0
 62
     4
 10
-124.925049
 20
-1.950012
 11
-124.925049
 21
-1.250000
  0
LINE
  8
0
 62
     4
 10
-122.925049
 20
-3.950012
 11
-121.425049
 21
-3.950012
  0
LINE
  8
0
 62
     4
 10
-99.675079
 20
-3.250000
 11
-119.905167
 21
-3.250000
  0
LINE
  8
0
 62
     4
 10
-94.175049
 20
1.750000
 11
-94.175049
 21
18.749998
  0
LINE
  8
0
 62
     4
 10
-118.175049
 20
-3.250000
 11
-118.175049
 21
-1.250000
  0
LINE
  8
0
 62
     4
 10
-126.175049
 20
-3.250000
 11
-126.175049
 21
-1.250000
  0
LINE
  8
0
 62
     4
 10
-102.925049
 20
-3.950012
 11
-101.425049
 21
-3.950012
  0
LINE
  8
0
 62
     4
 10
-124.444931
 20
-3.250000
 11
-128.674973
 21
-3.250000
  0
LINE
  8
0
 10
-171.675018
 20
103.250000
 11
-131.675003
 21
103.250000
  0
LINE
  8
0
 10
-171.675018
 20
149.750000
 11
-171.675018
 21
102.250000
  0
LINE
  8
0
  6
CENTER
 62
     2
 10
-162.508362
 20
154.750000
 11
-93.679482
 21
154.750000
  0
LINE
  8
0
 10
-131.674988
 20
149.750015
 11
-131.674988
 21
102.250000
  0
LINE
  8
0
 10
-113.675026
 20
142.850006
 11
-131.675018
 21
142.850006
  0
LINE
  8
0
 10
-113.675003
 20
166.650024
 11
-113.675003
 21
142.850021
  0
LINE
  8
0
 10
-113.675041
 20
166.650009
 11
-143.675049
 21
166.650009
  0
LINE
  8
0
 10
-143.675003
 20
166.650024
 11
-143.675003
 21
149.750031
  0
LINE
  8
0
 10
-131.675018
 20
149.750000
 11
-171.675034
 21
149.750000
  0
LINE
  8
0
 10
-155.575012
 20
154.750031
 11
-155.575012
 21
149.750015
  0
LINE
  8
0
  6
CENTER
 62
     2
 10
-134.675018
 20
179.215393
 11
-134.675018
 21
127.014618
  0
LINE
  8
0
 10
-110.874985
 20
144.394379
 11
-110.874985
 21
165.105667
  0
LINE
  8
0
 10
-131.758530
 20
160.250000
 11
-137.591537
 21
160.250000
  0
LINE
  8
0
 10
-131.675034
 20
161.427383
 11
-131.758530
 21
160.249985
  0
LINE
  8
0
 10
-137.675018
 20
161.427414
 11
-137.591522
 21
160.250015
  0
LINE
  8
0
 10
-110.874992
 20
144.394379
 11
-113.674988
 21
144.481873
  0
LINE
  8
0
 10
-109.675011
 20
145.518890
 11
-110.875000
 21
145.556396
  0
LINE
  8
0
 10
-109.674995
 20
163.981064
 11
-110.874992
 21
163.943558
  0
LINE
  8
0
 10
-110.875008
 20
165.105637
 11
-113.674995
 21
165.018143
  0
LINE
  8
0
 10
-136.865051
 20
154.750000
 11
-136.865051
 21
149.750000
  0
LINE
  8
0
 10
-132.485031
 20
154.750015
 11
-132.485031
 21
149.750000
  0
LINE
  8
0
 62
     2
 10
-110.875000
 20
145.556396
 11
-113.675011
 21
145.643890
  0
LINE
  8
0
 62
     2
 10
-110.874992
 20
163.943558
 11
-113.674980
 21
163.856064
  0
LINE
  8
0
 10
-171.675018
 20
110.750000
 11
-131.675003
 21
110.750000
  0
LINE
  8
0
 10
-104.674988
 20
142.221481
 11
-109.674988
 21
142.221481
  0
LINE
  8
0
 10
-104.674988
 20
167.278503
 11
-109.674988
 21
167.278503
  0
LINE
  8
0
 10
-104.674988
 20
142.221497
 11
-104.674988
 21
167.278519
  0
LINE
  8
0
 10
-109.674988
 20
142.221497
 11
-109.674988
 21
167.278519
  0
LINE
  8
0
 10
-104.674988
 20
144.286652
 11
-109.674988
 21
144.286652
  0
LINE
  8
0
 10
-104.674988
 20
147.103622
 11
-109.674988
 21
147.103622
  0
LINE
  8
0
 10
-104.674988
 20
148.485748
 11
-109.674988
 21
148.485748
  0
LINE
  8
0
 10
-104.674988
 20
151.250000
 11
-109.674988
 21
151.250000
  0
LINE
  8
0
 10
-104.674988
 20
151.750000
 11
-109.674988
 21
151.750000
  0
LINE
  8
0
 10
-104.674988
 20
157.750000
 11
-109.674988
 21
157.750000
  0
LINE
  8
0
 10
-104.674988
 20
158.250000
 11
-109.674988
 21
158.250000
  0
LINE
  8
0
 10
-104.674988
 20
161.014252
 11
-109.674988
 21
161.014252
  0
LINE
  8
0
 10
-104.674988
 20
162.396362
 11
-109.674988
 21
162.396362
  0
LINE
  8
0
 10
-104.674988
 20
165.213348
 11
-109.674988
 21
165.213348
  0
LINE
  8
0
 10
-104.674988
 20
165.896362
 11
-109.674988
 21
165.896362
  0
LINE
  8
0
 10
-104.674988
 20
143.603607
 11
-109.674988
 21
143.603607
  0
LINE
  8
0
 10
-91.175018
 20
88.749985
 11
-91.175018
 21
85.349976
  0
LINE
  8
0
 10
-92.675018
 20
90.249985
 11
-92.675018
 21
79.749985
  0
LINE
  8
0
 10
-94.675049
 20
90.249985
 11
-92.675018
 21
90.249985
  0
LINE
  8
0
 10
-92.675018
 20
86.249985
 11
-91.175018
 21
86.249985
  0
LINE
  8
0
 10
-92.675018
 20
81.249985
 11
-91.175018
 21
81.249985
  0
LINE
  8
0
 10
-94.675049
 20
79.749985
 11
-91.175018
 21
79.749985
  0
LINE
  8
0
 10
-94.675049
 20
73.750000
 11
-91.175018
 21
73.750000
  0
LINE
  8
0
 10
-94.675049
 20
53.750000
 11
-91.175018
 21
53.750000
  0
LINE
  8
0
 10
-94.675049
 20
47.750000
 11
-91.175018
 21
47.750000
  0
LINE
  8
0
 10
-94.675049
 20
37.250000
 11
-92.675018
 21
37.250000
  0
LINE
  8
0
 10
-92.675140
 20
37.250061
 11
-91.175125
 21
38.750072
  0
LINE
  8
0
 10
-92.675026
 20
90.250046
 11
-91.175072
 21
88.750061
  0
LINE
  8
0
 10
-92.675018
 20
47.749992
 11
-92.675018
 21
37.250000
  0
LINE
  8
0
 10
-92.675018
 20
73.749992
 11
-92.675018
 21
53.749992
  0
LINE
  8
0
 10
-93.006805
 20
74.000000
 11
-94.675049
 21
74.000000
  0
LINE
  8
0
 10
-93.975067
 20
79.499985
 11
-93.975067
 21
74.000000
  0
LINE
  8
0
 10
-91.975037
 20
77.750000
 11
-91.975037
 21
75.749985
  0
LINE
  8
0
 10
-93.006805
 20
79.499985
 11
-94.675049
 21
79.499985
  0
LINE
  8
0
 10
-93.006805
 20
48.000000
 11
-94.675049
 21
48.000000
  0
LINE
  8
0
 10
-93.975067
 20
53.499992
 11
-93.975067
 21
48.000000
  0
LINE
  8
0
 10
-91.975037
 20
51.750000
 11
-91.975037
 21
49.749992
  0
LINE
  8
0
 10
-93.006805
 20
53.500000
 11
-94.675049
 21
53.500000
  0
LINE
  8
0
 10
-92.675018
 20
85.999985
 11
-92.675018
 21
81.499992
  0
LINE
  8
0
 10
-91.787628
 20
85.999985
 11
-92.675018
 21
85.999985
  0
LINE
  8
0
 10
-91.787598
 20
81.500000
 11
-92.675018
 21
81.500000
  0
LINE
  8
0
 10
-90.975037
 20
84.549988
 11
-90.975037
 21
82.949989
  0
LINE
  8
0
 10
-91.175018
 20
82.149994
 11
-91.175018
 21
38.750004
  0
LINE
  8
0
 10
-173.675018
 20
101.250000
 11
-131.675018
 21
101.250000
  0
LINE
  8
0
 10
-173.675018
 20
33.750000
 11
-131.675018
 21
33.750000
  0
LINE
  8
0
 10
-165.675018
 20
42.750000
 11
-131.675018
 21
42.750000
  0
LINE
  8
0
 10
108.324951
 20
107.750000
 11
108.324951
 21
19.750000
  0
LINE
  8
0
 10
108.324951
 20
107.750000
 11
73.324951
 21
107.750000
  0
LINE
  8
0
 10
73.324951
 20
90.250000
 11
108.324951
 21
90.250000
  0
LINE
  8
0
 10
73.324951
 20
37.250000
 11
108.324951
 21
37.250000
  0
LINE
  8
0
 10
108.324951
 20
19.750000
 11
73.324951
 21
19.750000
  0
LINE
  8
0
 10
73.324951
 20
107.750000
 11
73.324951
 21
19.750000
  0
LINE
  8
0
 10
110.324951
 20
102.250000
 11
150.324951
 21
102.250000
  0
LINE
  8
0
 10
109.324951
 20
90.250000
 11
109.324951
 21
37.250000
  0
LINE
  8
0
 10
152.324951
 20
101.250000
 11
152.324951
 21
33.750000
  0
LINE
  8
0
  6
CENTER
 62
     2
 10
123.824951
 20
83.750000
 11
138.824951
 21
83.750000
  0
LINE
  8
0
  6
CENTER
 62
     2
 10
131.324951
 20
91.250000
 11
131.324951
 21
76.250000
  0
LINE
  8
0
  6
CENTER
 62
     2
 10
131.324951
 20
51.250000
 11
131.324951
 21
36.250000
  0
LINE
  8
0
  6
CENTER
 62
     2
 10
123.824951
 20
43.750000
 11
138.824951
 21
43.750000
  0
LINE
  8
0
  6
CENTER
 62
     2
 10
124.824951
 20
71.250000
 11
124.824951
 21
56.250000
  0
LINE
  8
0
  6
CENTER
 62
     2
 10
117.324951
 20
63.750000
 11
132.324951
 21
63.750000
  0
LINE
  8
0
 10
110.324951
 20
102.250000
 11
110.324951
 21
33.750000
  0
LINE
  8
0
 10
116.324951
 20
92.383461
 11
116.324951
 21
34.221268
  0
LINE
  8
0
 10
144.324951
 20
101.250000
 11
144.324951
 21
92.750000
  0
LINE
  8
0
 10
150.324951
 20
102.250000
 11
150.324951
 21
101.250000
  0
LINE
  8
0
 10
108.324951
 20
90.250000
 11
110.324951
 21
90.250000
  0
LINE
  8
0
 10
108.324951
 20
37.250000
 11
110.324951
 21
37.250000
  0
LINE
  8
0
  6
CENTER
 62
     2
 10
140.394287
 20
96.750000
 11
156.324951
 21
96.750000
  0
LINE
  8
0
  6
CENTER
 62
     2
 10
140.107574
 20
38.250000
 11
156.324951
 21
38.250000
  0
LINE
  8
0
 62
     4
 10
108.324951
 20
128.750000
 11
108.324951
 21
107.750000
  0
LINE
  8
0
 62
     4
 10
76.824951
 20
127.750000
 11
108.324951
 21
127.750000
  0
LINE
  8
0
 62
     4
 10
76.824951
 20
127.750000
 11
76.824951
 21
107.750000
  0
LINE
  8
0
 62
     4
 10
73.824951
 20
126.750000
 11
76.824951
 21
126.750000
  0
LINE
  8
0
 62
     4
 10
77.324951
 20
128.750000
 11
108.324951
 21
128.750000
  0
LINE
  8
0
 62
     4
 10
77.324951
 20
128.750000
 11
77.324951
 21
127.750000
  0
LINE
  8
0
 62
     4
 10
77.325058
 20
128.750000
 11
78.325050
 21
130.750000
  0
LINE
  8
0
 62
     4
 10
107.324791
 20
130.749939
 11
108.324814
 21
128.749908
  0
LINE
  8
0
 62
     4
 10
103.574951
 20
129.450012
 11
98.074951
 21
129.450012
  0
LINE
  8
0
 62
     4
 10
98.074951
 20
129.450012
 11
98.074951
 21
128.750000
  0
LINE
  8
0
 62
     4
 10
103.574951
 20
129.450012
 11
103.574951
 21
128.750000
  0
LINE
  8
0
 62
     4
 10
101.574951
 20
131.450012
 11
100.074951
 21
131.450012
  0
LINE
  8
0
 62
     4
 10
78.324982
 20
130.750000
 11
98.555069
 21
130.750000
  0
LINE
  8
0
 62
     4
 10
72.824951
 20
125.750000
 11
72.824951
 21
108.750000
  0
LINE
  8
0
 62
     4
 10
96.824951
 20
130.750000
 11
96.824951
 21
128.750000
  0
LINE
  8
0
 62
     4
 10
104.824951
 20
130.750000
 11
104.824951
 21
128.750000
  0
LINE
  8
0
 62
     4
 10
81.574951
 20
131.450012
 11
80.074951
 21
131.450012
  0
LINE
  8
0
 62
     4
 10
103.094833
 20
130.750000
 11
107.324860
 21
130.750000
  0
LINE
  8
0
 62
     4
 10
108.324951
 20
-1.250000
 11
108.324951
 21
19.749998
  0
LINE
  8
0
 62
     4
 10
76.824951
 20
-0.250000
 11
108.324951
 21
-0.250000
  0
LINE
  8
0
 62
     4
 10
76.824951
 20
-0.250000
 11
76.824951
 21
19.750002
  0
LINE
  8
0
 62
     4
 10
73.824951
 20
0.750000
 11
76.824951
 21
0.750000
  0
LINE
  8
0
 62
     4
 10
77.324951
 20
-1.250000
 11
108.324951
 21
-1.250000
  0
LINE
  8
0
 62
     4
 10
77.324951
 20
-1.250000
 11
77.324951
 21
-0.250000
  0
LINE
  8
0
 62
     4
 10
77.324875
 20
-1.250042
 11
78.324875
 21
-3.250042
  0
LINE
  8
0
 62
     4
 10
84.824951
 20
-3.250000
 11
84.824951
 21
-1.250000
  0
LINE
  8
0
 62
     4
 10
107.324890
 20
-3.250006
 11
108.324913
 21
-1.249965
  0
LINE
  8
0
 62
     4
 10
83.574951
 20
-1.950012
 11
78.074951
 21
-1.950012
  0
LINE
  8
0
 62
     4
 10
78.074951
 20
-1.950012
 11
78.074951
 21
-1.250000
  0
LINE
  8
0
 62
     4
 10
83.574951
 20
-1.950012
 11
83.574951
 21
-1.250000
  0
LINE
  8
0
 62
     4
 10
81.574951
 20
-3.950012
 11
80.074951
 21
-3.950012
  0
LINE
  8
0
 62
     4
 10
101.574951
 20
-3.950012
 11
100.074951
 21
-3.950012
  0
LINE
  8
0
 62
     4
 10
83.094818
 20
-3.250000
 11
107.324860
 21
-3.250000
  0
LINE
  8
0
 62
     4
 10
72.824951
 20
1.750000
 11
72.824951
 21
18.750002
  0
LINE
  8
0
 62
     4
 10
78.324982
 20
-3.250000
 11
78.555069
 21
-3.250000
  0
LINE
  8
0
 10
110.324951
 20
103.250000
 11
150.324982
 21
103.250000
  0
LINE
  8
0
 10
150.324982
 20
149.749985
 11
150.324982
 21
102.249977
  0
LINE
  8
0
 10
92.324951
 20
166.649994
 11
92.324951
 21
142.849976
  0
LINE
  8
0
 10
134.224960
 20
154.749985
 11
134.224960
 21
149.749985
  0
LINE
  8
0
 10
122.324951
 20
149.750000
 11
150.324951
 21
149.750000
  0
LINE
  8
0
 10
92.324951
 20
142.849991
 11
110.324951
 21
142.849991
  0
LINE
  8
0
 10
92.324951
 20
166.649994
 11
122.324951
 21
166.649994
  0
LINE
  8
0
 10
110.324951
 20
154.749969
 11
110.324951
 21
102.249977
  0
LINE
  8
0
 10
122.324951
 20
166.649979
 11
122.324951
 21
149.749985
  0
LINE
  8
0
  6
CENTER
 62
     2
 10
80.959900
 20
154.749985
 11
140.081909
 21
154.749985
  0
LINE
  8
0
 10
83.324951
 20
167.278503
 11
88.324951
 21
167.278503
  0
LINE
  8
0
 10
83.324951
 20
142.221481
 11
88.324951
 21
142.221481
  0
LINE
  8
0
 10
83.324951
 20
167.278473
 11
83.324951
 21
142.221466
  0
LINE
  8
0
 10
88.324936
 20
167.278473
 11
88.324936
 21
142.221466
  0
LINE
  8
0
 10
83.324951
 20
165.213348
 11
88.324951
 21
165.213348
  0
LINE
  8
0
 10
83.324951
 20
162.396362
 11
88.324951
 21
162.396362
  0
LINE
  8
0
 10
83.324951
 20
161.014221
 11
88.324951
 21
161.014221
  0
LINE
  8
0
 10
83.324951
 20
158.250000
 11
88.324951
 21
158.250000
  0
LINE
  8
0
 10
83.324951
 20
157.749985
 11
88.324951
 21
157.749985
  0
LINE
  8
0
 10
83.324951
 20
151.749985
 11
88.324951
 21
151.749985
  0
LINE
  8
0
 10
83.324951
 20
151.249985
 11
88.324951
 21
151.249985
  0
LINE
  8
0
 10
83.324951
 20
148.485748
 11
88.324951
 21
148.485748
  0
LINE
  8
0
 10
83.324951
 20
147.103622
 11
88.324951
 21
147.103622
  0
LINE
  8
0
 10
83.324951
 20
144.286621
 11
88.324951
 21
144.286621
  0
LINE
  8
0
 10
83.324951
 20
143.603607
 11
88.324951
 21
143.603607
  0
LINE
  8
0
 10
83.324951
 20
165.896362
 11
88.324951
 21
165.896362
  0
LINE
  8
0
 10
89.524948
 20
144.394348
 11
89.524948
 21
165.105652
  0
LINE
  8
0
 10
89.524918
 20
144.394440
 11
92.324905
 21
144.481934
  0
LINE
  8
0
 10
88.324951
 20
145.518860
 11
89.524925
 21
145.556366
  0
LINE
  8
0
 10
88.324959
 20
163.981049
 11
89.524940
 21
163.943558
  0
LINE
  8
0
 10
89.524948
 20
165.105621
 11
92.324944
 21
165.018127
  0
LINE
  8
0
 62
     2
 10
89.524940
 20
163.943558
 11
92.324928
 21
163.856049
  0
LINE
  8
0
 62
     2
 10
89.524925
 20
145.556366
 11
92.324951
 21
145.643860
  0
LINE
  8
0
 10
110.324951
 20
110.750000
 11
150.324982
 21
110.750000
  0
LINE
  8
0
 10
69.824921
 20
88.749985
 11
69.824921
 21
49.349995
  0
LINE
  8
0
 10
71.324921
 20
90.249985
 11
71.324921
 21
71.749992
  0
LINE
  8
0
 10
73.324951
 20
90.249985
 11
71.324921
 21
90.249985
  0
LINE
  8
0
 10
71.324921
 20
45.250000
 11
69.824921
 21
45.250000
  0
LINE
  8
0
 10
71.324921
 20
50.250000
 11
69.824921
 21
50.250000
  0
LINE
  8
0
 10
73.324951
 20
71.750000
 11
69.824921
 21
71.750000
  0
LINE
  8
0
 10
73.324951
 20
65.750000
 11
69.824921
 21
65.750000
  0
LINE
  8
0
 10
73.324951
 20
37.250000
 11
71.324921
 21
37.250000
  0
LINE
  8
0
 10
71.324959
 20
37.250023
 11
69.824936
 21
38.750027
  0
LINE
  8
0
 10
71.324829
 20
90.249992
 11
69.824867
 21
88.750015
  0
LINE
  8
0
 10
71.324921
 20
65.749992
 11
71.324921
 21
37.250000
  0
LINE
  8
0
 10
71.656708
 20
71.499985
 11
73.324951
 21
71.499985
  0
LINE
  8
0
 10
72.624969
 20
65.999992
 11
72.624969
 21
71.499985
  0
LINE
  8
0
 10
70.624939
 20
67.749985
 11
70.624939
 21
69.749992
  0
LINE
  8
0
 10
71.656708
 20
66.000000
 11
73.324951
 21
66.000000
  0
LINE
  8
0
 10
71.324921
 20
45.500000
 11
71.324921
 21
49.999992
  0
LINE
  8
0
 10
70.437531
 20
45.500000
 11
71.324921
 21
45.500000
  0
LINE
  8
0
 10
70.437500
 20
50.000000
 11
71.324921
 21
50.000000
  0
LINE
  8
0
 10
69.624939
 20
46.949997
 11
69.624939
 21
48.549995
  0
LINE
  8
0
 10
69.824921
 20
46.150005
 11
69.824921
 21
38.750004
  0
LINE
  8
0
 10
152.324951
 20
33.750000
 11
110.324951
 21
33.750000
  0
LINE
  8
0
 10
110.324951
 20
92.750000
 11
144.324951
 21
92.750000
  0
LINE
  8
0
 10
152.324951
 20
101.250000
 11
144.324951
 21
101.250000
  0
LINE
  8
0
 10
-24.675018
 20
-104.750000
 11
-1.675018
 21
-104.750000
  0
LINE
  8
0
 10
-33.675049
 20
-148.750000
 11
9.324982
 21
-148.750000
  0
LINE
  8
0
 10
-27.675049
 20
-106.750000
 11
3.324982
 21
-106.750000
  0
LINE
  8
0
  6
CENTER
 62
     2
 10
-13.175018
 20
-58.011871
 11
-13.175018
 21
-161.471436
  0
LINE
  8
0
 10
-1.175018
 20
-105.750031
 11
-1.175018
 21
-106.750031
  0
LINE
  8
0
 10
-25.175018
 20
-105.750031
 11
-25.175018
 21
-106.750031
  0
LINE
  8
0
 10
-33.675049
 20
-140.750000
 11
-25.175049
 21
-140.750000
  0
LINE
  8
0
 10
-25.175049
 20
-105.750000
 11
-1.175049
 21
-105.750000
  0
LINE
  8
0
  6
CENTER
 62
     2
 10
-29.175049
 20
-136.635010
 11
-29.175049
 21
-152.811783
  0
LINE
  8
0
  6
CENTER
 62
     2
 10
4.824951
 20
-136.635010
 11
4.824951
 21
-152.982056
  0
LINE
  8
0
 10
-24.675018
 20
-104.750000
 11
-24.675018
 21
-105.750000
  0
LINE
  8
0
 10
-1.675018
 20
-104.750000
 11
-1.675018
 21
-105.750000
  0
LINE
  8
0
 62
     4
 10
-24.675018
 20
-69.750000
 11
-1.675018
 21
-69.750000
  0
LINE
  8
0
 62
     4
 10
-24.675018
 20
-104.750000
 11
-1.675018
 21
-104.750000
  0
LINE
  8
0
 62
     4
 10
-5.175018
 20
-80.250000
 11
-1.675018
 21
-80.250000
  0
LINE
  8
0
 62
     4
 10
-24.675018
 20
-94.250000
 11
-21.175018
 21
-94.250000
  0
LINE
  8
0
 62
     4
 10
-24.675018
 20
-100.250000
 11
-21.175018
 21
-100.250000
  0
LINE
  8
0
 62
     4
 10
-23.175018
 20
-66.250000
 11
-3.175018
 21
-66.250000
  0
LINE
  8
0
 62
     4
 10
-24.675018
 20
-67.750000
 11
-1.675018
 21
-67.750000
  0
LINE
  8
0
 62
     4
 10
-3.174978
 20
-66.249939
 11
-1.674966
 21
-67.749954
  0
LINE
  8
0
 62
     4
 10
-24.674910
 20
-67.750107
 11
-23.174915
 21
-66.250114
  0
LINE
  8
0
 62
     4
 10
-22.263527
 20
-98.338715
 11
-20.207808
 21
-96.282990
  0
LINE
  8
0
 62
     4
 10
-22.335787
 20
-96.089233
 11
-20.144064
 21
-98.280960
  0
LINE
  8
0
 62
     4
 10
-6.263508
 20
-78.338753
 11
-4.207778
 21
-76.283028
  0
LINE
  8
0
 62
     4
 10
-6.335781
 20
-76.089203
 11
-4.144048
 21
-78.280937
  0
LINE
  8
0
 62
     4
 10
-24.675018
 20
-104.750000
 11
-1.675018
 21
-104.750000
  0
LINE
  8
0
 62
     4
 10
-23.675018
 20
-103.750000
 11
-2.675018
 21
-103.750000
  0
LINE
  8
0
 62
     4
 10
-24.675018
 20
-73.750000
 11
-1.675018
 21
-73.750000
  0
LINE
  8
0
 62
     4
 10
-23.675018
 20
-74.750000
 11
-8.175018
 21
-74.750000
  0
LINE
  8
0
 62
     4
 10
-24.675018
 20
-67.750000
 11
-24.675018
 21
-104.750000
  0
LINE
  8
0
 62
     4
 10
-1.675018
 20
-104.750000
 11
-1.675018
 21
-67.750000
  0
LINE
  8
0
 62
     4
 10
-2.675018
 20
-103.750000
 11
-2.675018
 21
-80.250000
  0
LINE
  8
0
 62
     4
 10
-23.675018
 20
-74.750000
 11
-23.675018
 21
-94.250000
  0
LINE
  8
0
 62
     4
 10
-24.675119
 20
-104.749931
 11
-23.675119
 21
-103.749924
  0
LINE
  8
0
 62
     4
 10
-1.675023
 20
-104.750023
 11
-2.675022
 21
-103.750015
  0
LINE
  8
0
 62
     4
 10
-24.675022
 20
-73.750015
 11
-23.675022
 21
-74.750023
  0
LINE
  8
0
 62
     4
 10
-8.175018
 20
-77.250000
 11
-8.175018
 21
-73.750000
  0
LINE
  8
0
 62
     4
 10
-23.675018
 20
-100.250000
 11
-23.675018
 21
-103.750000
  0
LINE
  8
0
 10
-33.675049
 20
-112.750000
 11
-33.675049
 21
-148.750000
  0
LINE
  8
0
 10
9.324982
 20
-112.750000
 11
9.324982
 21
-148.750000
  0
LINE
  8
0
 10
-25.175049
 20
-106.750000
 11
-25.175049
 21
-140.750000
  0
LINE
  8
0
 10
-33.674835
 20
-112.750229
 11
-27.674839
 21
-106.750229
  0
LINE
  8
0
 10
9.324973
 20
-112.750031
 11
3.324968
 21
-106.750023
  0
LINE
  8
0
 10
69.304474
 20
-105.750000
 11
69.304474
 21
-174.250000
  0
LINE
  8
0
 10
112.304474
 20
-105.750000
 11
112.304474
 21
-174.250000
  0
LINE
  8
0
 10
69.304474
 20
-174.250000
 11
112.304474
 21
-174.250000
  0
LINE
  8
0
 10
69.304474
 20
-105.750000
 11
112.304474
 21
-105.750000
  0
LINE
  8
0
  6
CENTER
 62
     2
 10
72.304474
 20
-164.250000
 11
87.304474
 21
-164.250000
  0
LINE
  8
0
  6
CENTER
 62
     2
 10
79.804474
 20
-156.750000
 11
79.804474
 21
-171.750000
  0
LINE
  8
0
  6
CENTER
 62
     2
 10
103.804474
 20
-148.250000
 11
103.804474
 21
-163.250000
  0
LINE
  8
0
  6
CENTER
 62
     2
 10
96.304474
 20
-155.750000
 11
111.304474
 21
-155.750000
  0
LINE
  8
0
  6
CENTER
 62
     2
 10
103.804474
 20
-125.250000
 11
103.804474
 21
-140.250000
  0
LINE
  8
0
  6
CENTER
 62
     2
 10
96.304474
 20
-132.750000
 11
111.304474
 21
-132.750000
  0
LINE
  8
0
  6
CENTER
 62
     2
 10
79.804474
 20
-116.750000
 11
79.804474
 21
-131.750000
  0
LINE
  8
0
  6
CENTER
 62
     2
 10
72.304474
 20
-124.250000
 11
87.304474
 21
-124.250000
  0
LINE
  8
0
  6
CENTER
 62
     2
 10
79.804474
 20
-136.750000
 11
79.804474
 21
-151.750000
  0
LINE
  8
0
  6
CENTER
 62
     2
 10
72.304474
 20
-144.250000
 11
87.304474
 21
-144.250000
  0
LINE
  8
0
  6
CENTER
 62
     2
 10
94.304474
 20
-115.750000
 11
94.304474
 21
-122.750000
  0
LINE
  8
0
  6
CENTER
 62
     2
 10
90.804474
 20
-119.250000
 11
97.804474
 21
-119.250000
  0
LINE
  8
0
 10
69.304474
 20
-106.750000
 11
112.304474
 21
-106.750000
  0
LINE
  8
0
  6
CENTER
 62
     2
 10
69.804474
 20
-111.250000
 11
77.804474
 21
-111.250000
  0
LINE
  8
0
  6
CENTER
 62
     2
 10
103.804474
 20
-169.750000
 11
111.804474
 21
-169.750000
  0
LINE
  8
0
  6
CENTER
 62
     2
 10
107.804474
 20
-165.750000
 11
107.804474
 21
-173.750000
  0
LINE
  8
0
  6
CENTER
 62
     2
 10
73.804474
 20
-107.250000
 11
73.804474
 21
-115.250000
  0
LINE
  8
0
 10
105.554474
 20
-105.750000
 11
78.054474
 21
-105.750000
  0
LINE
  8
0
  6
CENTER
 62
     2
 10
111.161285
 20
-53.250000
 11
72.436829
 21
-53.250000
  0
LINE
  8
0
 10
105.554474
 20
-104.750000
 11
78.054474
 21
-104.750000
  0
LINE
  8
0
 10
78.054474
 20
-53.250000
 11
78.054474
 21
-105.750008
  0
LINE
  8
0
 10
105.554474
 20
-58.250000
 11
105.554474
 21
-105.750008
  0
LINE
  8
0
  6
CENTER
 62
     2
 10
89.954483
 20
-30.770264
 11
89.954483
 21
-67.785110
  0
LINE
  8
0
 10
105.554459
 20
-58.250000
 11
78.054474
 21
-58.250000
  0
LINE
  8
0
 10
102.804474
 20
-47.750000
 11
102.804474
 21
-58.250000
  0
LINE
  8
0
 10
102.804474
 20
-47.750000
 11
100.804474
 21
-47.750000
  0
LINE
  8
0
 10
79.104462
 20
-46.985764
 11
79.104462
 21
-48.362526
  0
LINE
  8
0
 10
89.954498
 20
-40.721420
 11
88.762184
 21
-41.409805
  0
LINE
  8
0
 10
80.296791
 20
-46.297379
 11
79.104477
 21
-46.985767
  0
LINE
  8
0
 10
100.804428
 20
-46.985813
 11
99.612061
 21
-46.297401
  0
LINE
  8
0
 10
91.146767
 20
-41.409973
 11
89.954422
 21
-40.721569
  0
LINE
  8
0
 10
100.804474
 20
-48.362526
 11
100.804474
 21
-46.985733
  0
LINE
  8
0
 10
105.554474
 20
-97.250000
 11
78.054474
 21
-97.250000
  0
LINE
  8
0
 10
101.854462
 20
-53.250000
 11
101.854462
 21
-58.250000
  0
LINE
  8
0
 10
78.054474
 20
-53.250000
 11
101.854462
 21
-53.250000
  0
ARC
  8
0
 10
-22.175049
 20
69.250000
 40
3.000000
 50
179.600311
 51
180.000000
  0
ARC
  8
0
 10
-22.175049
 20
69.750000
 40
3.000000
 50
177.494873
 51
180.000000
  0
CIRCLE
  8
0
 10
-13.175049
 20
23.250000
 40
2.299999
  0
CIRCLE
  8
0
 10
-13.175049
 20
23.250000
 40
1.500000
  0
CIRCLE
  8
0
 10
-13.175049
 20
104.250000
 40
2.299999
  0
CIRCLE
  8
0
 10
-13.175049
 20
104.250000
 40
1.500000
  0
ARC
  8
0
 10
-22.175049
 20
68.250000
 40
3.000000
 50
179.600311
 51
180.000000
  0
ARC
  8
0
 10
-22.175049
 20
68.750000
 40
3.000000
 50
177.494873
 51
180.000000
  0
ARC
  8
0
 10
-22.175049
 20
68.750000
 40
3.000001
 50
177.559631
 51
180.000000
  0
ARC
  8
0
 10
-4.175049
 20
69.249985
 40
3.000000
 50
0.000000
 51
0.399688
  0
ARC
  8
0
 10
-4.175049
 20
69.749992
 40
3.000000
 50
0.000000
 51
2.505128
  0
ARC
  8
0
 10
-4.175049
 20
68.249985
 40
3.000000
 50
0.000000
 51
0.399688
  0
ARC
  8
0
 10
-4.175049
 20
68.749985
 40
3.000000
 50
0.000000
 51
2.505128
  0
ARC
  8
0
 10
-4.175049
 20
68.749985
 40
3.000000
 50
0.000000
 51
2.440372
  0
CIRCLE
  8
0
 10
4.824951
 20
96.750000
 40
2.250000
  0
ARC
  8
0
 10
1.824966
 20
93.750000
 40
1.000000
 50
180.000000
 51
270.000031
  0
CIRCLE
  8
0
 10
-29.175049
 20
38.250000
 40
2.250000
  0
ARC
  8
0
 10
-26.175049
 20
41.750000
 40
1.000000
 50
0.000000
 51
90.000000
  0
ARC
  8
0
 10
-22.175049
 20
76.749992
 40
3.000000
 50
0.000000
 51
90.000000
  0
ARC
  8
0
 10
-22.175049
 20
50.749992
 40
3.000000
 50
0.000000
 51
90.000000
  0
ARC
  8
0
 10
-4.675049
 20
43.750000
 40
2.500000
 50
89.999977
 51
270.000000
  0
ARC
  8
0
 10
-21.675049
 20
83.749985
 40
2.500000
 50
0.000000
 51
90.000000
  0
ARC
  8
0
 10
-22.175049
 20
50.749992
 40
3.000000
 50
270.000000
 51
0.000000
  0
ARC
  8
0
 10
-22.175049
 20
76.749992
 40
3.000000
 50
270.000000
 51
0.000000
  0
ARC
  8
0
 10
-4.175049
 20
68.749992
 40
3.000000
 50
89.999985
 51
270.000000
  0
ARC
  8
0
 10
-21.675049
 20
83.749985
 40
2.500000
 50
270.000000
 51
0.000000
  0
CIRCLE
  8
0
 10
-22.175049
 20
50.749992
 40
2.500000
  0
CIRCLE
  8
0
 10
-22.175049
 20
76.749992
 40
2.500000
  0
CIRCLE
  8
0
 10
-4.175049
 20
68.749992
 40
2.500000
  0
CIRCLE
  8
0
 10
-4.675049
 20
43.750000
 40
2.250000
  0
CIRCLE
  8
0
 10
-21.675049
 20
83.749985
 40
2.250000
  0
ARC
  8
0
 62
     4
 10
-21.925049
 20
129.450012
 40
2.000000
 50
90.000000
 51
180.000000
  0
ARC
  8
0
 62
     4
 10
-20.425049
 20
129.450012
 40
2.000000
 50
0.000000
 51
90.000000
  0
ARC
  8
0
 62
     4
 10
-5.925049
 20
129.450012
 40
2.000000
 50
89.999985
 51
139.458344
  0
ARC
  8
0
 62
     4
 10
-4.425049
 20
129.450012
 40
2.000000
 50
89.999985
 51
95.183655
  0
ARC
  8
0
 62
     4
 10
-4.425049
 20
129.450012
 40
2.000002
 50
40.541664
 51
89.999985
  0
ARC
  8
0
 62
     4
 10
-4.425049
 20
-0.750015
 40
2.000000
 50
270.000000
 51
0.000000
  0
ARC
  8
0
 62
     4
 10
-5.925049
 20
-0.750015
 40
2.000000
 50
180.000000
 51
270.000000
  0
ARC
  8
0
 62
     4
 10
-20.425049
 20
-0.750008
 40
2.000000
 50
270.000000
 51
319.458435
  0
ARC
  8
0
 62
     4
 10
-21.925049
 20
-0.750008
 40
2.000000
 50
270.000000
 51
275.183685
  0
ARC
  8
0
 62
     4
 10
-21.925049
 20
-0.750008
 40
2.000000
 50
220.541595
 51
270.000000
  0
ARC
  8
0
 10
-11.325012
 20
154.750000
 40
11.900003
 50
35.750561
 51
84.249496
  0
ARC
  8
0
 10
-11.325012
 20
154.750000
 40
10.477500
 50
351.052155
 51
8.947940
  0
CIRCLE
  8
0
 10
-11.325027
 20
154.750000
 40
5.000000
  0
CIRCLE
  8
0
 10
-11.325027
 20
154.750000
 40
7.500000
  0
ARC
  8
0
 10
-11.325012
 20
154.750000
 40
10.477497
 50
231.052429
 51
248.947571
  0
ARC
  8
0
 10
-11.325012
 20
154.750000
 40
10.477501
 50
291.052368
 51
308.947632
  0
ARC
  8
0
 10
-11.325012
 20
154.750000
 40
10.477503
 50
111.052414
 51
128.947617
  0
ARC
  8
0
 10
-11.325012
 20
154.750000
 40
10.477500
 50
171.052658
 51
188.947266
  0
ARC
  8
0
 10
-11.325012
 20
154.750000
 40
10.477505
 50
51.053043
 51
68.946991
  0
ARC
  8
0
 10
-11.325012
 20
154.750000
 40
11.900003
 50
95.750496
 51
144.249527
  0
ARC
  8
0
 10
-11.325012
 20
154.750000
 40
11.900001
 50
155.750549
 51
204.249374
  0
ARC
  8
0
 10
-11.325012
 20
154.750000
 40
11.900001
 50
215.750381
 51
264.249634
  0
ARC
  8
0
 10
-11.325012
 20
154.750000
 40
11.900001
 50
275.750397
 51
324.249634
  0
ARC
  8
0
 10
-11.325012
 20
154.750000
 40
11.900002
 50
335.750214
 51
24.249771
  0
CIRCLE
  8
0
 62
     2
 10
-152.675018
 20
53.250000
 40
6.578500
  0
CIRCLE
  8
0
 10
-152.675018
 20
53.250000
 40
5.722500
  0
CIRCLE
  8
0
 62
     2
 10
-152.675018
 20
74.250000
 40
6.578500
  0
CIRCLE
  8
0
 10
-152.675018
 20
74.250000
 40
5.722500
  0
CIRCLE
  8
0
 62
     2
 10
-163.675018
 20
88.750000
 40
4.864000
  0
CIRCLE
  8
0
 10
-163.675018
 20
88.750000
 40
4.278000
  0
ARC
  8
0
 62
     4
 10
-102.925049
 20
129.450012
 40
2.000000
 50
90.000000
 51
180.000000
  0
ARC
  8
0
 62
     4
 10
-101.425049
 20
129.450012
 40
2.000000
 50
0.000000
 51
90.000000
  0
ARC
  8
0
 62
     4
 10
-122.925049
 20
129.450012
 40
2.000000
 50
90.000000
 51
139.458298
  0
ARC
  8
0
 62
     4
 10
-121.425049
 20
129.450012
 40
2.000003
 50
40.788296
 51
90.000000
  0
ARC
  8
0
 62
     4
 10
-95.175049
 20
125.750000
 40
1.000000
 50
0.000000
 51
90.000000
  0
ARC
  8
0
 62
     4
 10
-95.175049
 20
108.750000
 40
1.000000
 50
270.000000
 51
0.000000
  0
ARC
  8
0
 62
     4
 10
-122.925049
 20
-1.950012
 40
2.000000
 50
180.000000
 51
270.000000
  0
ARC
  8
0
 62
     4
 10
-121.425049
 20
-1.950012
 40
2.000000
 50
270.000000
 51
0.000000
  0
ARC
  8
0
 62
     4
 10
-95.175049
 20
1.750000
 40
1.000000
 50
270.000000
 51
0.000000
  0
ARC
  8
0
 62
     4
 10
-95.175049
 20
18.749998
 40
1.000000
 50
0.000000
 51
90.000000
  0
ARC
  8
0
 62
     4
 10
-102.925049
 20
-1.950012
 40
2.000002
 50
220.541061
 51
270.000000
  0
ARC
  8
0
 62
     4
 10
-101.425049
 20
-1.950012
 40
2.000000
 50
270.000000
 51
319.458984
  0
ARC
  8
0
 10
-143.675034
 20
154.750031
 40
11.899994
 50
90.000000
 51
180.000000
  0
ARC
  8
0
 10
-134.675049
 20
161.480301
 40
3.000466
 50
358.990326
 51
181.009964
  0
ARC
  8
0
 10
-111.302826
 20
154.750015
 40
21.182205
 50
164.950592
 51
180.000000
  0
ARC
  8
0
 10
-158.047241
 20
154.750000
 40
21.182205
 50
0.000000
 51
15.049409
  0
ARC
  8
0
 10
-93.975067
 20
77.750000
 40
2.000000
 50
0.000000
 51
61.044472
  0
ARC
  8
0
 10
-93.975067
 20
75.749985
 40
2.000001
 50
298.955536
 51
0.000000
  0
ARC
  8
0
 10
-93.059906
 20
74.199997
 40
0.199997
 50
270.000000
 51
300.556305
  0
ARC
  8
0
 10
-93.975067
 20
51.750000
 40
2.000000
 50
0.000000
 51
61.044472
  0
ARC
  8
0
 10
-93.975067
 20
49.750000
 40
2.000001
 50
298.955536
 51
0.000000
  0
ARC
  8
0
 10
-93.059906
 20
48.200012
 40
0.200001
 50
270.000000
 51
300.556305
  0
ARC
  8
0
 10
-92.675018
 20
84.549988
 40
1.699997
 50
0.000000
 51
58.533295
  0
ARC
  8
0
 10
-92.675018
 20
82.949982
 40
1.699998
 50
301.467072
 51
0.000000
  0
CIRCLE
  8
0
 62
     2
 10
131.324951
 20
43.750000
 40
6.578500
  0
CIRCLE
  8
0
 10
131.324951
 20
43.750000
 40
5.722500
  0
CIRCLE
  8
0
 62
     2
 10
124.824951
 20
63.750000
 40
6.578500
  0
CIRCLE
  8
0
 10
124.824951
 20
63.750000
 40
5.722500
  0
CIRCLE
  8
0
 62
     2
 10
131.324951
 20
83.750000
 40
6.578500
  0
CIRCLE
  8
0
 10
131.324951
 20
83.750000
 40
5.722500
  0
ARC
  8
0
 62
     4
 10
101.574951
 20
129.450012
 40
2.000000
 50
0.000000
 51
90.000000
  0
ARC
  8
0
 62
     4
 10
100.074951
 20
129.450012
 40
2.000000
 50
90.000000
 51
180.000000
  0
ARC
  8
0
 62
     4
 10
73.824951
 20
125.750000
 40
1.000000
 50
90.000000
 51
180.000000
  0
ARC
  8
0
 62
     4
 10
73.824951
 20
108.750000
 40
1.000000
 50
180.000000
 51
270.000000
  0
ARC
  8
0
 62
     4
 10
81.574951
 20
129.450012
 40
2.000003
 50
40.541080
 51
90.000000
  0
ARC
  8
0
 62
     4
 10
80.074951
 20
129.450012
 40
2.000000
 50
90.000000
 51
139.458923
  0
ARC
  8
0
 62
     4
 10
81.574951
 20
-1.950012
 40
2.000000
 50
270.000000
 51
0.000000
  0
ARC
  8
0
 62
     4
 10
80.074951
 20
-1.950012
 40
2.000000
 50
179.999985
 51
270.000000
  0
ARC
  8
0
 62
     4
 10
101.574951
 20
-1.950012
 40
2.000000
 50
270.000000
 51
319.458313
  0
ARC
  8
0
 62
     4
 10
100.074951
 20
-1.950012
 40
2.000000
 50
220.788208
 51
270.000000
  0
ARC
  8
0
 62
     4
 10
73.824951
 20
1.750000
 40
1.000000
 50
180.000000
 51
270.000000
  0
ARC
  8
0
 62
     4
 10
73.824951
 20
18.750002
 40
1.000000
 50
90.000000
 51
180.000000
  0
ARC
  8
0
 10
122.324951
 20
154.749985
 40
11.899994
 50
0.000000
 51
90.000000
  0
ARC
  8
0
 10
72.624969
 20
67.749985
 40
2.000000
 50
180.000000
 51
241.044662
  0
ARC
  8
0
 10
72.624969
 20
69.750000
 40
2.000001
 50
118.955528
 51
180.000000
  0
ARC
  8
0
 10
71.709808
 20
71.299988
 40
0.199997
 50
90.000000
 51
120.556305
  0
ARC
  8
0
 10
71.324921
 20
46.950012
 40
1.699997
 50
180.000000
 51
238.533295
  0
ARC
  8
0
 10
71.324921
 20
48.549988
 40
1.700002
 50
121.467278
 51
180.000000
  0
ARC
  8
0
 62
     4
 10
-21.175018
 20
-97.250000
 40
3.000000
 50
0.000000
 51
90.000000
  0
ARC
  8
0
 62
     4
 10
-5.175018
 20
-77.250000
 40
3.000000
 50
180.000000
 51
270.000031
  0
ARC
  8
0
 62
     4
 10
-21.175018
 20
-97.250000
 40
3.000000
 50
270.000000
 51
0.000000
  0
CIRCLE
  8
0
 62
     4
 10
-5.175018
 20
-77.250000
 40
2.750000
  0
CIRCLE
  8
0
 62
     4
 10
-21.175018
 20
-97.250000
 40
2.750000
  0
CIRCLE
  8
0
 62
     2
 10
103.804474
 20
-132.750000
 40
6.578500
  0
CIRCLE
  8
0
 10
103.804474
 20
-132.750000
 40
5.722500
  0
CIRCLE
  8
0
 10
79.804474
 20
-164.250000
 40
5.722500
  0
CIRCLE
  8
0
 62
     2
 10
79.804474
 20
-164.250000
 40
6.578500
  0
CIRCLE
  8
0
 10
79.804474
 20
-144.250000
 40
5.722500
  0
CIRCLE
  8
0
 62
     2
 10
79.804474
 20
-144.250000
 40
6.578500
  0
CIRCLE
  8
0
 10
79.804474
 20
-124.250000
 40
5.722500
  0
CIRCLE
  8
0
 62
     2
 10
79.804474
 20
-124.250000
 40
6.578500
  0
CIRCLE
  8
0
 10
103.804474
 20
-155.750000
 40
5.722500
  0
CIRCLE
  8
0
 62
     2
 10
103.804474
 20
-155.750000
 40
6.578500
  0
CIRCLE
  8
0
 62
     2
 10
94.304474
 20
-119.250000
 40
2.500000
  0
CIRCLE
  8
0
 10
94.304474
 20
-119.250000
 40
2.100000
  0
CIRCLE
  8
0
 10
73.804474
 20
-111.250000
 40
2.250000
  0
CIRCLE
  8
0
 10
107.804474
 20
-169.750000
 40
2.250000
  0
ARC
  8
0
 10
89.954468
 20
-53.250000
 40
11.900002
 50
359.999969
 51
179.999985
  0
TEXT
  8
0
 10
174.200241
 20
180.830002
 40
6.300000
  1
DATE: NOV ,1993
 50
0.000000
 41
1.052632
 51
0.000000
  7
STANDARD
  0
TEXT
  8
0
 10
167.564667
 20
-192.100006
 40
9.000000
  1
KOGANEI CORP.
 50
0.000000
 41
1.052632
 51
0.000000
  7
STANDARD
  0
TEXT
  8
0
 10
-234.499725
 20
180.830002
 40
6.300000
  1
W240
 50
0.000000
 41
1.052632
 51
0.000000
  7
STANDARD
  0
TEXT
  8
0
 10
-270.049713
 20
155.830002
 40
6.300000
  1
MODEL:W240-4E2-26
 50
0.000000
 41
1.052632
 51
0.000000
  7
STANDARD
  0
TEXT
  8
0
 10
106.740631
 20
-77.713760
 40
6.300000
  1
(-28)
 50
0.000000
 41
1.052632
 51
0.000000
  7
STANDARD
  0
TEXT
  8
0
 10
-165.875046
 20
75.928436
 40
3.000000
  1
A
 50
-90.000000
 41
1.052631
 51
0.000000
  7
STANDARD
  0
TEXT
  8
0
 10
-156.875046
 20
91.928436
 40
3.000000
  1
PR
 50
-90.000000
 41
1.052631
 51
0.000000
  7
STANDARD
  0
TEXT
  8
0
 10
-165.875046
 20
54.928436
 40
3.000000
  1
B
 50
-90.000000
 41
1.052631
 51
0.000000
  7
STANDARD
  0
TEXT
  8
0
 10
144.524948
 20
40.571564
 40
3.000000
  1
R2
 50
90.000000
 41
1.052631
 51
0.000000
  7
STANDARD
  0
TEXT
  8
0
 10
138.024948
 20
62.071564
 40
3.000000
  1
P
 50
90.000000
 41
1.052631
 51
0.000000
  7
STANDARD
  0
TEXT
  8
0
 10
144.524948
 20
80.571564
 40
3.000000
  1
R1
 50
90.000000
 41
1.052631
 51
0.000000
  7
STANDARD
  0
TEXT
  8
0
 10
105.747475
 20
-126.629997
 40
3.200000
  1
A
 50
0.000000
 41
1.052632
 51
0.000000
  7
STANDARD
  0
TEXT
  8
0
 10
105.747475
 20
-165.630005
 40
3.200000
  1
B
 50
0.000000
 41
1.052632
 51
0.000000
  7
STANDARD
  0
TEXT
  8
0
 10
77.997475
 20
-117.129997
 40
3.200000
  1
R
 50
0.000000
 41
1.052632
 51
0.000000
  7
STANDARD
  0
TEXT
  8
0
 10
77.997475
 20
-157.130005
 40
3.200000
  1
R
 50
0.000000
 41
1.052632
 51
0.000000
  7
STANDARD
  0
TEXT
  8
0
 10
77.997475
 20
-137.130005
 40
3.200000
  1
P
 50
0.000000
 41
1.052632
 51
0.000000
  7
STANDARD
  0
TEXT
  8
0
 10
91.184471
 20
-122.656998
 40
3.200000
  1
PR
 50
90.000000
 41
1.052632
 51
0.000000
  7
STANDARD
  0
ENDSEC
  0
EOF
