  0
SECTION
  2
HEADER
  0
ENDSEC
  0
SECTION
  2
TABLES
  0
TABLE
  2
LTYPE
 70
     4
  0
LTYPE
  2
CONTINUOUS
 70
    64
  3
Solid line
 72
    65
 73
     0
 40
0.000000
  0
LTYPE
  2
DASHED
 70
    64
  3
__ __ __ __ __ __ __ __ __ __ __ __ __ __ __
 72
    65
 73
     2
 40
3.500000
 49
2.000000
 49
-1.500000
  0
LTYPE
  2
CENTER
 70
    64
  3
____ _ ____ _ ____ _ ____ _ ____ _ ____ _ ____
 72
    65
 73
     4
 40
17.500000
 49
13.000000
 49
-1.500000
 49
1.500000
 49
-1.500000
  0
LTYPE
  2
PHANTOM
 70
    64
  3
_____ _ _ _____ _ _ _____ _ _ _____ _ _ ____  
 72
    65
 73
     6
 40
15.500000
 49
8.000000
 49
-1.500000
 49
1.500000
 49
-1.500000
 49
1.500000
 49
-1.500000
  0
LTYPE
  2
DASHED1
 70
    64
  3
__ __ __ __ __ __ __ __ __ __ __ __ __ __ __
 72
    65
 73
     2
 40
1.500000
 49
1.000000
 49
-0.500000
  0
LTYPE
  2
DASHED2
 70
    64
  3
__ __ __ __ __ __ __ __ __ __ __ __ __ __ __
 72
    65
 73
     2
 40
3.500000
 49
2.500000
 49
-1.000000
  0
LTYPE
  2
DASHED3
 70
    64
  3
__ __ __ __ __ __ __ __ __ __ __ __ __ __ __
 72
    65
 73
     2
 40
6.000000
 49
4.000000
 49
-2.000000
  0
LTYPE
  2
DASHED4
 70
    64
  3
__ __ __ __ __ __ __ __ __ __ __ __ __ __ __
 72
    65
 73
     2
 40
12.000000
 49
10.000000
 49
-2.000000
  0
LTYPE
  2
DASHED5
 70
    64
  3
__ __ __ __ __ __ __ __ __ __ __ __ __ __ __
 72
    65
 73
     2
 40
17.000000
 49
15.000000
 49
-2.000000
  0
LTYPE
  2
DASHED6
 70
    64
  3
__ __ __ __ __ __ __ __ __ __ __ __ __ __ __
 72
    65
 73
     2
 40
29.000000
 49
27.000000
 49
-2.000000
  0
LTYPE
  2
PHANTOM1
 70
    64
  3
_____ _ _ _____ _ _ _____ _ _ _____ _ _ ____  
 72
    65
 73
     6
 40
31.000000
 49
25.000000
 49
-1.500000
 49
1.000000
 49
-1.000000
 49
1.000000
 49
-1.500000
  0
LTYPE
  2
PHANTOM2
 70
    64
  3
_____ _ _ _____ _ _ _____ _ _ _____ _ _ ____  
 72
    65
 73
     6
 40
36.000000
 49
27.000000
 49
-1.500000
 49
2.500000
 49
-1.000000
 49
2.500000
 49
-1.500000
  0
LTYPE
  2
PHANTOM3
 70
    64
  3
_____ _ _ _____ _ _ _____ _ _ _____ _ _ ____  
 72
    65
 73
     6
 40
78.000000
 49
64.000000
 49
-2.000000
 49
4.000000
 49
-2.000000
 49
4.000000
 49
-2.000000
  0
LTYPE
  2
CENTER1
 70
    64
  3
____ _ ____ _ ____ _ ____ _ ____ _ ____ _ ____
 72
    65
 73
     4
 40
19.000000
 49
14.000000
 49
-1.000000
 49
3.000000
 49
-1.000000
  0
LTYPE
  2
CENTER2
 70
    64
  3
____ _ ____ _ ____ _ ____ _ ____ _ ____ _ ____
 72
    65
 73
     4
 40
28.500000
 49
25.000000
 49
-1.000000
 49
1.500000
 49
-1.000000
  0
LTYPE
  2
CENTER3
 70
    64
  3
____ _ ____ _ ____ _ ____ _ ____ _ ____ _ ____
 72
    65
 73
     4
 40
31.500000
 49
27.000000
 49
-1.000000
 49
2.500000
 49
-1.000000
  0
LTYPE
  2
CENTER4
 70
    64
  3
____ _ ____ _ ____ _ ____ _ ____ _ ____ _ ____
 72
    65
 73
     4
 40
50.000000
 49
45.000000
 49
-1.000000
 49
3.000000
 49
-1.000000
  0
LTYPE
  2
CENTER5
 70
    64
  3
____ _ ____ _ ____ _ ____ _ ____ _ ____ _ ____
 72
    65
 73
     4
 40
100.000000
 49
92.000000
 49
-2.000000
 49
4.000000
 49
-2.000000
  0
LTYPE
  2
SBK1
 70
    64
  3
______ _ _ _ ______ _ _ _ ______ _ _ _ _____  
 72
    65
 73
     8
 40
60.500000
 49
45.000000
 49
-2.000000
 49
2.500000
 49
-2.000000
 49
2.500000
 49
-2.000000
 49
2.500000
 49
-2.000000
  0
LTYPE
  2
SBK2
 70
    64
  3
______ _ _ _ ______ _ _ _ ______ _ _ _ _____  
 72
    65
 73
     8
 40
84.000000
 49
64.000000
 49
-2.000000
 49
4.000000
 49
-2.000000
 49
4.000000
 49
-2.000000
 49
4.000000
 49
-2.000000
  0
LTYPE
  2
STCH
 70
    64
  3
__ __ __ __ __ __ __ __ __ __ __ __ __ __ __
 72
    65
 73
     2
 40
3.000000
 49
1.000000
 49
-2.000000
  0
LTYPE
  2
MTCH
 70
    64
  3
_____ _ _ _____ _ _ _____ _ _ _____ _ _ ____  
 72
    65
 73
     6
 40
80.000000
 49
66.000000
 49
-2.000000
 49
4.000000
 49
-2.000000
 49
4.000000
 49
-2.000000
  0
ENDTAB
  0
TABLE
  2
LAYER
 70
     1
  0
LAYER
  2
0
 70
     0
 62
     7
  6
CONTINUOUS
  0
ENDTAB
  0
TABLE
  2
STYLE
 70
     1
  0
STYLE
  2
STANDARD
 70
     0
 40
0.000000
 41
1.000000
 50
0.000000
 71
     0
 42
0.200000
  3
txt
  4
BIGFONT
  0
ENDTAB
  0
TABLE
  2
VIEW
 70
     0
  0
ENDTAB
  0
ENDSEC
  0
SECTION
  2
BLOCKS
  0
ENDSEC
  0
SECTION
  2
ENTITIES
  0
LINE
  8
0
  6
PHANTOM
 62
     3
 10
149.000000
 20
-47.425568
 11
149.000000
 21
-40.623688
  0
LINE
  8
0
  6
PHANTOM
 62
     3
 10
137.000000
 20
-47.425568
 11
137.000000
 21
-40.623688
  0
LINE
  8
0
  6
PHANTOM
 62
     3
 10
88.600006
 20
-47.425568
 11
88.600006
 21
-40.623688
  0
LINE
  8
0
  6
PHANTOM
 62
     3
 10
76.600006
 20
-47.425568
 11
76.600006
 21
-40.623688
  0
LINE
  8
0
  6
PHANTOM
 62
     3
 10
137.000000
 20
1.136688
 11
137.000000
 21
8.887680
  0
LINE
  8
0
  6
PHANTOM
 62
     3
 10
149.000000
 20
1.136688
 11
149.000000
 21
8.887680
  0
LINE
  8
0
  6
PHANTOM
 62
     3
 10
88.600006
 20
1.136688
 11
88.600006
 21
8.887680
  0
LINE
  8
0
  6
PHANTOM
 62
     3
 10
76.600006
 20
1.136688
 11
76.600006
 21
8.887680
  0
LINE
  8
0
  6
CENTER
 62
     2
 10
112.800003
 20
5.699997
 11
112.800003
 21
-49.689987
  0
LINE
  8
0
 10
134.800003
 20
3.100006
 11
134.800003
 21
-46.899994
  0
LINE
  8
0
 10
90.800003
 20
3.100006
 11
90.800003
 21
-46.899994
  0
LINE
  8
0
 10
134.800003
 20
3.100006
 11
90.800003
 21
3.100006
  0
LINE
  8
0
  6
CENTER
 62
     2
 10
95.800003
 20
-14.719995
 11
95.800003
 21
-23.879993
  0
LINE
  8
0
  6
CENTER
 62
     2
 10
129.800003
 20
-14.719995
 11
129.800003
 21
-23.879993
  0
LINE
  8
0
 10
90.800003
 20
-46.899994
 11
134.800003
 21
-46.899994
  0
LINE
  8
0
 10
90.800003
 20
-1.410004
 11
134.800003
 21
-1.410004
  0
LINE
  8
0
 10
90.800003
 20
-38.389984
 11
134.800003
 21
-38.389984
  0
LINE
  8
0
 10
90.800003
 20
-42.389984
 11
134.800003
 21
-42.389984
  0
LINE
  8
0
  6
CENTER
 62
     2
 10
86.580017
 20
-11.399994
 11
163.000000
 21
-11.399994
  0
LINE
  8
0
  6
CENTER
 62
     2
 10
63.180008
 20
-28.399994
 11
138.830002
 21
-28.399994
  0
LINE
  8
0
  6
CENTER
 62
     2
 10
163.379990
 20
-19.899994
 11
63.170013
 21
-19.899994
  0
LINE
  8
0
  6
CENTER
 62
     2
 10
63.180008
 20
-5.399994
 11
139.500000
 21
-5.399994
  0
LINE
  8
0
  6
CENTER
 62
     2
 10
86.330017
 20
-34.399994
 11
162.869995
 21
-34.399994
  0
LINE
  8
0
 10
149.000000
 20
-31.399994
 11
134.800003
 21
-31.399994
  0
LINE
  8
0
 10
134.800003
 20
-14.399994
 11
149.000000
 21
-14.399994
  0
LINE
  8
0
 10
149.000000
 20
-8.399994
 11
134.800003
 21
-8.399994
  0
LINE
  8
0
 10
134.800003
 20
-37.399994
 11
149.000000
 21
-37.399994
  0
LINE
  8
0
 10
149.000000
 20
-39.899994
 11
157.000000
 21
-39.899994
  0
LINE
  8
0
 10
157.000000
 20
-39.899994
 11
157.000000
 21
0.100006
  0
LINE
  8
0
 10
149.000000
 20
-39.899994
 11
149.000000
 21
0.100006
  0
LINE
  8
0
 10
149.000000
 20
0.100006
 11
157.000000
 21
0.100006
  0
LINE
  8
0
 10
76.600006
 20
0.100006
 11
76.600006
 21
-39.899994
  0
LINE
  8
0
 10
76.600006
 20
-39.899994
 11
68.600006
 21
-39.899994
  0
LINE
  8
0
 10
76.600006
 20
0.100006
 11
68.600006
 21
0.100006
  0
LINE
  8
0
 10
68.600006
 20
0.100006
 11
68.600006
 21
-39.899994
  0
LINE
  8
0
 10
137.099991
 20
-7.399994
 11
137.099991
 21
-3.399994
  0
LINE
  8
0
 10
76.600006
 20
-31.399994
 11
90.800003
 21
-31.399994
  0
LINE
  8
0
 10
136.099991
 20
-2.399994
 11
134.800003
 21
-2.399994
  0
LINE
  8
0
 10
90.800003
 20
-25.399994
 11
76.600006
 21
-25.399994
  0
LINE
  8
0
 10
90.800003
 20
-2.399994
 11
76.600006
 21
-2.399994
  0
LINE
  8
0
 10
90.800003
 20
-8.399994
 11
76.600006
 21
-8.399994
  0
LINE
  8
0
 10
149.000000
 20
-8.399994
 11
157.000000
 21
-8.399994
  0
LINE
  8
0
 10
149.000000
 20
-31.399994
 11
157.000000
 21
-31.399994
  0
LINE
  8
0
 10
76.600006
 20
-31.399994
 11
68.600006
 21
-31.399994
  0
LINE
  8
0
 10
76.600006
 20
-8.399994
 11
68.600006
 21
-8.399994
  0
LINE
  8
0
 10
137.099991
 20
-3.400005
 11
136.099991
 21
-2.400004
  0
LINE
  8
0
 10
137.099991
 20
-7.400008
 11
136.100006
 21
-8.399995
  0
LINE
  8
0
 10
136.099991
 20
-8.399994
 11
136.099991
 21
-2.399994
  0
LINE
  8
0
 10
137.100006
 20
-30.399992
 11
136.100006
 21
-31.399992
  0
LINE
  8
0
 10
136.099991
 20
-25.399994
 11
136.099991
 21
-31.399994
  0
LINE
  8
0
 10
137.099991
 20
-26.399994
 11
137.099991
 21
-30.399994
  0
LINE
  8
0
 10
137.100006
 20
-26.399998
 11
136.100006
 21
-25.399996
  0
LINE
  8
0
 10
136.099991
 20
-25.399994
 11
134.800003
 21
-25.399994
  0
LINE
  8
0
 10
89.500015
 20
-31.399994
 11
89.500015
 21
-37.399994
  0
LINE
  8
0
 10
88.500015
 20
-36.399982
 11
89.500008
 21
-37.399982
  0
LINE
  8
0
 10
89.500015
 20
-37.399994
 11
90.800003
 21
-37.399994
  0
LINE
  8
0
 10
88.500015
 20
-32.399994
 11
88.500015
 21
-36.399994
  0
LINE
  8
0
 10
88.500023
 20
-32.399986
 11
89.500015
 21
-31.399996
  0
LINE
  8
0
 10
89.500015
 20
-14.399994
 11
90.800003
 21
-14.399994
  0
LINE
  8
0
 10
89.500015
 20
-14.399994
 11
89.500015
 21
-8.399994
  0
LINE
  8
0
 10
88.500008
 20
-13.399999
 11
89.500008
 21
-14.400001
  0
LINE
  8
0
 10
88.500015
 20
-13.399994
 11
88.500015
 21
-9.399994
  0
LINE
  8
0
 10
88.500008
 20
-9.399993
 11
89.500008
 21
-8.399992
  0
LINE
  8
0
 10
157.000000
 20
-7.399994
 11
161.000000
 21
-7.399994
  0
LINE
  8
0
 10
157.000000
 20
-11.399994
 11
160.642731
 21
-11.399994
  0
LINE
  8
0
 10
157.000000
 20
-15.399994
 11
161.000000
 21
-15.399994
  0
LINE
  8
0
 10
161.000000
 20
-7.399994
 11
161.000000
 21
-15.399995
  0
LINE
  8
0
 10
161.067001
 20
-8.899994
 11
161.000000
 21
-8.899994
  0
LINE
  8
0
 62
     2
 10
161.500000
 20
-9.332994
 11
161.000000
 21
-9.332994
  0
LINE
  8
0
 10
161.067001
 20
-13.899994
 11
161.000000
 21
-13.899994
  0
LINE
  8
0
 62
     2
 10
161.500000
 20
-13.466994
 11
161.000000
 21
-13.466994
  0
LINE
  8
0
 10
161.500000
 20
-13.466994
 11
161.500000
 21
-9.332994
  0
LINE
  8
0
 10
161.499985
 20
-13.466986
 11
161.066986
 21
-13.899981
  0
LINE
  8
0
 10
161.500000
 20
-9.332990
 11
161.067001
 21
-8.899993
  0
LINE
  8
0
 10
161.067001
 20
-13.899994
 11
161.067001
 21
-8.899994
  0
LINE
  8
0
 10
157.000000
 20
-30.399994
 11
161.000000
 21
-30.399994
  0
LINE
  8
0
 10
157.000000
 20
-34.399994
 11
160.642731
 21
-34.399994
  0
LINE
  8
0
 10
157.000000
 20
-38.399994
 11
161.000000
 21
-38.399994
  0
LINE
  8
0
 10
161.000000
 20
-30.399994
 11
161.000000
 21
-38.399994
  0
LINE
  8
0
 10
161.067001
 20
-31.899994
 11
161.000000
 21
-31.899994
  0
LINE
  8
0
 62
     2
 10
161.500000
 20
-32.332993
 11
161.000000
 21
-32.332993
  0
LINE
  8
0
 10
161.067001
 20
-36.899994
 11
161.000000
 21
-36.899994
  0
LINE
  8
0
 62
     2
 10
161.500000
 20
-36.466980
 11
161.000000
 21
-36.466980
  0
LINE
  8
0
 10
161.500000
 20
-36.466980
 11
161.500000
 21
-32.332993
  0
LINE
  8
0
 10
161.499985
 20
-36.466988
 11
161.066986
 21
-36.899982
  0
LINE
  8
0
 10
161.500000
 20
-32.332993
 11
161.067001
 21
-31.899996
  0
LINE
  8
0
 10
161.067001
 20
-36.899994
 11
161.067001
 21
-31.899994
  0
LINE
  8
0
 10
68.600006
 20
-9.399994
 11
64.600006
 21
-9.399994
  0
LINE
  8
0
 10
68.600006
 20
-5.399994
 11
64.957275
 21
-5.399994
  0
LINE
  8
0
 10
68.600006
 20
-1.399994
 11
64.600006
 21
-1.399994
  0
LINE
  8
0
 10
64.600006
 20
-9.399994
 11
64.600006
 21
-1.399994
  0
LINE
  8
0
 10
64.533005
 20
-7.899994
 11
64.600006
 21
-7.899994
  0
LINE
  8
0
 62
     2
 10
64.100006
 20
-7.466994
 11
64.600006
 21
-7.466994
  0
LINE
  8
0
 10
64.533005
 20
-2.899994
 11
64.600006
 21
-2.899994
  0
LINE
  8
0
 62
     2
 10
64.100006
 20
-3.333008
 11
64.600006
 21
-3.333008
  0
LINE
  8
0
 10
64.100006
 20
-3.333008
 11
64.100006
 21
-7.466994
  0
LINE
  8
0
 10
64.100021
 20
-3.332994
 11
64.533020
 21
-2.899998
  0
LINE
  8
0
 10
64.100006
 20
-7.466994
 11
64.533005
 21
-7.899993
  0
LINE
  8
0
 10
64.533005
 20
-2.899994
 11
64.533005
 21
-7.899994
  0
LINE
  8
0
 10
68.600006
 20
-32.399994
 11
64.600006
 21
-32.399994
  0
LINE
  8
0
 10
68.600006
 20
-28.399994
 11
64.957275
 21
-28.399994
  0
LINE
  8
0
 10
68.600006
 20
-24.399994
 11
64.600006
 21
-24.399994
  0
LINE
  8
0
 10
64.600006
 20
-32.399994
 11
64.600006
 21
-24.399994
  0
LINE
  8
0
 10
64.533005
 20
-30.899994
 11
64.600006
 21
-30.899994
  0
LINE
  8
0
 62
     2
 10
64.100006
 20
-30.466993
 11
64.600006
 21
-30.466993
  0
LINE
  8
0
 10
64.533005
 20
-25.899994
 11
64.600006
 21
-25.899994
  0
LINE
  8
0
 62
     2
 10
64.100006
 20
-26.332993
 11
64.600006
 21
-26.332993
  0
LINE
  8
0
 10
64.100006
 20
-26.332993
 11
64.100006
 21
-30.466993
  0
LINE
  8
0
 10
64.100021
 20
-26.332996
 11
64.533020
 21
-25.899998
  0
LINE
  8
0
 10
64.100006
 20
-30.466999
 11
64.533005
 21
-30.899996
  0
LINE
  8
0
 10
64.533005
 20
-25.899994
 11
64.533005
 21
-30.899994
  0
LINE
  8
0
  6
PHANTOM
 62
     3
 10
-99.000000
 20
-66.984558
 11
-99.000000
 21
-59.264053
  0
LINE
  8
0
  6
PHANTOM
 62
     3
 10
-111.000000
 20
-66.984558
 11
-111.000000
 21
-61.126587
  0
LINE
  8
0
  6
PHANTOM
 62
     3
 10
-159.399994
 20
-66.984558
 11
-159.399994
 21
-61.126587
  0
LINE
  8
0
  6
PHANTOM
 62
     3
 10
-171.399994
 20
-66.984558
 11
-171.399994
 21
-59.031967
  0
LINE
  8
0
  6
CENTER
 62
     2
 10
-135.199997
 20
-108.499992
 11
-135.199997
 21
-78.279999
  0
LINE
  8
0
  6
CENTER
 62
     2
 10
-140.399994
 20
-90.959991
 11
-153.319992
 21
-90.959991
  0
LINE
  8
0
  6
CENTER
 62
     2
 10
-145.699997
 20
-83.660004
 11
-145.699997
 21
-96.379990
  0
LINE
  8
0
  6
CENTER
 62
     2
 10
-124.699997
 20
-79.959991
 11
-124.699997
 21
-92.869995
  0
LINE
  8
0
  6
CENTER
 62
     2
 10
-119.899994
 20
-86.959991
 11
-129.979996
 21
-86.959991
  0
LINE
  8
0
 10
-113.199997
 20
-79.959991
 11
-113.199997
 21
-106.959991
  0
LINE
  8
0
 10
-157.199997
 20
-106.959991
 11
-113.199997
 21
-106.959991
  0
LINE
  8
0
 10
-157.199997
 20
-79.959991
 11
-157.199997
 21
-106.959991
  0
LINE
  8
0
 10
-157.199997
 20
-79.959991
 11
-113.199997
 21
-79.959991
  0
LINE
  8
0
 10
-157.199997
 20
-102.959991
 11
-113.199997
 21
-102.959991
  0
LINE
  8
0
 10
-157.199997
 20
-81.959991
 11
-113.199997
 21
-81.959991
  0
LINE
  8
0
 10
-157.199997
 20
-99.059990
 11
-113.199997
 21
-99.059990
  0
LINE
  8
0
 10
-157.199997
 20
-95.859993
 11
-113.199997
 21
-95.859993
  0
LINE
  8
0
 10
-157.199997
 20
-94.959991
 11
-113.199997
 21
-94.959991
  0
LINE
  8
0
 10
-171.399994
 20
-91.959991
 11
-157.199997
 21
-91.959991
  0
LINE
  8
0
 10
-171.399994
 20
-85.959991
 11
-157.199997
 21
-85.959991
  0
LINE
  8
0
 10
-171.399994
 20
-97.459991
 11
-157.199997
 21
-97.459991
  0
LINE
  8
0
 10
-171.399994
 20
-67.959991
 11
-171.399994
 21
-105.959991
  0
LINE
  8
0
 10
-177.399994
 20
-67.959991
 11
-177.399994
 21
-79.959991
  0
LINE
  8
0
 10
-179.399994
 20
-105.959991
 11
-171.399994
 21
-105.959991
  0
LINE
  8
0
 10
-177.399994
 20
-67.959991
 11
-171.399994
 21
-67.959991
  0
LINE
  8
0
 10
-179.399994
 20
-79.959991
 11
-177.399994
 21
-79.959991
  0
LINE
  8
0
 10
-179.399994
 20
-79.959991
 11
-179.399994
 21
-105.959991
  0
LINE
  8
0
 10
-99.000000
 20
-91.959991
 11
-113.199997
 21
-91.959991
  0
LINE
  8
0
 10
-99.000000
 20
-85.959991
 11
-113.199997
 21
-85.959991
  0
LINE
  8
0
 10
-99.000000
 20
-97.459991
 11
-113.199997
 21
-97.459991
  0
LINE
  8
0
 10
-99.000000
 20
-103.459991
 11
-113.199997
 21
-103.459991
  0
LINE
  8
0
 10
-99.000000
 20
-67.959991
 11
-99.000000
 21
-105.959991
  0
LINE
  8
0
 10
-93.000000
 20
-67.959991
 11
-93.000000
 21
-79.959991
  0
LINE
  8
0
 10
-91.000000
 20
-105.959991
 11
-99.000000
 21
-105.959991
  0
LINE
  8
0
 10
-93.000000
 20
-67.959991
 11
-99.000000
 21
-67.959991
  0
LINE
  8
0
 10
-91.000000
 20
-79.959991
 11
-93.000000
 21
-79.959991
  0
LINE
  8
0
 10
-91.000000
 20
-79.959991
 11
-91.000000
 21
-105.959991
  0
LINE
  8
0
 10
-171.399994
 20
-103.459991
 11
-157.199997
 21
-103.459991
  0
LINE
  8
0
 10
-177.399994
 20
-68.959991
 11
-171.399994
 21
-68.959991
  0
LINE
  8
0
 10
-93.000000
 20
-68.959991
 11
-99.000000
 21
-68.959991
  0
LINE
  8
0
 10
-179.399994
 20
-91.259995
 11
-171.399994
 21
-91.259995
  0
LINE
  8
0
 10
-91.000000
 20
-91.259995
 11
-99.000000
 21
-91.259995
  0
LINE
  8
0
  6
CENTER
 62
     2
 10
-157.199997
 20
-97.459991
 11
-113.199997
 21
-97.459991
  0
LINE
  8
0
 10
-159.500000
 20
-102.459991
 11
-158.499985
 21
-103.459999
  0
LINE
  8
0
 10
-158.499985
 20
-103.459991
 11
-158.499985
 21
-97.459991
  0
LINE
  8
0
 10
-159.499985
 20
-102.459991
 11
-159.499985
 21
-98.459991
  0
LINE
  8
0
 10
-159.500000
 20
-98.459991
 11
-158.500000
 21
-97.459991
  0
LINE
  8
0
 10
-110.900009
 20
-86.959991
 11
-110.900009
 21
-90.959991
  0
LINE
  8
0
 10
-110.900002
 20
-90.959984
 11
-111.900009
 21
-91.959999
  0
LINE
  8
0
 10
-111.900009
 20
-85.959991
 11
-111.900009
 21
-91.959991
  0
LINE
  8
0
 10
-110.900002
 20
-86.959991
 11
-111.900002
 21
-85.959991
  0
LINE
  8
0
 10
-157.199997
 20
-99.959991
 11
-113.199997
 21
-99.959991
  0
LINE
  8
0
  6
CENTER
 62
     2
 10
-84.639999
 20
-100.459991
 11
-185.759995
 21
-100.459991
  0
LINE
  8
0
  6
CENTER
 62
     2
 10
-85.360001
 20
-88.959991
 11
-185.759995
 21
-88.959991
  0
LINE
  8
0
 10
-179.399994
 20
-84.341202
 11
-183.042725
 21
-84.341202
  0
LINE
  8
0
 10
-179.399994
 20
-86.650604
 11
-183.042725
 21
-86.650604
  0
LINE
  8
0
 10
-179.399994
 20
-91.269394
 11
-183.042725
 21
-91.269394
  0
LINE
  8
0
 10
-179.399994
 20
-93.578796
 11
-183.042725
 21
-93.578796
  0
LINE
  8
0
 10
-183.399994
 20
-84.960007
 11
-183.042725
 21
-84.341194
  0
LINE
  8
0
 10
-183.399994
 20
-92.959991
 11
-183.399994
 21
-84.960007
  0
LINE
  8
0
 10
-183.399979
 20
-92.959991
 11
-183.042709
 21
-93.578804
  0
LINE
  8
0
 10
-183.466995
 20
-86.459991
 11
-183.466995
 21
-91.459991
  0
LINE
  8
0
 10
-183.899979
 20
-91.026993
 11
-183.466980
 21
-91.459984
  0
LINE
  8
0
 10
-183.466995
 20
-91.459991
 11
-183.399994
 21
-91.459991
  0
LINE
  8
0
 62
     2
 10
-183.899994
 20
-91.026993
 11
-183.399994
 21
-91.026993
  0
LINE
  8
0
 10
-183.899994
 20
-86.892990
 11
-183.466995
 21
-86.459991
  0
LINE
  8
0
 10
-183.466995
 20
-86.459991
 11
-183.399994
 21
-86.459991
  0
LINE
  8
0
 62
     2
 10
-183.899994
 20
-86.893005
 11
-183.399994
 21
-86.893005
  0
LINE
  8
0
 10
-183.899994
 20
-86.893005
 11
-183.899994
 21
-91.026993
  0
LINE
  8
0
 10
-179.399994
 20
-95.841187
 11
-183.042725
 21
-95.841187
  0
LINE
  8
0
 10
-179.399994
 20
-98.150589
 11
-183.042725
 21
-98.150589
  0
LINE
  8
0
 10
-179.399994
 20
-102.769394
 11
-183.042725
 21
-102.769394
  0
LINE
  8
0
 10
-179.399994
 20
-105.078796
 11
-183.042725
 21
-105.078796
  0
LINE
  8
0
 10
-183.399994
 20
-96.459999
 11
-183.042725
 21
-95.841194
  0
LINE
  8
0
 10
-183.399994
 20
-104.459991
 11
-183.399994
 21
-96.459991
  0
LINE
  8
0
 10
-183.399979
 20
-104.459999
 11
-183.042725
 21
-105.078796
  0
LINE
  8
0
 10
-183.466995
 20
-97.959991
 11
-183.466995
 21
-102.959991
  0
LINE
  8
0
 10
-183.899994
 20
-102.527000
 11
-183.466980
 21
-102.959991
  0
LINE
  8
0
 10
-183.466995
 20
-102.959991
 11
-183.399994
 21
-102.959991
  0
LINE
  8
0
 62
     2
 10
-183.899994
 20
-102.526993
 11
-183.399994
 21
-102.526993
  0
LINE
  8
0
 10
-183.899994
 20
-98.392990
 11
-183.466995
 21
-97.959991
  0
LINE
  8
0
 10
-183.466995
 20
-97.959991
 11
-183.399994
 21
-97.959991
  0
LINE
  8
0
 62
     2
 10
-183.899994
 20
-98.392990
 11
-183.399994
 21
-98.392990
  0
LINE
  8
0
 10
-183.899994
 20
-98.392990
 11
-183.899994
 21
-102.526993
  0
LINE
  8
0
 10
-91.000000
 20
-84.341202
 11
-87.357269
 21
-84.341202
  0
LINE
  8
0
 10
-91.000000
 20
-86.650604
 11
-87.357269
 21
-86.650604
  0
LINE
  8
0
 10
-91.000000
 20
-91.269394
 11
-87.357269
 21
-91.269394
  0
LINE
  8
0
 10
-91.000000
 20
-93.578796
 11
-87.357269
 21
-93.578796
  0
LINE
  8
0
 10
-91.000000
 20
-95.841187
 11
-87.357269
 21
-95.841187
  0
LINE
  8
0
 10
-91.000000
 20
-98.150589
 11
-87.357269
 21
-98.150589
  0
LINE
  8
0
 10
-91.000000
 20
-102.769394
 11
-87.357269
 21
-102.769394
  0
LINE
  8
0
 10
-91.000000
 20
-105.078796
 11
-87.357269
 21
-105.078796
  0
LINE
  8
0
 10
-86.500000
 20
-98.392990
 11
-86.500000
 21
-102.526993
  0
LINE
  8
0
 62
     2
 10
-86.500000
 20
-98.392990
 11
-87.000000
 21
-98.392990
  0
LINE
  8
0
 10
-86.932999
 20
-97.959991
 11
-87.000000
 21
-97.959991
  0
LINE
  8
0
 10
-86.500000
 20
-98.392990
 11
-86.932999
 21
-97.959991
  0
LINE
  8
0
 62
     2
 10
-86.500000
 20
-102.526993
 11
-87.000000
 21
-102.526993
  0
LINE
  8
0
 10
-86.932999
 20
-102.959991
 11
-87.000000
 21
-102.959991
  0
LINE
  8
0
 10
-86.500023
 20
-102.527000
 11
-86.933014
 21
-102.959984
  0
LINE
  8
0
 10
-86.932999
 20
-97.959991
 11
-86.932999
 21
-102.959991
  0
LINE
  8
0
 10
-87.000015
 20
-104.460007
 11
-87.357277
 21
-105.078804
  0
LINE
  8
0
 10
-87.000000
 20
-104.459991
 11
-87.000000
 21
-96.459991
  0
LINE
  8
0
 10
-87.000008
 20
-96.459999
 11
-87.357269
 21
-95.841194
  0
LINE
  8
0
 10
-86.500000
 20
-86.893005
 11
-86.500000
 21
-91.026993
  0
LINE
  8
0
 62
     2
 10
-86.500000
 20
-86.893005
 11
-87.000000
 21
-86.893005
  0
LINE
  8
0
 10
-86.932999
 20
-86.459991
 11
-87.000000
 21
-86.459991
  0
LINE
  8
0
 10
-86.500000
 20
-86.892990
 11
-86.932999
 21
-86.459991
  0
LINE
  8
0
 62
     2
 10
-86.500000
 20
-91.026993
 11
-87.000000
 21
-91.026993
  0
LINE
  8
0
 10
-86.932999
 20
-91.459991
 11
-87.000000
 21
-91.459991
  0
LINE
  8
0
 10
-86.500015
 20
-91.026985
 11
-86.933014
 21
-91.459984
  0
LINE
  8
0
 10
-86.932999
 20
-86.459991
 11
-86.932999
 21
-91.459991
  0
LINE
  8
0
 10
-87.000008
 20
-92.959984
 11
-87.357277
 21
-93.578796
  0
LINE
  8
0
 10
-87.000000
 20
-92.959991
 11
-87.000000
 21
-84.960007
  0
LINE
  8
0
 10
-87.000008
 20
-84.959999
 11
-87.357269
 21
-84.341194
  0
LINE
  8
0
  6
PHANTOM
 62
     3
 10
-99.000000
 20
20.026642
 11
-99.000000
 21
34.285828
  0
LINE
  8
0
  6
PHANTOM
 62
     3
 10
-111.000000
 20
23.119003
 11
-111.000000
 21
34.285828
  0
LINE
  8
0
  6
PHANTOM
 62
     3
 10
-159.399994
 20
23.119003
 11
-159.399994
 21
34.285828
  0
LINE
  8
0
  6
PHANTOM
 62
     3
 10
-171.399994
 20
20.370239
 11
-171.399994
 21
34.285828
  0
LINE
  8
0
  6
CENTER
 62
     2
 10
-135.199997
 20
76.360001
 11
-135.199997
 21
44.000015
  0
LINE
  8
0
 10
-113.199997
 20
47.160004
 11
-113.199997
 21
74.160004
  0
LINE
  8
0
 10
-157.199997
 20
74.160004
 11
-113.199997
 21
74.160004
  0
LINE
  8
0
 10
-157.199997
 20
47.160004
 11
-157.199997
 21
74.160004
  0
LINE
  8
0
 10
-171.399994
 20
59.160004
 11
-157.199997
 21
59.160004
  0
LINE
  8
0
 10
-171.399994
 20
53.160004
 11
-157.199997
 21
53.160004
  0
LINE
  8
0
 10
-171.399994
 20
64.660004
 11
-157.199997
 21
64.660004
  0
LINE
  8
0
 10
-171.399994
 20
70.660004
 11
-157.199997
 21
70.660004
  0
LINE
  8
0
 10
-157.199997
 20
49.160004
 11
-113.199997
 21
49.160004
  0
LINE
  8
0
 10
-171.399994
 20
35.160004
 11
-171.399994
 21
73.160004
  0
LINE
  8
0
 10
-177.399994
 20
35.160004
 11
-177.399994
 21
47.160004
  0
LINE
  8
0
 10
-179.399994
 20
73.160004
 11
-171.399994
 21
73.160004
  0
LINE
  8
0
 10
-177.399994
 20
35.160004
 11
-171.399994
 21
35.160004
  0
LINE
  8
0
 10
-183.899994
 20
69.727005
 11
-183.899994
 21
65.593002
  0
LINE
  8
0
 10
-179.399994
 20
47.160004
 11
-177.399994
 21
47.160004
  0
LINE
  8
0
 10
-157.199997
 20
47.160004
 11
-113.199997
 21
47.160004
  0
LINE
  8
0
 10
-157.199997
 20
70.160004
 11
-113.199997
 21
70.160004
  0
LINE
  8
0
 10
-157.199997
 20
63.060005
 11
-113.199997
 21
63.060005
  0
LINE
  8
0
 10
-157.199997
 20
66.260002
 11
-113.199997
 21
66.260002
  0
LINE
  8
0
 10
-157.199997
 20
62.160004
 11
-113.199997
 21
62.160004
  0
LINE
  8
0
 10
-179.399994
 20
47.160004
 11
-179.399994
 21
73.160004
  0
LINE
  8
0
 10
-110.900009
 20
69.660004
 11
-110.900009
 21
65.660004
  0
LINE
  8
0
 10
-99.000000
 20
59.160004
 11
-113.199997
 21
59.160004
  0
LINE
  8
0
 10
-99.000000
 20
53.160004
 11
-113.199997
 21
53.160004
  0
LINE
  8
0
 10
-99.000000
 20
64.660004
 11
-113.199997
 21
64.660004
  0
LINE
  8
0
 10
-99.000000
 20
70.660004
 11
-113.199997
 21
70.660004
  0
LINE
  8
0
  6
CENTER
 62
     2
 10
-84.639999
 20
67.660004
 11
-185.759995
 21
67.660004
  0
LINE
  8
0
 10
-99.000000
 20
35.160004
 11
-99.000000
 21
73.160004
  0
LINE
  8
0
 10
-93.000000
 20
35.160004
 11
-93.000000
 21
47.160004
  0
LINE
  8
0
 10
-91.000000
 20
73.160004
 11
-99.000000
 21
73.160004
  0
LINE
  8
0
 10
-93.000000
 20
35.160004
 11
-99.000000
 21
35.160004
  0
LINE
  8
0
 10
-91.000000
 20
47.160004
 11
-93.000000
 21
47.160004
  0
LINE
  8
0
 10
-91.000000
 20
47.160004
 11
-91.000000
 21
73.160004
  0
LINE
  8
0
 10
-110.900002
 20
69.660004
 11
-111.900002
 21
70.660004
  0
LINE
  8
0
 10
-110.900002
 20
65.660004
 11
-111.900002
 21
64.660004
  0
LINE
  8
0
 10
-159.500000
 20
54.160007
 11
-158.500000
 21
53.160007
  0
LINE
  8
0
 10
-159.499985
 20
54.160004
 11
-159.499985
 21
58.160004
  0
LINE
  8
0
 10
-159.500000
 20
58.160011
 11
-158.500000
 21
59.160011
  0
LINE
  8
0
 10
-177.399994
 20
36.160004
 11
-171.399994
 21
36.160004
  0
LINE
  8
0
 10
-93.000000
 20
36.160004
 11
-99.000000
 21
36.160004
  0
LINE
  8
0
 10
-91.000000
 20
58.460003
 11
-99.000000
 21
58.460003
  0
LINE
  8
0
 10
-179.399994
 20
58.460003
 11
-171.399994
 21
58.460003
  0
LINE
  8
0
 10
-158.499985
 20
53.160004
 11
-158.499985
 21
59.160004
  0
LINE
  8
0
 10
-111.900009
 20
70.660004
 11
-111.900009
 21
64.660004
  0
LINE
  8
0
  6
CENTER
 62
     2
 10
-157.199997
 20
64.660004
 11
-113.199997
 21
64.660004
  0
LINE
  8
0
 10
-157.199997
 20
67.160004
 11
-113.199997
 21
67.160004
  0
LINE
  8
0
 62
     2
 10
-183.899994
 20
69.727005
 11
-183.399994
 21
69.727005
  0
LINE
  8
0
 10
-183.466995
 20
70.160004
 11
-183.399994
 21
70.160004
  0
LINE
  8
0
 10
-183.899979
 20
69.727013
 11
-183.466995
 21
70.159996
  0
LINE
  8
0
 62
     2
 10
-183.899994
 20
65.593002
 11
-183.399994
 21
65.593002
  0
LINE
  8
0
 10
-183.466995
 20
65.160004
 11
-183.399994
 21
65.160004
  0
LINE
  8
0
 10
-183.899994
 20
65.592995
 11
-183.466995
 21
65.159996
  0
LINE
  8
0
 10
-183.466995
 20
70.160004
 11
-183.466995
 21
65.160004
  0
LINE
  8
0
 10
-183.399994
 20
63.660015
 11
-183.042725
 21
63.041206
  0
LINE
  8
0
 10
-183.399994
 20
63.660004
 11
-183.399994
 21
71.660004
  0
LINE
  8
0
 10
-183.399979
 20
71.660011
 11
-183.042725
 21
72.278809
  0
LINE
  8
0
 10
-179.399994
 20
72.278809
 11
-183.042725
 21
72.278809
  0
LINE
  8
0
 10
-179.399994
 20
69.969406
 11
-183.042725
 21
69.969406
  0
LINE
  8
0
 10
-179.399994
 20
65.350601
 11
-183.042725
 21
65.350601
  0
LINE
  8
0
 10
-179.399994
 20
63.041203
 11
-183.042725
 21
63.041203
  0
LINE
  8
0
 10
-179.399994
 20
60.778805
 11
-183.042725
 21
60.778805
  0
LINE
  8
0
 10
-179.399994
 20
58.469406
 11
-183.042725
 21
58.469406
  0
LINE
  8
0
 10
-179.399994
 20
53.850616
 11
-183.042725
 21
53.850616
  0
LINE
  8
0
 10
-179.399994
 20
51.541214
 11
-183.042725
 21
51.541214
  0
LINE
  8
0
 10
-183.399979
 20
60.160000
 11
-183.042709
 21
60.778805
  0
LINE
  8
0
 10
-183.399994
 20
52.160004
 11
-183.399994
 21
60.160004
  0
LINE
  8
0
 10
-183.399994
 20
52.160004
 11
-183.042725
 21
51.541210
  0
LINE
  8
0
 10
-183.466995
 20
58.660004
 11
-183.466995
 21
53.660004
  0
LINE
  8
0
 10
-183.899994
 20
54.093002
 11
-183.466995
 21
53.660007
  0
LINE
  8
0
 10
-183.466995
 20
53.660004
 11
-183.399994
 21
53.660004
  0
LINE
  8
0
 62
     2
 10
-183.899994
 20
54.093018
 11
-183.399994
 21
54.093018
  0
LINE
  8
0
 10
-183.899979
 20
58.227001
 11
-183.466980
 21
58.659996
  0
LINE
  8
0
 10
-183.466995
 20
58.660004
 11
-183.399994
 21
58.660004
  0
LINE
  8
0
 62
     2
 10
-183.899994
 20
58.227005
 11
-183.399994
 21
58.227005
  0
LINE
  8
0
 10
-183.899994
 20
58.227005
 11
-183.899994
 21
54.093018
  0
LINE
  8
0
 10
-91.000000
 20
72.278809
 11
-87.357269
 21
72.278809
  0
LINE
  8
0
 10
-91.000000
 20
69.969406
 11
-87.357269
 21
69.969406
  0
LINE
  8
0
 10
-91.000000
 20
65.350601
 11
-87.357269
 21
65.350601
  0
LINE
  8
0
 10
-91.000000
 20
63.041203
 11
-87.357269
 21
63.041203
  0
LINE
  8
0
 10
-91.000000
 20
60.778805
 11
-87.357269
 21
60.778805
  0
LINE
  8
0
 10
-91.000000
 20
58.469406
 11
-87.357269
 21
58.469406
  0
LINE
  8
0
 10
-91.000000
 20
53.850616
 11
-87.357269
 21
53.850616
  0
LINE
  8
0
 10
-91.000000
 20
51.541214
 11
-87.357269
 21
51.541214
  0
LINE
  8
0
 10
-86.500000
 20
58.227005
 11
-86.500000
 21
54.093018
  0
LINE
  8
0
 62
     2
 10
-86.500000
 20
58.227005
 11
-87.000000
 21
58.227005
  0
LINE
  8
0
 10
-86.932999
 20
58.660004
 11
-87.000000
 21
58.660004
  0
LINE
  8
0
 10
-86.500008
 20
58.227001
 11
-86.933006
 21
58.659996
  0
LINE
  8
0
 62
     2
 10
-86.500000
 20
54.093018
 11
-87.000000
 21
54.093018
  0
LINE
  8
0
 10
-86.932999
 20
53.660004
 11
-87.000000
 21
53.660004
  0
LINE
  8
0
 10
-86.500000
 20
54.092995
 11
-86.932999
 21
53.660000
  0
LINE
  8
0
 10
-86.932999
 20
58.660004
 11
-86.932999
 21
53.660004
  0
LINE
  8
0
 10
-87.000008
 20
52.160011
 11
-87.357269
 21
51.541210
  0
LINE
  8
0
 10
-87.000000
 20
52.160004
 11
-87.000000
 21
60.160004
  0
LINE
  8
0
 10
-87.000008
 20
60.159996
 11
-87.357269
 21
60.778805
  0
LINE
  8
0
 10
-87.000015
 20
71.660011
 11
-87.357277
 21
72.278816
  0
LINE
  8
0
 10
-87.000000
 20
63.660004
 11
-87.000000
 21
71.660004
  0
LINE
  8
0
 10
-87.000008
 20
63.660007
 11
-87.357269
 21
63.041206
  0
LINE
  8
0
 10
-86.932999
 20
70.160004
 11
-86.932999
 21
65.160004
  0
LINE
  8
0
 10
-86.499992
 20
65.593002
 11
-86.932991
 21
65.160004
  0
LINE
  8
0
 10
-86.932999
 20
65.160004
 11
-87.000000
 21
65.160004
  0
LINE
  8
0
 62
     2
 10
-86.500000
 20
65.593002
 11
-87.000000
 21
65.593002
  0
LINE
  8
0
 10
-86.500015
 20
69.727005
 11
-86.933014
 21
70.159996
  0
LINE
  8
0
 10
-86.932999
 20
70.160004
 11
-87.000000
 21
70.160004
  0
LINE
  8
0
 62
     2
 10
-86.500000
 20
69.727005
 11
-87.000000
 21
69.727005
  0
LINE
  8
0
 10
-86.500000
 20
69.727005
 11
-86.500000
 21
65.593002
  0
LINE
  8
0
  6
CENTER
 62
     2
 10
-185.759995
 20
56.160004
 11
-84.639999
 21
56.160004
  0
LINE
  8
0
  6
CENTER
 62
     2
 10
5.300003
 20
-28.399994
 11
19.659988
 21
-28.399994
  0
LINE
  8
0
  6
CENTER
 62
     2
 10
0.800003
 20
-12.279994
 11
0.800003
 21
0.839996
  0
LINE
  8
0
  6
CENTER
 62
     2
 10
7.019989
 20
-11.399994
 11
17.659988
 21
-11.399994
  0
LINE
  8
0
 10
9.990000
 20
-32.399990
 11
7.679996
 21
-28.399982
  0
LINE
  8
0
 10
9.989990
 20
-32.399994
 11
14.599991
 21
-32.399994
  0
LINE
  8
0
 10
9.989990
 20
-24.399994
 11
14.599991
 21
-24.399994
  0
LINE
  8
0
 10
7.679996
 20
-28.399990
 11
9.989997
 21
-24.399988
  0
LINE
  8
0
 10
5.410000
 20
-5.399997
 11
3.100000
 21
-1.399997
  0
LINE
  8
0
 10
3.099998
 20
-9.400001
 11
5.410002
 21
-5.399993
  0
LINE
  8
0
  6
CENTER
 62
     2
 10
-25.169996
 20
-19.899994
 11
22.529999
 21
-19.899994
  0
LINE
  8
0
  6
CENTER
 62
     2
 10
-19.099998
 20
-9.899994
 11
-12.899998
 21
-9.899994
  0
LINE
  8
0
  6
CENTER
 62
     2
 10
-19.559998
 20
-29.899994
 11
-13.129997
 21
-29.899994
  0
LINE
  8
0
  6
CENTER
 62
     2
 10
-16.199997
 20
-6.949994
 11
-16.199997
 21
-13.269995
  0
LINE
  8
0
  6
CENTER
 62
     2
 10
-4.929997
 20
-34.399994
 11
6.349991
 21
-34.399994
  0
LINE
  8
0
  6
CENTER
 62
     2
 10
12.300003
 20
-5.929995
 11
12.300003
 21
-34.849995
  0
LINE
  8
0
  6
CENTER
 62
     2
 10
0.800003
 20
-28.989994
 11
0.800003
 21
-41.029984
  0
LINE
  8
0
 10
18.300003
 20
-8.559995
 11
18.300003
 21
-31.239994
  0
LINE
  8
0
 10
16.909994
 20
-28.399994
 11
14.599989
 21
-24.399986
  0
LINE
  8
0
 10
14.599992
 20
-32.399986
 11
16.909992
 21
-28.399988
  0
LINE
  8
0
  6
CENTER
 62
     2
 10
-16.199997
 20
-26.729994
 11
-16.199997
 21
-32.829994
  0
LINE
  8
0
 10
-20.199997
 20
-0.899994
 11
-20.199997
 21
-38.899994
  0
LINE
  8
0
 10
-8.199997
 20
0.100006
 11
-8.199997
 21
-39.899994
  0
LINE
  8
0
  6
CENTER
 62
     2
 10
-6.309998
 20
-5.399994
 11
7.949997
 21
-5.399994
  0
LINE
  8
0
 10
-1.510008
 20
-9.400001
 11
-3.820007
 21
-5.400001
  0
LINE
  8
0
 10
-3.820002
 20
-5.400001
 11
-1.509998
 21
-1.399993
  0
LINE
  8
0
 10
-1.510010
 20
-1.399994
 11
3.099991
 21
-1.399994
  0
LINE
  8
0
 10
-1.510010
 20
-9.399994
 11
3.099991
 21
-9.399994
  0
LINE
  8
0
 10
-19.199997
 20
0.100006
 11
3.300003
 21
0.100006
  0
LINE
  8
0
  6
DASHED
 62
     2
 10
-8.200006
 20
-8.910003
 11
-5.200006
 21
-11.900002
  0
LINE
  8
0
  6
DASHED
 62
     2
 10
-5.199997
 20
-27.899994
 11
-5.199997
 21
-11.899994
  0
LINE
  8
0
 10
-6.199997
 20
-46.899994
 11
6.789993
 21
-46.899994
  0
LINE
  8
0
 10
-6.200006
 20
-46.899982
 11
-8.199997
 21
-44.899990
  0
LINE
  8
0
 10
-8.200000
 20
1.100002
 11
-6.199998
 21
3.100004
  0
LINE
  8
0
 10
-6.199997
 20
3.100006
 11
6.889999
 21
3.100006
  0
LINE
  8
0
 10
18.800003
 20
-0.399994
 11
18.800003
 21
-39.089981
  0
LINE
  8
0
  6
CENTER
 62
     2
 10
9.289993
 20
7.009995
 11
9.289993
 21
-3.790009
  0
LINE
  8
0
  6
CENTER
 62
     2
 10
5.940002
 20
-39.389984
 11
13.119995
 21
-39.389984
  0
LINE
  8
0
 10
6.789993
 20
-46.899994
 11
6.789993
 21
-42.999985
  0
LINE
  8
0
 10
-8.199997
 20
-44.899994
 11
-8.199997
 21
-39.899994
  0
LINE
  8
0
 10
-8.199997
 20
0.100006
 11
-8.199997
 21
1.100006
  0
LINE
  8
0
 10
-20.199997
 20
-0.899995
 11
-19.199997
 21
0.100005
  0
LINE
  8
0
 10
-20.199997
 20
-38.899994
 11
-19.199997
 21
-39.899994
  0
LINE
  8
0
 10
11.389999
 20
0.800003
 11
11.389999
 21
-0.800003
  0
LINE
  8
0
 10
7.190002
 20
0.800003
 11
7.190002
 21
-0.800003
  0
LINE
  8
0
 10
11.389999
 20
0.800003
 11
10.889999
 21
1.300004
  0
LINE
  8
0
 10
7.690001
 20
1.300004
 11
7.190000
 21
0.800003
  0
LINE
  8
0
 10
7.690002
 20
2.300003
 11
7.690002
 21
1.300003
  0
LINE
  8
0
 10
10.889999
 20
2.300003
 11
10.889999
 21
1.300003
  0
LINE
  8
0
 10
7.690001
 20
2.300004
 11
6.890000
 21
3.100005
  0
LINE
  8
0
 10
11.689995
 20
3.099998
 11
10.890000
 21
2.300004
  0
LINE
  8
0
 10
11.389999
 20
-40.599991
 11
11.389999
 21
-38.999985
  0
LINE
  8
0
 10
7.190002
 20
-40.599991
 11
7.190002
 21
-38.999985
  0
LINE
  8
0
 10
11.389999
 20
-40.599991
 11
10.889998
 21
-41.099991
  0
LINE
  8
0
 10
7.690000
 20
-41.099991
 11
7.189999
 21
-40.599991
  0
LINE
  8
0
 10
7.690002
 20
-42.099991
 11
7.690002
 21
-41.099991
  0
LINE
  8
0
 10
10.889999
 20
-42.099991
 11
10.889999
 21
-41.099991
  0
LINE
  8
0
 10
7.690000
 20
-42.099991
 11
6.790000
 21
-42.999992
  0
LINE
  8
0
 10
11.389998
 20
-42.589993
 11
10.889997
 21
-42.099991
  0
LINE
  8
0
 10
11.389999
 20
-42.589981
 11
15.300003
 21
-42.589981
  0
LINE
  8
0
 10
11.690002
 20
3.100006
 11
15.300003
 21
3.100006
  0
LINE
  8
0
  6
CENTER
 62
     2
 10
5.940002
 20
-0.410004
 11
13.119995
 21
-0.410004
  0
LINE
  8
0
  6
DASHED
 62
     2
 10
-8.200005
 20
-30.889982
 11
-5.200006
 21
-27.899982
  0
LINE
  8
0
 10
3.300001
 20
0.100004
 11
18.299990
 21
-8.559989
  0
LINE
  8
0
 10
-19.199997
 20
-39.899994
 11
3.300003
 21
-39.899994
  0
LINE
  8
0
 10
3.300002
 20
-39.899990
 11
18.299990
 21
-31.239998
  0
LINE
  8
0
 10
15.299993
 20
-42.589985
 11
18.799992
 21
-39.089985
  0
LINE
  8
0
 10
15.299995
 20
3.100000
 11
18.799997
 21
-0.400000
  0
LINE
  8
0
  6
CENTER
 62
     2
 10
9.289993
 20
-47.309982
 11
9.289993
 21
-36.009979
  0
LINE
  8
0
  6
PHANTOM
 62
     3
 10
-99.000000
 20
-47.425568
 11
-99.000000
 21
-40.623688
  0
LINE
  8
0
  6
PHANTOM
 62
     3
 10
-111.000000
 20
-47.425568
 11
-111.000000
 21
-40.623688
  0
LINE
  8
0
  6
PHANTOM
 62
     3
 10
-111.000000
 20
1.136688
 11
-111.000000
 21
8.887680
  0
LINE
  8
0
  6
PHANTOM
 62
     3
 10
-99.000000
 20
1.136688
 11
-99.000000
 21
8.887680
  0
LINE
  8
0
  6
PHANTOM
 62
     3
 10
-171.399994
 20
-47.425568
 11
-171.399994
 21
-40.623688
  0
LINE
  8
0
  6
PHANTOM
 62
     3
 10
-159.399994
 20
-47.425568
 11
-159.399994
 21
-40.623688
  0
LINE
  8
0
  6
PHANTOM
 62
     3
 10
-159.399994
 20
1.136688
 11
-159.399994
 21
8.887680
  0
LINE
  8
0
  6
PHANTOM
 62
     3
 10
-171.399994
 20
1.136688
 11
-171.399994
 21
8.887680
  0
LINE
  8
0
 10
-157.199997
 20
3.100006
 11
-157.199997
 21
-46.899994
  0
LINE
  8
0
 10
-113.199997
 20
3.100006
 11
-113.199997
 21
-46.899994
  0
LINE
  8
0
  6
CENTER
 62
     2
 10
-152.199997
 20
-16.259995
 11
-152.199997
 21
-23.879993
  0
LINE
  8
0
 10
-157.199997
 20
-7.899994
 11
-113.199997
 21
-7.899994
  0
LINE
  8
0
 10
-157.199997
 20
-11.899994
 11
-113.199997
 21
-11.899994
  0
LINE
  8
0
 10
-157.199997
 20
-27.899994
 11
-113.199997
 21
-27.899994
  0
LINE
  8
0
 10
-157.199997
 20
-31.899994
 11
-113.199997
 21
-31.899994
  0
LINE
  8
0
 10
-177.399994
 20
-39.899994
 11
-177.399994
 21
0.100006
  0
LINE
  8
0
  6
CENTER
 62
     2
 10
-108.980011
 20
-11.399994
 11
-185.759995
 21
-11.399994
  0
LINE
  8
0
  6
CENTER
 62
     2
 10
-85.380005
 20
-28.399994
 11
-161.909988
 21
-28.399994
  0
LINE
  8
0
 10
-99.000000
 20
0.100006
 11
-99.000000
 21
-39.899994
  0
LINE
  8
0
  6
CENTER
 62
     2
 10
-185.779984
 20
-19.899994
 11
-85.570007
 21
-19.899994
  0
LINE
  8
0
 10
-93.000000
 20
0.100006
 11
-93.000000
 21
-39.899994
  0
LINE
  8
0
 10
-99.000000
 20
-39.899994
 11
-91.000000
 21
-39.899994
  0
LINE
  8
0
 10
-99.000000
 20
0.100006
 11
-91.000000
 21
0.100006
  0
LINE
  8
0
 10
-157.199997
 20
3.100006
 11
-113.199997
 21
3.100006
  0
LINE
  8
0
 10
-157.199997
 20
1.100006
 11
-113.199997
 21
1.100006
  0
LINE
  8
0
 10
-157.199997
 20
-46.899994
 11
-113.199997
 21
-46.899994
  0
LINE
  8
0
 10
-157.199997
 20
-44.899994
 11
-113.199997
 21
-44.899994
  0
LINE
  8
0
 10
-171.399994
 20
-0.899994
 11
-177.399994
 21
-0.899994
  0
LINE
  8
0
 10
-171.399994
 20
-38.899994
 11
-177.399994
 21
-38.899994
  0
LINE
  8
0
 10
-99.000000
 20
-0.899994
 11
-93.000000
 21
-0.899994
  0
LINE
  8
0
 10
-99.000000
 20
-38.899994
 11
-93.000000
 21
-38.899994
  0
LINE
  8
0
 10
-91.000000
 20
0.100006
 11
-91.000000
 21
-39.899994
  0
LINE
  8
0
  6
CENTER
 62
     2
 10
-85.380005
 20
-5.399994
 11
-161.699997
 21
-5.399994
  0
LINE
  8
0
  6
CENTER
 62
     2
 10
-108.730011
 20
-34.399994
 11
-185.759995
 21
-34.399994
  0
LINE
  8
0
 10
-99.000000
 20
-31.399994
 11
-113.199997
 21
-31.399994
  0
LINE
  8
0
 10
-113.199997
 20
-25.399994
 11
-99.000000
 21
-25.399994
  0
LINE
  8
0
 10
-171.399994
 20
-31.399994
 11
-157.199997
 21
-31.399994
  0
LINE
  8
0
 10
-113.199997
 20
-2.399994
 11
-99.000000
 21
-2.399994
  0
LINE
  8
0
 10
-157.199997
 20
-14.399994
 11
-171.399994
 21
-14.399994
  0
LINE
  8
0
 10
-171.399994
 20
-8.399994
 11
-157.199997
 21
-8.399994
  0
LINE
  8
0
 10
-157.199997
 20
-37.399994
 11
-171.399994
 21
-37.399994
  0
LINE
  8
0
  6
CENTER
 62
     2
 10
-135.199997
 20
7.610001
 11
-135.199997
 21
-49.929993
  0
LINE
  8
0
 10
-111.699997
 20
-14.399994
 11
-113.199997
 21
-14.399994
  0
LINE
  8
0
 10
-110.699997
 20
-9.399994
 11
-110.699997
 21
-13.399994
  0
LINE
  8
0
 10
-111.699997
 20
-37.399994
 11
-113.199997
 21
-37.399994
  0
LINE
  8
0
 10
-110.699997
 20
-32.399994
 11
-110.699997
 21
-36.399994
  0
LINE
  8
0
 10
-171.399994
 20
-39.899994
 11
-179.399994
 21
-39.899994
  0
LINE
  8
0
 10
-179.399994
 20
-39.899994
 11
-179.399994
 21
0.100006
  0
LINE
  8
0
 10
-171.399994
 20
-39.899994
 11
-171.399994
 21
0.100006
  0
LINE
  8
0
 10
-171.399994
 20
0.100006
 11
-179.399994
 21
0.100006
  0
LINE
  8
0
 10
-111.700012
 20
-14.400000
 11
-110.700012
 21
-13.399998
  0
LINE
  8
0
 10
-110.699997
 20
-9.399994
 11
-111.700005
 21
-8.399993
  0
LINE
  8
0
 10
-110.699997
 20
-36.399982
 11
-111.700005
 21
-37.399982
  0
LINE
  8
0
 10
-111.700005
 20
-31.399990
 11
-110.700005
 21
-32.399994
  0
LINE
  8
0
 10
-111.699997
 20
-8.399994
 11
-111.699997
 21
-14.399994
  0
LINE
  8
0
 10
-111.699997
 20
-31.399994
 11
-111.699997
 21
-37.399994
  0
LINE
  8
0
 10
-159.699997
 20
-30.399992
 11
-158.699997
 21
-31.399992
  0
LINE
  8
0
 10
-158.699997
 20
-31.399994
 11
-158.699997
 21
-25.399994
  0
LINE
  8
0
 10
-159.699997
 20
-30.399994
 11
-159.699997
 21
-26.399994
  0
LINE
  8
0
 10
-158.699997
 20
-25.399990
 11
-159.699997
 21
-26.399992
  0
LINE
  8
0
 10
-158.699997
 20
-25.399994
 11
-157.199997
 21
-25.399994
  0
LINE
  8
0
 10
-158.699997
 20
-8.399994
 11
-158.699997
 21
-2.399994
  0
LINE
  8
0
 10
-158.699997
 20
-8.399995
 11
-159.699997
 21
-7.399998
  0
LINE
  8
0
 10
-159.699997
 20
-7.399994
 11
-159.699997
 21
-3.399994
  0
LINE
  8
0
 10
-159.699982
 20
-3.400002
 11
-158.699982
 21
-2.400001
  0
LINE
  8
0
 10
-158.699997
 20
-2.399994
 11
-157.199997
 21
-2.399994
  0
LINE
  8
0
  6
CENTER
 62
     2
 10
-118.199997
 20
-16.259995
 11
-118.199997
 21
-23.879993
  0
LINE
  8
0
 10
-113.199997
 20
-8.399994
 11
-99.000000
 21
-8.399994
  0
LINE
  8
0
 10
-179.399994
 20
-15.399994
 11
-183.399994
 21
-15.399994
  0
LINE
  8
0
 10
-179.399994
 20
-11.399994
 11
-183.042725
 21
-11.399994
  0
LINE
  8
0
 10
-179.399994
 20
-7.399994
 11
-183.399994
 21
-7.399994
  0
LINE
  8
0
 10
-183.399994
 20
-15.399994
 11
-183.399994
 21
-7.399994
  0
LINE
  8
0
 10
-179.399994
 20
-38.399994
 11
-183.399994
 21
-38.399994
  0
LINE
  8
0
 10
-179.399994
 20
-34.399994
 11
-183.042725
 21
-34.399994
  0
LINE
  8
0
 10
-179.399994
 20
-30.399994
 11
-183.399994
 21
-30.399994
  0
LINE
  8
0
 10
-183.399994
 20
-38.399994
 11
-183.399994
 21
-30.399994
  0
LINE
  8
0
 10
-183.466995
 20
-13.899994
 11
-183.399994
 21
-13.899994
  0
LINE
  8
0
 62
     2
 10
-183.899994
 20
-13.466994
 11
-183.399994
 21
-13.466994
  0
LINE
  8
0
 10
-183.466995
 20
-8.899994
 11
-183.399994
 21
-8.899994
  0
LINE
  8
0
 62
     2
 10
-183.899994
 20
-9.332994
 11
-183.399994
 21
-9.332994
  0
LINE
  8
0
 10
-183.899994
 20
-9.332994
 11
-183.899994
 21
-13.466994
  0
LINE
  8
0
 10
-183.899994
 20
-9.332994
 11
-183.466995
 21
-8.899998
  0
LINE
  8
0
 10
-183.899963
 20
-13.466986
 11
-183.466965
 21
-13.899982
  0
LINE
  8
0
 10
-183.466995
 20
-8.899994
 11
-183.466995
 21
-13.899994
  0
LINE
  8
0
 10
-183.466995
 20
-36.899994
 11
-183.399994
 21
-36.899994
  0
LINE
  8
0
 62
     2
 10
-183.899994
 20
-36.466980
 11
-183.399994
 21
-36.466980
  0
LINE
  8
0
 10
-183.466995
 20
-31.899994
 11
-183.399994
 21
-31.899994
  0
LINE
  8
0
 62
     2
 10
-183.899994
 20
-32.332993
 11
-183.399994
 21
-32.332993
  0
LINE
  8
0
 10
-183.899994
 20
-32.332993
 11
-183.899994
 21
-36.466980
  0
LINE
  8
0
 10
-183.899994
 20
-32.332985
 11
-183.466995
 21
-31.899990
  0
LINE
  8
0
 10
-183.899979
 20
-36.466991
 11
-183.466980
 21
-36.899986
  0
LINE
  8
0
 10
-183.466995
 20
-31.899994
 11
-183.466995
 21
-36.899994
  0
LINE
  8
0
 10
-91.000000
 20
-1.399994
 11
-87.000000
 21
-1.399994
  0
LINE
  8
0
 10
-91.000000
 20
-5.399994
 11
-87.357269
 21
-5.399994
  0
LINE
  8
0
 10
-91.000000
 20
-9.399994
 11
-87.000000
 21
-9.399994
  0
LINE
  8
0
 10
-87.000000
 20
-1.399994
 11
-87.000000
 21
-9.399994
  0
LINE
  8
0
 10
-86.932999
 20
-2.899994
 11
-87.000000
 21
-2.899994
  0
LINE
  8
0
 62
     2
 10
-86.500000
 20
-3.333008
 11
-87.000000
 21
-3.333008
  0
LINE
  8
0
 10
-86.932999
 20
-7.899994
 11
-87.000000
 21
-7.899994
  0
LINE
  8
0
 62
     2
 10
-86.500000
 20
-7.466994
 11
-87.000000
 21
-7.466994
  0
LINE
  8
0
 10
-86.500000
 20
-7.466994
 11
-86.500000
 21
-3.333008
  0
LINE
  8
0
 10
-86.500000
 20
-7.466997
 11
-86.932999
 21
-7.899992
  0
LINE
  8
0
 10
-86.500015
 20
-3.332995
 11
-86.933014
 21
-2.899998
  0
LINE
  8
0
 10
-86.932999
 20
-7.899994
 11
-86.932999
 21
-2.899994
  0
LINE
  8
0
 10
-91.000000
 20
-24.399994
 11
-87.000000
 21
-24.399994
  0
LINE
  8
0
 10
-91.000000
 20
-28.399994
 11
-87.357269
 21
-28.399994
  0
LINE
  8
0
 10
-91.000000
 20
-32.399994
 11
-87.000000
 21
-32.399994
  0
LINE
  8
0
 10
-87.000000
 20
-24.399994
 11
-87.000000
 21
-32.399994
  0
LINE
  8
0
 10
-86.932999
 20
-25.899994
 11
-87.000000
 21
-25.899994
  0
LINE
  8
0
 62
     2
 10
-86.500000
 20
-26.332993
 11
-87.000000
 21
-26.332993
  0
LINE
  8
0
 10
-86.932999
 20
-30.899994
 11
-87.000000
 21
-30.899994
  0
LINE
  8
0
 62
     2
 10
-86.500000
 20
-30.466993
 11
-87.000000
 21
-30.466993
  0
LINE
  8
0
 10
-86.500000
 20
-30.466993
 11
-86.500000
 21
-26.332993
  0
LINE
  8
0
 10
-86.500000
 20
-30.467001
 11
-86.932999
 21
-30.899998
  0
LINE
  8
0
 10
-86.500015
 20
-26.332996
 11
-86.933014
 21
-25.900000
  0
LINE
  8
0
 10
-86.932999
 20
-30.899994
 11
-86.932999
 21
-25.899994
  0
LINE
  8
0
 10
-194.250000
 20
132.600006
 11
194.800003
 21
132.600006
  0
LINE
  8
0
 10
194.800003
 20
132.600006
 11
194.800003
 21
-133.500000
  0
LINE
  8
0
 10
-194.250000
 20
132.600006
 11
-194.250000
 21
-133.500000
  0
LINE
  8
0
 10
-194.250000
 20
-133.500000
 11
194.800003
 21
-133.500000
  0
LINE
  8
0
 10
109.800003
 20
-118.500000
 11
109.800003
 21
-133.500000
  0
LINE
  8
0
 10
109.800003
 20
-118.500000
 11
194.800003
 21
-118.500000
  0
LINE
  8
0
 10
109.800003
 20
132.600006
 11
109.800003
 21
117.600006
  0
LINE
  8
0
 10
109.800003
 20
117.600006
 11
194.800003
 21
117.600006
  0
LINE
  8
0
 10
-194.250000
 20
117.600006
 11
-109.250000
 21
117.600006
  0
LINE
  8
0
 10
-109.250000
 20
132.600006
 11
-109.250000
 21
117.600006
  0
CIRCLE
  8
0
 10
129.800003
 20
-19.899994
 40
2.066999
  0
CIRCLE
  8
0
 62
     2
 10
129.800003
 20
-19.899994
 40
2.500000
  0
CIRCLE
  8
0
 62
     2
 10
95.800003
 20
-19.899994
 40
2.500000
  0
CIRCLE
  8
0
 10
112.800003
 20
-19.899994
 40
12.000000
  0
CIRCLE
  8
0
 10
95.800003
 20
-19.899994
 40
2.066999
  0
ARC
  8
0
 10
155.223282
 20
-13.399994
 40
5.776714
 50
339.743866
 51
20.256086
  0
ARC
  8
0
 10
155.223282
 20
-9.399994
 40
5.776714
 50
339.743866
 51
20.256086
  0
ARC
  8
0
 10
155.223282
 20
-36.399994
 40
5.776714
 50
339.743866
 51
20.256104
  0
ARC
  8
0
 10
155.223282
 20
-32.399994
 40
5.776714
 50
339.743866
 51
20.256086
  0
ARC
  8
0
 10
70.376724
 20
-3.399994
 40
5.776708
 50
159.743805
 51
200.256058
  0
ARC
  8
0
 10
70.376724
 20
-7.399994
 40
5.776708
 50
159.743805
 51
200.256058
  0
ARC
  8
0
 10
70.376724
 20
-26.399994
 40
5.776708
 50
159.743805
 51
200.256058
  0
ARC
  8
0
 10
70.376724
 20
-30.399994
 40
5.776708
 50
159.743805
 51
200.256073
  0
CIRCLE
  8
0
 10
-145.699997
 20
-90.966629
 40
2.066999
  0
CIRCLE
  8
0
 62
     2
 10
-145.699997
 20
-90.966629
 40
2.500000
  0
CIRCLE
  8
0
 62
     2
 10
-124.699997
 20
-86.966629
 40
2.500000
  0
CIRCLE
  8
0
 10
-124.699997
 20
-86.966629
 40
4.250000
  0
ARC
  8
0
 10
-145.702469
 20
-90.964890
 40
4.247537
 50
289.852661
 51
179.933929
  0
ARC
  8
0
 10
-145.704147
 20
-90.960724
 40
4.245850
 50
179.990112
 51
250.377533
  0
CIRCLE
  8
0
 10
-124.699997
 20
-86.966629
 40
2.066999
  0
ARC
  8
0
 10
-181.355331
 20
-85.495895
 40
2.044664
 50
154.384399
 51
214.384247
  0
ARC
  8
0
 10
-175.757248
 20
-88.959991
 40
7.642745
 50
162.412003
 51
197.587891
  0
ARC
  8
0
 10
-181.355331
 20
-92.424095
 40
2.044659
 50
145.615753
 51
205.615601
  0
ARC
  8
0
 10
-181.355331
 20
-96.995888
 40
2.044664
 50
154.384399
 51
214.384247
  0
ARC
  8
0
 10
-175.757248
 20
-100.459991
 40
7.642745
 50
162.412003
 51
197.587891
  0
ARC
  8
0
 10
-181.355331
 20
-103.924095
 40
2.044659
 50
145.615753
 51
205.615601
  0
ARC
  8
0
 10
-89.044662
 20
-103.924095
 40
2.044657
 50
334.384308
 51
34.384254
  0
ARC
  8
0
 10
-94.642746
 20
-100.459991
 40
7.642740
 50
342.412109
 51
17.587946
  0
ARC
  8
0
 10
-89.044662
 20
-96.995888
 40
2.044659
 50
325.615753
 51
25.615688
  0
ARC
  8
0
 10
-89.044662
 20
-92.424095
 40
2.044657
 50
334.384308
 51
34.384254
  0
ARC
  8
0
 10
-94.642746
 20
-88.959991
 40
7.642740
 50
342.412109
 51
17.587946
  0
ARC
  8
0
 10
-89.044662
 20
-85.495895
 40
2.044659
 50
325.615753
 51
25.615688
  0
CIRCLE
  8
0
 10
-117.699997
 20
58.166656
 40
1.000000
  0
CIRCLE
  8
0
 10
-152.699997
 20
54.166656
 40
1.000000
  0
ARC
  8
0
 10
-181.355331
 20
64.195900
 40
2.044659
 50
145.615753
 51
205.615494
  0
ARC
  8
0
 10
-175.757248
 20
67.660004
 40
7.642745
 50
162.412003
 51
197.587891
  0
ARC
  8
0
 10
-181.355331
 20
71.124107
 40
2.044664
 50
154.384399
 51
214.384247
  0
ARC
  8
0
 10
-181.355331
 20
59.624107
 40
2.044664
 50
154.384399
 51
214.384171
  0
ARC
  8
0
 10
-175.757248
 20
56.160004
 40
7.642744
 50
162.412033
 51
197.587860
  0
ARC
  8
0
 10
-181.355331
 20
52.695908
 40
2.044659
 50
145.615753
 51
205.615494
  0
ARC
  8
0
 10
-89.044662
 20
52.695908
 40
2.044656
 50
334.384399
 51
34.384254
  0
ARC
  8
0
 10
-94.642746
 20
56.160004
 40
7.642740
 50
342.412109
 51
17.587946
  0
ARC
  8
0
 10
-89.044662
 20
59.624107
 40
2.044657
 50
325.615845
 51
25.615688
  0
ARC
  8
0
 10
-89.044662
 20
71.124107
 40
2.044659
 50
325.615753
 51
25.615688
  0
ARC
  8
0
 10
-94.642746
 20
67.660004
 40
7.642740
 50
342.412109
 51
17.587946
  0
ARC
  8
0
 10
-89.044662
 20
64.195900
 40
2.044656
 50
334.384399
 51
34.384254
  0
CIRCLE
  8
0
 10
12.300003
 20
-11.399994
 40
3.000000
  0
CIRCLE
  8
0
 10
12.300003
 20
-11.399994
 40
4.000000
  0
CIRCLE
  8
0
 10
12.300003
 20
-28.399994
 40
2.500000
  0
CIRCLE
  8
0
 62
     2
 10
12.300003
 20
-28.399994
 40
2.066999
  0
CIRCLE
  8
0
 10
-16.199997
 20
-9.899994
 40
1.620999
  0
CIRCLE
  8
0
 62
     2
 10
-16.199997
 20
-9.899994
 40
2.000000
  0
CIRCLE
  8
0
 10
-16.199997
 20
-29.899994
 40
1.620999
  0
CIRCLE
  8
0
 62
     2
 10
-16.199997
 20
-29.899994
 40
2.000000
  0
CIRCLE
  8
0
 10
0.800003
 20
-34.399994
 40
3.000000
  0
CIRCLE
  8
0
 10
0.800003
 20
-34.399994
 40
4.000000
  0
CIRCLE
  8
0
 10
12.300003
 20
-28.399994
 40
4.000000
  0
CIRCLE
  8
0
 62
     2
 10
0.800003
 20
-5.399994
 40
2.066999
  0
CIRCLE
  8
0
 10
0.800003
 20
-5.399994
 40
4.000000
  0
CIRCLE
  8
0
 10
0.800003
 20
-5.399994
 40
2.500000
  0
CIRCLE
  8
0
 10
0.800003
 20
-5.399994
 40
5.250000
  0
CIRCLE
  8
0
 10
12.300003
 20
-28.399994
 40
5.250000
  0
ARC
  8
0
 10
9.289993
 20
-0.800003
 40
2.099999
 50
180.000031
 51
0.000000
  0
ARC
  8
0
 10
9.289993
 20
-38.999985
 40
2.099999
 50
0.000000
 51
180.000000
  0
CIRCLE
  8
0
 10
0.800003
 20
-34.399994
 40
2.000000
  0
CIRCLE
  8
0
 10
12.300003
 20
-11.399994
 40
2.000000
  0
CIRCLE
  8
0
 10
-118.199997
 20
-19.899967
 40
2.250000
  0
CIRCLE
  8
0
 10
-152.199997
 20
-19.899967
 40
2.250000
  0
ARC
  8
0
 10
-177.623276
 20
-9.399994
 40
5.776715
 50
159.743835
 51
200.256058
  0
ARC
  8
0
 10
-177.623276
 20
-13.399994
 40
5.776715
 50
159.743835
 51
200.256058
  0
ARC
  8
0
 10
-177.623276
 20
-32.399994
 40
5.776715
 50
159.743820
 51
200.256073
  0
ARC
  8
0
 10
-177.623276
 20
-36.399994
 40
5.776715
 50
159.743820
 51
200.256073
  0
ARC
  8
0
 10
-92.776718
 20
-7.399994
 40
5.776707
 50
339.743835
 51
20.256113
  0
ARC
  8
0
 10
-92.776718
 20
-3.399994
 40
5.776707
 50
339.743835
 51
20.256113
  0
ARC
  8
0
 10
-92.776718
 20
-30.399994
 40
5.776707
 50
339.743835
 51
20.256113
  0
ARC
  8
0
 10
-92.776718
 20
-26.399994
 40
5.776707
 50
339.743835
 51
20.256113
  0
TEXT
  8
0
 62
     3
 10
150.540482
 20
-58.715408
 40
2.500000
  1
OPEN
 50
90.000000
 41
1.052632
 51
0.000000
  7
STANDARD
  0
TEXT
  8
0
 62
     3
 10
138.644318
 20
-60.659073
 40
2.500000
  1
CLOSE
 50
90.000000
 41
1.052632
 51
0.000000
  7
STANDARD
  0
TEXT
  8
0
 62
     3
 10
89.455688
 20
-60.659073
 40
2.500000
  1
CLOSE
 50
90.000000
 41
1.052632
 51
0.000000
  7
STANDARD
  0
TEXT
  8
0
 62
     3
 10
77.559525
 20
-58.715408
 40
2.500000
  1
OPEN
 50
90.000000
 41
1.052632
 51
0.000000
  7
STANDARD
  0
TEXT
  8
0
 62
     3
 10
150.375168
 20
9.724806
 40
2.500000
  1
OPEN
 50
90.000000
 41
1.052632
 51
0.000000
  7
STANDARD
  0
TEXT
  8
0
 62
     3
 10
138.327942
 20
10.207031
 40
2.500000
  1
CLOSE
 50
90.000000
 41
1.052632
 51
0.000000
  7
STANDARD
  0
TEXT
  8
0
 62
     3
 10
89.772049
 20
10.207031
 40
2.500000
  1
CLOSE
 50
90.000000
 41
1.052632
 51
0.000000
  7
STANDARD
  0
TEXT
  8
0
 62
     3
 10
77.724838
 20
9.724806
 40
2.500000
  1
OPEN
 50
90.000000
 41
1.052632
 51
0.000000
  7
STANDARD
  0
TEXT
  8
0
 62
     3
 10
-97.807922
 20
-58.400879
 40
2.500000
  1
OPEN
 50
90.000000
 41
1.052632
 51
0.000000
  7
STANDARD
  0
TEXT
  8
0
 62
     3
 10
-109.823593
 20
-60.329193
 40
2.500000
  1
CLOSE
 50
90.000000
 41
1.052632
 51
0.000000
  7
STANDARD
  0
TEXT
  8
0
 62
     3
 10
-97.624832
 20
9.724806
 40
2.500000
  1
OPEN
 50
90.000000
 41
1.052632
 51
0.000000
  7
STANDARD
  0
TEXT
  8
0
 62
     3
 10
-109.672043
 20
10.207031
 40
2.500000
  1
CLOSE
 50
90.000000
 41
1.052632
 51
0.000000
  7
STANDARD
  0
TEXT
  8
0
 62
     3
 10
-158.227936
 20
10.207031
 40
2.500000
  1
CLOSE
 50
90.000000
 41
1.052632
 51
0.000000
  7
STANDARD
  0
TEXT
  8
0
 62
     3
 10
-158.273880
 20
-60.329193
 40
2.500000
  1
CLOSE
 50
90.000000
 41
1.052632
 51
0.000000
  7
STANDARD
  0
TEXT
  8
0
 62
     3
 10
-170.275162
 20
9.724806
 40
2.500000
  1
OPEN
 50
90.000000
 41
1.052632
 51
0.000000
  7
STANDARD
  0
TEXT
  8
0
 62
     3
 10
-170.289551
 20
-58.013290
 40
2.500000
  1
OPEN
 50
90.000000
 41
1.052632
 51
0.000000
  7
STANDARD
  0
TEXT
  8
0
 10
-186.892654
 20
104.550003
 40
4.500000
  1
MODEL:WHDP-12
 50
0.000000
 41
1.052632
 51
0.000000
  7
STANDARD
  0
TEXT
  8
0
 10
133.907150
 20
122.050003
 40
4.500000
  1
Ｖｅｒ．　１．０
 50
0.000000
 41
0.833333
 51
0.000000
  7
STANDARD
  0
TEXT
  8
0
 10
113.700279
 20
-130.669998
 40
6.300000
  1
KOGANEI CORP.
 50
0.000000
 41
1.052632
 51
0.000000
  7
STANDARD
  0
TEXT
  8
0
 10
-192.642654
 20
122.050003
 40
4.500000
  1
WIDE TYPE AIR HAND
 50
0.000000
 41
1.052632
 51
0.000000
  7
STANDARD
  0
ENDSEC
  0
EOF
