  0
SECTION
  2
HEADER
  0
ENDSEC
  0
SECTION
  2
TABLES
  0
TABLE
  2
LTYPE
 70
     4
  0
LTYPE
  2
CONTINUOUS
 70
    64
  3
Solid line
 72
    65
 73
     0
 40
0.000000
  0
LTYPE
  2
DASHED
 70
    64
  3
__ __ __ __ __ __ __ __ __ __ __ __ __ __ __
 72
    65
 73
     2
 40
3.500000
 49
2.000000
 49
-1.500000
  0
LTYPE
  2
CENTER
 70
    64
  3
____ _ ____ _ ____ _ ____ _ ____ _ ____ _ ____
 72
    65
 73
     4
 40
17.500000
 49
13.000000
 49
-1.500000
 49
1.500000
 49
-1.500000
  0
LTYPE
  2
PHANTOM
 70
    64
  3
_____ _ _ _____ _ _ _____ _ _ _____ _ _ ____  
 72
    65
 73
     6
 40
15.500000
 49
8.000000
 49
-1.500000
 49
1.500000
 49
-1.500000
 49
1.500000
 49
-1.500000
  0
LTYPE
  2
DASHED1
 70
    64
  3
__ __ __ __ __ __ __ __ __ __ __ __ __ __ __
 72
    65
 73
     2
 40
1.500000
 49
1.000000
 49
-0.500000
  0
LTYPE
  2
DASHED2
 70
    64
  3
__ __ __ __ __ __ __ __ __ __ __ __ __ __ __
 72
    65
 73
     2
 40
3.500000
 49
2.500000
 49
-1.000000
  0
LTYPE
  2
DASHED3
 70
    64
  3
__ __ __ __ __ __ __ __ __ __ __ __ __ __ __
 72
    65
 73
     2
 40
6.000000
 49
4.000000
 49
-2.000000
  0
LTYPE
  2
DASHED4
 70
    64
  3
__ __ __ __ __ __ __ __ __ __ __ __ __ __ __
 72
    65
 73
     2
 40
12.000000
 49
10.000000
 49
-2.000000
  0
LTYPE
  2
DASHED5
 70
    64
  3
__ __ __ __ __ __ __ __ __ __ __ __ __ __ __
 72
    65
 73
     2
 40
17.000000
 49
15.000000
 49
-2.000000
  0
LTYPE
  2
DASHED6
 70
    64
  3
__ __ __ __ __ __ __ __ __ __ __ __ __ __ __
 72
    65
 73
     2
 40
29.000000
 49
27.000000
 49
-2.000000
  0
LTYPE
  2
PHANTOM1
 70
    64
  3
_____ _ _ _____ _ _ _____ _ _ _____ _ _ ____  
 72
    65
 73
     6
 40
31.000000
 49
25.000000
 49
-1.500000
 49
1.000000
 49
-1.000000
 49
1.000000
 49
-1.500000
  0
LTYPE
  2
PHANTOM2
 70
    64
  3
_____ _ _ _____ _ _ _____ _ _ _____ _ _ ____  
 72
    65
 73
     6
 40
36.000000
 49
27.000000
 49
-1.500000
 49
2.500000
 49
-1.000000
 49
2.500000
 49
-1.500000
  0
LTYPE
  2
PHANTOM3
 70
    64
  3
_____ _ _ _____ _ _ _____ _ _ _____ _ _ ____  
 72
    65
 73
     6
 40
78.000000
 49
64.000000
 49
-2.000000
 49
4.000000
 49
-2.000000
 49
4.000000
 49
-2.000000
  0
LTYPE
  2
CENTER1
 70
    64
  3
____ _ ____ _ ____ _ ____ _ ____ _ ____ _ ____
 72
    65
 73
     4
 40
19.000000
 49
14.000000
 49
-1.000000
 49
3.000000
 49
-1.000000
  0
LTYPE
  2
CENTER2
 70
    64
  3
____ _ ____ _ ____ _ ____ _ ____ _ ____ _ ____
 72
    65
 73
     4
 40
28.500000
 49
25.000000
 49
-1.000000
 49
1.500000
 49
-1.000000
  0
LTYPE
  2
CENTER3
 70
    64
  3
____ _ ____ _ ____ _ ____ _ ____ _ ____ _ ____
 72
    65
 73
     4
 40
31.500000
 49
27.000000
 49
-1.000000
 49
2.500000
 49
-1.000000
  0
LTYPE
  2
CENTER4
 70
    64
  3
____ _ ____ _ ____ _ ____ _ ____ _ ____ _ ____
 72
    65
 73
     4
 40
50.000000
 49
45.000000
 49
-1.000000
 49
3.000000
 49
-1.000000
  0
LTYPE
  2
CENTER5
 70
    64
  3
____ _ ____ _ ____ _ ____ _ ____ _ ____ _ ____
 72
    65
 73
     4
 40
100.000000
 49
92.000000
 49
-2.000000
 49
4.000000
 49
-2.000000
  0
LTYPE
  2
SBK1
 70
    64
  3
______ _ _ _ ______ _ _ _ ______ _ _ _ _____  
 72
    65
 73
     8
 40
60.500000
 49
45.000000
 49
-2.000000
 49
2.500000
 49
-2.000000
 49
2.500000
 49
-2.000000
 49
2.500000
 49
-2.000000
  0
LTYPE
  2
SBK2
 70
    64
  3
______ _ _ _ ______ _ _ _ ______ _ _ _ _____  
 72
    65
 73
     8
 40
84.000000
 49
64.000000
 49
-2.000000
 49
4.000000
 49
-2.000000
 49
4.000000
 49
-2.000000
 49
4.000000
 49
-2.000000
  0
LTYPE
  2
STCH
 70
    64
  3
__ __ __ __ __ __ __ __ __ __ __ __ __ __ __
 72
    65
 73
     2
 40
3.000000
 49
1.000000
 49
-2.000000
  0
LTYPE
  2
MTCH
 70
    64
  3
_____ _ _ _____ _ _ _____ _ _ _____ _ _ ____  
 72
    65
 73
     6
 40
80.000000
 49
66.000000
 49
-2.000000
 49
4.000000
 49
-2.000000
 49
4.000000
 49
-2.000000
  0
ENDTAB
  0
TABLE
  2
LAYER
 70
     1
  0
LAYER
  2
0
 70
     0
 62
     7
  6
CONTINUOUS
  0
ENDTAB
  0
TABLE
  2
STYLE
 70
     1
  0
STYLE
  2
STANDARD
 70
     0
 40
0.000000
 41
1.000000
 50
0.000000
 71
     0
 42
0.200000
  3
txt
  4
BIGFONT
  0
ENDTAB
  0
TABLE
  2
VIEW
 70
     0
  0
ENDTAB
  0
ENDSEC
  0
SECTION
  2
BLOCKS
  0
ENDSEC
  0
SECTION
  2
ENTITIES
  0
LINE
  8
0
  6
PHANTOM
 62
     3
 10
217.299850
 20
20.222610
 11
217.299850
 21
39.316483
  0
LINE
  8
0
  6
PHANTOM
 62
     3
 10
217.299850
 20
-55.560120
 11
217.299850
 21
-39.967667
  0
LINE
  8
0
  6
PHANTOM
 62
     3
 10
199.299850
 20
-55.756973
 11
199.299850
 21
-39.967667
  0
LINE
  8
0
  6
PHANTOM
 62
     3
 10
130.899857
 20
-55.363281
 11
130.899857
 21
-39.967667
  0
LINE
  8
0
  6
PHANTOM
 62
     3
 10
112.899857
 20
-56.294266
 11
112.899857
 21
-39.967667
  0
LINE
  8
0
  6
PHANTOM
 62
     3
 10
199.299850
 20
20.222610
 11
199.299850
 21
39.316483
  0
LINE
  8
0
  6
PHANTOM
 62
     3
 10
130.899857
 20
20.222610
 11
130.899857
 21
39.316483
  0
LINE
  8
0
  6
PHANTOM
 62
     3
 10
112.899857
 20
20.222610
 11
112.899857
 21
39.316483
  0
LINE
  8
0
 10
93.076355
 20
-17.990000
 11
93.076355
 21
-25.990000
  0
LINE
  8
0
 10
92.399864
 20
-25.313507
 11
93.076363
 21
-25.990004
  0
LINE
  8
0
 10
92.399864
 20
-18.666492
 11
93.076355
 21
-17.989996
  0
LINE
  8
0
 62
     2
 10
93.899857
 20
-25.313499
 11
92.399857
 21
-25.313499
  0
LINE
  8
0
 62
     2
 10
93.899857
 20
-18.666500
 11
92.399857
 21
-18.666500
  0
LINE
  8
0
 10
93.899857
 20
-17.990000
 11
93.076355
 21
-17.990000
  0
LINE
  8
0
 10
92.399857
 20
-18.666500
 11
92.399857
 21
-25.313499
  0
LINE
  8
0
 10
93.899857
 20
-25.990000
 11
93.076355
 21
-25.990000
  0
LINE
  8
0
 10
93.076355
 20
14.000000
 11
93.076355
 21
6.000000
  0
LINE
  8
0
 10
92.399864
 20
6.676495
 11
93.076363
 21
6.000000
  0
LINE
  8
0
 10
92.399864
 20
13.323506
 11
93.076363
 21
14.000003
  0
LINE
  8
0
 62
     2
 10
93.899857
 20
6.676498
 11
92.399857
 21
6.676498
  0
LINE
  8
0
 62
     2
 10
93.899857
 20
13.323486
 11
92.399857
 21
13.323486
  0
LINE
  8
0
 10
93.899857
 20
14.000000
 11
93.076355
 21
14.000000
  0
LINE
  8
0
 10
92.399857
 20
13.323486
 11
92.399857
 21
6.676498
  0
LINE
  8
0
 10
93.899857
 20
6.000000
 11
93.076355
 21
6.000000
  0
LINE
  8
0
 10
237.123352
 20
-34.000000
 11
237.123352
 21
-26.000000
  0
LINE
  8
0
 10
237.799835
 20
-26.676497
 11
237.123337
 21
-25.999992
  0
LINE
  8
0
 10
237.799835
 20
-33.323502
 11
237.123352
 21
-33.999992
  0
LINE
  8
0
 62
     2
 10
236.299850
 20
-26.676498
 11
237.799850
 21
-26.676498
  0
LINE
  8
0
 62
     2
 10
236.299850
 20
-33.323486
 11
237.799850
 21
-33.323486
  0
LINE
  8
0
 10
236.299850
 20
-34.000000
 11
237.123352
 21
-34.000000
  0
LINE
  8
0
 10
237.799850
 20
-33.323486
 11
237.799850
 21
-26.676498
  0
LINE
  8
0
 10
236.299850
 20
-26.000000
 11
237.123352
 21
-26.000000
  0
LINE
  8
0
 10
237.123352
 20
-2.000000
 11
237.123352
 21
6.000000
  0
LINE
  8
0
 10
237.799835
 20
5.323506
 11
237.123352
 21
5.999998
  0
LINE
  8
0
 10
237.799835
 20
-1.323494
 11
237.123352
 21
-1.999987
  0
LINE
  8
0
 62
     2
 10
236.299850
 20
5.323500
 11
237.799850
 21
5.323500
  0
LINE
  8
0
 62
     2
 10
236.299850
 20
-1.323501
 11
237.799850
 21
-1.323501
  0
LINE
  8
0
 10
236.299850
 20
-2.000000
 11
237.123352
 21
-2.000000
  0
LINE
  8
0
 10
237.799850
 20
-1.323501
 11
237.799850
 21
5.323500
  0
LINE
  8
0
 10
236.299850
 20
6.000000
 11
237.123352
 21
6.000000
  0
LINE
  8
0
 10
229.299850
 20
-28.500000
 11
217.299850
 21
-28.500000
  0
LINE
  8
0
 10
229.299850
 20
8.500000
 11
217.299850
 21
8.500000
  0
LINE
  8
0
 10
100.899857
 20
-28.500000
 11
112.899857
 21
-28.500000
  0
LINE
  8
0
 10
100.899857
 20
8.500000
 11
112.899857
 21
8.500000
  0
LINE
  8
0
 10
93.899857
 20
16.500000
 11
100.899857
 21
16.500000
  0
LINE
  8
0
 10
94.899857
 20
10.009995
 11
100.899857
 21
10.009995
  0
LINE
  8
0
 10
93.899857
 20
16.500000
 11
93.899857
 21
3.509999
  0
LINE
  8
0
 10
93.899857
 20
3.509999
 11
100.899857
 21
3.509999
  0
LINE
  8
0
 10
93.899857
 20
-15.500000
 11
93.899857
 21
-28.489990
  0
LINE
  8
0
 10
93.899857
 20
-15.500000
 11
100.899857
 21
-15.500000
  0
LINE
  8
0
 10
94.899857
 20
-21.990000
 11
100.899857
 21
-21.990000
  0
LINE
  8
0
 10
93.899857
 20
-28.489990
 11
100.899857
 21
-28.489990
  0
LINE
  8
0
  6
CENTER
 62
     2
 10
243.709839
 20
-10.000000
 11
88.399857
 21
-10.000000
  0
LINE
  8
0
 10
236.299850
 20
-4.500000
 11
229.299850
 21
-4.500000
  0
LINE
  8
0
 10
235.299850
 20
2.000000
 11
229.299850
 21
2.000000
  0
LINE
  8
0
 10
236.299850
 20
-4.500000
 11
236.299850
 21
8.489990
  0
LINE
  8
0
 10
236.299850
 20
8.489990
 11
229.299850
 21
8.489990
  0
LINE
  8
0
 10
235.299850
 20
-30.000000
 11
229.299850
 21
-30.000000
  0
LINE
  8
0
 10
135.099854
 20
7.000000
 11
131.599854
 21
7.000000
  0
LINE
  8
0
 10
217.299850
 20
18.500000
 11
217.299850
 21
-38.500000
  0
LINE
  8
0
 10
135.099854
 20
-3.000000
 11
131.599854
 21
-3.000000
  0
LINE
  8
0
 10
130.599854
 20
-1.999998
 11
131.599854
 21
-3.000000
  0
LINE
  8
0
 10
130.599854
 20
6.000000
 11
130.599854
 21
-2.000000
  0
LINE
  8
0
 10
217.299850
 20
-38.500000
 11
229.299850
 21
-38.500000
  0
LINE
  8
0
 10
135.099854
 20
-35.000000
 11
131.599854
 21
-35.000000
  0
LINE
  8
0
 10
130.599854
 20
-33.999989
 11
131.599854
 21
-34.999989
  0
LINE
  8
0
 10
130.599854
 20
-27.000000
 11
130.599854
 21
-34.000000
  0
LINE
  8
0
 10
217.299850
 20
18.500000
 11
229.299850
 21
18.500000
  0
LINE
  8
0
 10
229.299850
 20
18.500000
 11
229.299850
 21
-38.500000
  0
LINE
  8
0
 10
130.599869
 20
5.999991
 11
131.599869
 21
6.999987
  0
LINE
  8
0
 10
199.599854
 20
-18.000008
 11
198.599854
 21
-17.000006
  0
LINE
  8
0
 10
199.599854
 20
-18.000000
 11
199.599854
 21
-26.000000
  0
LINE
  8
0
 10
198.599854
 20
-17.000000
 11
195.099854
 21
-17.000000
  0
LINE
  8
0
 10
199.599838
 20
-25.999985
 11
198.599838
 21
-26.999985
  0
LINE
  8
0
 10
198.599854
 20
-27.000000
 11
195.099854
 21
-27.000000
  0
LINE
  8
0
 10
199.599854
 20
14.000000
 11
199.599854
 21
7.000000
  0
LINE
  8
0
 10
198.599854
 20
15.000000
 11
195.099854
 21
15.000000
  0
LINE
  8
0
 10
199.599854
 20
13.999993
 11
198.599854
 21
14.999994
  0
LINE
  8
0
 10
100.899857
 20
-38.500000
 11
112.899857
 21
-38.500000
  0
LINE
  8
0
 10
112.899857
 20
18.500000
 11
112.899857
 21
-38.500000
  0
LINE
  8
0
 10
100.899857
 20
18.500000
 11
100.899857
 21
-38.500000
  0
LINE
  8
0
 10
100.899857
 20
18.500000
 11
112.899857
 21
18.500000
  0
LINE
  8
0
 10
131.599854
 20
7.000000
 11
131.599854
 21
-3.000000
  0
LINE
  8
0
 10
131.599854
 20
-27.000000
 11
131.599854
 21
-35.000000
  0
LINE
  8
0
 10
198.599854
 20
-17.000000
 11
198.599854
 21
-27.000000
  0
LINE
  8
0
 10
198.599854
 20
15.000000
 11
198.599854
 21
7.000000
  0
LINE
  8
0
  6
CENTER
 62
     2
 10
240.129852
 20
-30.000000
 11
127.409866
 21
-30.000000
  0
LINE
  8
0
  6
CENTER
 62
     2
 10
240.349854
 20
2.000000
 11
127.599854
 21
2.000000
  0
LINE
  8
0
 10
94.899857
 20
-22.000000
 11
100.899857
 21
-22.000000
  0
LINE
  8
0
  6
CENTER
 62
     2
 10
89.979858
 20
-22.000000
 11
201.489853
 21
-22.000000
  0
LINE
  8
0
 10
236.299850
 20
-36.500000
 11
236.299850
 21
-23.509998
  0
LINE
  8
0
 10
236.299850
 20
-23.509998
 11
229.299850
 21
-23.509998
  0
LINE
  8
0
 10
236.299850
 20
-36.500000
 11
229.299850
 21
-36.500000
  0
LINE
  8
0
  6
CENTER
 62
     2
 10
90.219864
 20
10.000000
 11
201.949844
 21
10.000000
  0
LINE
  8
0
 10
135.099854
 20
-38.000000
 11
195.099854
 21
-38.000000
  0
LINE
  8
0
 10
135.099854
 20
-43.000000
 11
195.099854
 21
-43.000000
  0
LINE
  8
0
 10
195.099854
 20
18.000000
 11
135.099854
 21
18.000000
  0
LINE
  8
0
 10
195.099854
 20
23.000000
 11
135.099854
 21
23.000000
  0
LINE
  8
0
 10
195.099854
 20
-47.000000
 11
135.099854
 21
-47.000000
  0
LINE
  8
0
 10
135.099854
 20
-17.000000
 11
112.899857
 21
-17.000000
  0
LINE
  8
0
 10
135.099854
 20
-27.000000
 11
112.899857
 21
-27.000000
  0
LINE
  8
0
 10
217.299850
 20
7.000000
 11
195.099854
 21
7.000000
  0
LINE
  8
0
 10
217.299850
 20
-3.000000
 11
195.099854
 21
-3.000000
  0
LINE
  8
0
 10
217.299850
 20
-35.000000
 11
195.099854
 21
-35.000000
  0
LINE
  8
0
 10
217.299850
 20
-25.000000
 11
199.599854
 21
-25.000000
  0
LINE
  8
0
 10
130.599854
 20
5.000000
 11
112.899857
 21
5.000000
  0
LINE
  8
0
 10
135.099854
 20
15.000000
 11
112.899857
 21
15.000000
  0
LINE
  8
0
  6
CENTER
 62
     2
 10
165.099854
 20
30.000000
 11
165.099854
 21
-54.000000
  0
LINE
  8
0
  6
CENTER
 62
     2
 10
142.099854
 20
-4.380000
 11
142.099854
 21
-15.990000
  0
LINE
  8
0
  6
CENTER
 62
     2
 10
188.099854
 20
-4.380000
 11
188.099854
 21
-16.410000
  0
LINE
  8
0
 10
135.099854
 20
23.000000
 11
135.099854
 21
-47.000000
  0
LINE
  8
0
 10
195.099854
 20
23.000000
 11
195.099854
 21
-47.000000
  0
LINE
  8
0
  6
PHANTOM
 62
     3
 10
-132.700150
 20
-85.341888
 11
-132.700150
 21
-71.190323
  0
LINE
  8
0
  6
PHANTOM
 62
     3
 10
-150.700150
 20
-85.341888
 11
-150.700150
 21
-70.278885
  0
LINE
  8
0
  6
PHANTOM
 62
     3
 10
-219.100143
 20
-85.341888
 11
-219.100143
 21
-70.278885
  0
LINE
  8
0
  6
PHANTOM
 62
     3
 10
-237.100143
 20
-85.341888
 11
-237.100143
 21
-71.190323
  0
LINE
  8
0
 10
-112.876648
 20
-141.500000
 11
-112.876648
 21
-133.500000
  0
LINE
  8
0
 10
-112.200150
 20
-134.176498
 11
-112.876648
 21
-133.500000
  0
LINE
  8
0
 10
-112.200150
 20
-140.823502
 11
-112.876656
 21
-141.500000
  0
LINE
  8
0
 62
     2
 10
-114.200150
 20
-134.176498
 11
-112.200150
 21
-134.176498
  0
LINE
  8
0
 62
     2
 10
-114.200150
 20
-140.823502
 11
-112.200150
 21
-140.823502
  0
LINE
  8
0
 10
-114.200150
 20
-141.500000
 11
-112.876648
 21
-141.500000
  0
LINE
  8
0
 10
-112.200150
 20
-140.823502
 11
-112.200150
 21
-134.176498
  0
LINE
  8
0
 10
-114.200150
 20
-133.500000
 11
-112.876648
 21
-133.500000
  0
LINE
  8
0
 10
-112.876648
 20
-124.000000
 11
-112.876648
 21
-116.000000
  0
LINE
  8
0
 10
-112.200157
 20
-116.676506
 11
-112.876663
 21
-116.000000
  0
LINE
  8
0
 10
-112.200157
 20
-123.323502
 11
-112.876648
 21
-123.999992
  0
LINE
  8
0
 62
     2
 10
-114.200150
 20
-116.676514
 11
-112.200150
 21
-116.676514
  0
LINE
  8
0
 62
     2
 10
-114.200150
 20
-123.323502
 11
-112.200150
 21
-123.323502
  0
LINE
  8
0
 10
-114.200150
 20
-124.000000
 11
-112.876648
 21
-124.000000
  0
LINE
  8
0
 10
-112.200150
 20
-123.323502
 11
-112.200150
 21
-116.676514
  0
LINE
  8
0
 10
-114.200150
 20
-116.000000
 11
-112.876648
 21
-116.000000
  0
LINE
  8
0
 10
-256.923645
 20
-133.500000
 11
-256.923645
 21
-141.500000
  0
LINE
  8
0
 10
-257.600128
 20
-140.823517
 11
-256.923645
 21
-141.500000
  0
LINE
  8
0
 10
-257.600128
 20
-134.176498
 11
-256.923645
 21
-133.500000
  0
LINE
  8
0
 62
     2
 10
-255.600143
 20
-140.823502
 11
-257.600159
 21
-140.823502
  0
LINE
  8
0
 62
     2
 10
-255.600143
 20
-134.176498
 11
-257.600159
 21
-134.176498
  0
LINE
  8
0
 10
-255.600143
 20
-133.500000
 11
-256.923645
 21
-133.500000
  0
LINE
  8
0
 10
-257.600159
 20
-134.176498
 11
-257.600159
 21
-140.823502
  0
LINE
  8
0
 10
-255.600143
 20
-141.500000
 11
-256.923645
 21
-141.500000
  0
LINE
  8
0
 10
-256.923645
 20
-116.000000
 11
-256.923645
 21
-124.000000
  0
LINE
  8
0
 10
-257.600128
 20
-123.323502
 11
-256.923645
 21
-124.000000
  0
LINE
  8
0
 10
-257.600128
 20
-116.676506
 11
-256.923615
 21
-116.000008
  0
LINE
  8
0
 62
     2
 10
-255.600143
 20
-123.323502
 11
-257.600159
 21
-123.323502
  0
LINE
  8
0
 62
     2
 10
-255.600143
 20
-116.676514
 11
-257.600159
 21
-116.676514
  0
LINE
  8
0
 10
-255.600143
 20
-116.000000
 11
-256.923645
 21
-116.000000
  0
LINE
  8
0
 10
-257.600159
 20
-116.676514
 11
-257.600159
 21
-123.323502
  0
LINE
  8
0
 10
-255.600143
 20
-124.000000
 11
-256.923645
 21
-124.000000
  0
LINE
  8
0
 10
-132.700150
 20
-145.000000
 11
-115.200150
 21
-145.000000
  0
LINE
  8
0
  6
CENTER
 62
     2
 10
-218.140137
 20
-130.000000
 11
-150.850159
 21
-130.000000
  0
LINE
  8
0
  6
CENTER
 62
     2
 10
-217.630142
 20
-110.000000
 11
-152.390152
 21
-110.000000
  0
LINE
  8
0
 10
-120.700150
 20
-133.500000
 11
-115.200150
 21
-133.500000
  0
LINE
  8
0
 10
-120.700150
 20
-130.000000
 11
-115.200150
 21
-130.000000
  0
LINE
  8
0
 10
-114.200150
 20
-131.750000
 11
-114.200150
 21
-143.250000
  0
LINE
  8
0
 10
-120.700150
 20
-141.500000
 11
-115.200150
 21
-141.500000
  0
LINE
  8
0
 10
-120.700150
 20
-112.500000
 11
-115.200150
 21
-112.500000
  0
LINE
  8
0
 10
-120.700150
 20
-116.000000
 11
-115.200150
 21
-116.000000
  0
LINE
  8
0
 10
-120.700150
 20
-124.000000
 11
-115.200150
 21
-124.000000
  0
LINE
  8
0
 10
-120.700150
 20
-127.500000
 11
-115.200150
 21
-127.500000
  0
LINE
  8
0
 10
-114.200150
 20
-114.250000
 11
-114.200150
 21
-125.750000
  0
LINE
  8
0
 10
-249.100143
 20
-135.000000
 11
-237.100143
 21
-135.000000
  0
LINE
  8
0
 10
-132.700150
 20
-135.000000
 11
-120.700150
 21
-135.000000
  0
LINE
  8
0
 10
-247.100143
 20
-90.000000
 11
-237.100143
 21
-90.000000
  0
LINE
  8
0
 10
-132.700150
 20
-90.000000
 11
-122.700150
 21
-90.000000
  0
LINE
  8
0
 10
-249.100143
 20
-130.000000
 11
-254.600143
 21
-130.000000
  0
LINE
  8
0
 10
-249.100143
 20
-133.500000
 11
-254.600143
 21
-133.500000
  0
LINE
  8
0
 10
-249.100143
 20
-141.500000
 11
-254.600143
 21
-141.500000
  0
LINE
  8
0
 10
-249.100143
 20
-145.000000
 11
-254.600143
 21
-145.000000
  0
LINE
  8
0
 10
-255.600143
 20
-131.750000
 11
-255.600143
 21
-143.250000
  0
LINE
  8
0
 10
-249.100143
 20
-112.500000
 11
-254.600143
 21
-112.500000
  0
LINE
  8
0
 10
-249.100143
 20
-116.000000
 11
-254.600143
 21
-116.000000
  0
LINE
  8
0
 10
-249.100143
 20
-124.000000
 11
-254.600143
 21
-124.000000
  0
LINE
  8
0
 10
-249.100143
 20
-127.500000
 11
-254.600143
 21
-127.500000
  0
LINE
  8
0
 10
-255.600143
 20
-114.250000
 11
-255.600143
 21
-125.750000
  0
LINE
  8
0
 10
-249.100143
 20
-108.000000
 11
-249.100143
 21
-145.000000
  0
LINE
  8
0
 10
-237.100143
 20
-87.000000
 11
-237.100143
 21
-145.000000
  0
LINE
  8
0
 10
-120.700150
 20
-108.000000
 11
-120.700150
 21
-145.000000
  0
LINE
  8
0
 10
-132.700150
 20
-87.000000
 11
-132.700150
 21
-145.000000
  0
LINE
  8
0
 10
-214.900146
 20
-141.000000
 11
-154.900146
 21
-141.000000
  0
LINE
  8
0
 10
-214.900146
 20
-127.500000
 11
-154.900146
 21
-127.500000
  0
LINE
  8
0
 10
-214.900146
 20
-112.500000
 11
-154.900146
 21
-112.500000
  0
LINE
  8
0
 10
-214.900146
 20
-111.600006
 11
-154.900146
 21
-111.600006
  0
LINE
  8
0
 10
-214.900146
 20
-108.400009
 11
-154.900146
 21
-108.400009
  0
LINE
  8
0
 10
-214.900146
 20
-131.600006
 11
-154.900146
 21
-131.600006
  0
LINE
  8
0
 10
-214.900146
 20
-128.400009
 11
-154.900146
 21
-128.400009
  0
LINE
  8
0
  6
CENTER
 62
     2
 10
-173.530151
 20
-117.000000
 11
-161.990158
 21
-117.000000
  0
LINE
  8
0
  6
CENTER
 62
     2
 10
-167.900146
 20
-122.840012
 11
-167.900146
 21
-111.160004
  0
LINE
  8
0
 10
-249.100143
 20
-108.000000
 11
-247.100143
 21
-108.000000
  0
LINE
  8
0
 10
-122.700150
 20
-108.000000
 11
-120.700150
 21
-108.000000
  0
LINE
  8
0
 10
-249.100143
 20
-145.000000
 11
-237.100143
 21
-145.000000
  0
LINE
  8
0
 10
-214.900146
 20
-146.000000
 11
-154.900146
 21
-146.000000
  0
LINE
  8
0
  6
CENTER
 62
     2
 10
-207.870132
 20
-123.000000
 11
-196.190140
 21
-123.000000
  0
LINE
  8
0
  6
CENTER
 62
     2
 10
-201.900146
 20
-128.330002
 11
-201.900146
 21
-116.790009
  0
LINE
  8
0
  6
CENTER
 62
     2
 10
-184.900146
 20
-104.000000
 11
-184.900146
 21
-148.350006
  0
LINE
  8
0
 10
-219.400146
 20
-141.500000
 11
-218.400146
 21
-142.500000
  0
LINE
  8
0
 10
-151.400146
 20
-115.000000
 11
-150.400146
 21
-116.000000
  0
LINE
  8
0
 10
-151.400162
 20
-125.000015
 11
-150.400146
 21
-124.000008
  0
LINE
  8
0
 10
-219.400146
 20
-133.500000
 11
-218.400146
 21
-132.500000
  0
LINE
  8
0
 10
-151.400146
 20
-115.000000
 11
-151.400146
 21
-125.000000
  0
LINE
  8
0
 10
-218.400146
 20
-132.500000
 11
-218.400146
 21
-142.500000
  0
LINE
  8
0
 10
-219.400146
 20
-133.500000
 11
-219.400146
 21
-141.500000
  0
LINE
  8
0
 10
-150.400146
 20
-116.000000
 11
-150.400146
 21
-124.000000
  0
LINE
  8
0
 10
-154.900146
 20
-142.500000
 11
-132.700150
 21
-142.500000
  0
LINE
  8
0
 10
-154.900146
 20
-132.500000
 11
-132.700150
 21
-132.500000
  0
LINE
  8
0
 10
-154.900146
 20
-125.000000
 11
-132.700150
 21
-125.000000
  0
LINE
  8
0
 10
-154.900146
 20
-115.000000
 11
-132.700150
 21
-115.000000
  0
LINE
  8
0
 10
-237.100143
 20
-132.500000
 11
-214.900146
 21
-132.500000
  0
LINE
  8
0
 10
-237.100143
 20
-142.500000
 11
-214.900146
 21
-142.500000
  0
LINE
  8
0
  6
CENTER
 62
     2
 10
-259.670135
 20
-137.500000
 11
-109.580154
 21
-137.500000
  0
LINE
  8
0
 10
-237.100143
 20
-125.000000
 11
-214.900146
 21
-125.000000
  0
LINE
  8
0
 10
-237.100143
 20
-115.000000
 11
-214.900146
 21
-115.000000
  0
LINE
  8
0
 10
-214.900146
 20
-106.000000
 11
-154.900146
 21
-106.000000
  0
LINE
  8
0
 10
-132.700150
 20
-87.000000
 11
-122.700150
 21
-87.000000
  0
LINE
  8
0
 10
-122.700150
 20
-87.000000
 11
-122.700150
 21
-108.000000
  0
LINE
  8
0
 10
-154.900146
 20
-106.000000
 11
-154.900146
 21
-146.000000
  0
LINE
  8
0
 10
-214.900146
 20
-106.000000
 11
-214.900146
 21
-146.000000
  0
LINE
  8
0
 10
-247.100143
 20
-87.000000
 11
-247.100143
 21
-108.000000
  0
LINE
  8
0
 10
-247.100143
 20
-87.000000
 11
-237.100143
 21
-87.000000
  0
LINE
  8
0
  6
CENTER
 62
     2
 10
-260.930145
 20
-120.000000
 11
-108.270157
 21
-120.000000
  0
LINE
  8
0
  6
PHANTOM
 62
     3
 10
-219.100143
 20
53.558029
 11
-219.100143
 21
65.133835
  0
LINE
  8
0
  6
PHANTOM
 62
     3
 10
-150.700150
 20
53.026825
 11
-150.700150
 21
65.133835
  0
LINE
  8
0
  6
PHANTOM
 62
     3
 10
-132.700150
 20
50.724976
 11
-132.700150
 21
65.133835
  0
LINE
  8
0
  6
PHANTOM
 62
     3
 10
-237.100143
 20
52.141495
 11
-237.100143
 21
65.133835
  0
LINE
  8
0
 10
-112.200150
 20
120.823502
 11
-112.200150
 21
114.176498
  0
LINE
  8
0
 10
-112.200157
 20
120.823509
 11
-112.876648
 21
121.500000
  0
LINE
  8
0
 10
-112.200150
 20
114.176483
 11
-112.876648
 21
113.499992
  0
LINE
  8
0
 10
-112.876648
 20
121.500000
 11
-112.876648
 21
113.500000
  0
LINE
  8
0
 10
-112.200150
 20
103.323502
 11
-112.200150
 21
96.676514
  0
LINE
  8
0
 10
-112.876648
 20
104.000000
 11
-112.876648
 21
96.000000
  0
LINE
  8
0
 10
-112.200157
 20
103.323502
 11
-112.876648
 21
103.999992
  0
LINE
  8
0
 10
-112.200157
 20
96.676506
 11
-112.876663
 21
96.000000
  0
LINE
  8
0
 62
     2
 10
-114.200150
 20
96.676514
 11
-112.200150
 21
96.676514
  0
LINE
  8
0
 10
-114.200150
 20
96.000000
 11
-112.876648
 21
96.000000
  0
LINE
  8
0
 62
     2
 10
-114.200150
 20
103.323502
 11
-112.200150
 21
103.323502
  0
LINE
  8
0
 10
-114.200150
 20
104.000000
 11
-112.876648
 21
104.000000
  0
LINE
  8
0
 62
     2
 10
-114.200150
 20
114.176498
 11
-112.200150
 21
114.176498
  0
LINE
  8
0
 62
     2
 10
-114.200150
 20
120.823502
 11
-112.200150
 21
120.823502
  0
LINE
  8
0
 10
-114.200150
 20
121.500000
 11
-112.876648
 21
121.500000
  0
LINE
  8
0
 10
-114.200150
 20
113.500000
 11
-112.876648
 21
113.500000
  0
LINE
  8
0
 10
-257.600128
 20
96.676506
 11
-256.923615
 21
96.000000
  0
LINE
  8
0
 62
     2
 10
-255.600143
 20
96.676514
 11
-257.600159
 21
96.676514
  0
LINE
  8
0
 10
-255.600143
 20
96.000000
 11
-256.923645
 21
96.000000
  0
LINE
  8
0
 10
-257.600128
 20
103.323502
 11
-256.923645
 21
104.000000
  0
LINE
  8
0
 10
-256.923645
 20
104.000000
 11
-256.923645
 21
96.000000
  0
LINE
  8
0
 62
     2
 10
-255.600143
 20
103.323502
 11
-257.600159
 21
103.323502
  0
LINE
  8
0
 10
-255.600143
 20
104.000000
 11
-256.923645
 21
104.000000
  0
LINE
  8
0
 10
-257.600159
 20
103.323502
 11
-257.600159
 21
96.676514
  0
LINE
  8
0
 10
-256.923645
 20
121.500000
 11
-256.923645
 21
113.500000
  0
LINE
  8
0
 10
-257.600128
 20
114.176483
 11
-256.923645
 21
113.500000
  0
LINE
  8
0
 10
-257.600128
 20
120.823502
 11
-256.923645
 21
121.500000
  0
LINE
  8
0
 62
     2
 10
-255.600143
 20
114.176498
 11
-257.600159
 21
114.176498
  0
LINE
  8
0
 62
     2
 10
-255.600143
 20
120.823502
 11
-257.600159
 21
120.823502
  0
LINE
  8
0
 10
-247.100143
 20
70.000000
 11
-237.100143
 21
70.000000
  0
LINE
  8
0
 10
-249.100143
 20
115.000000
 11
-237.100143
 21
115.000000
  0
LINE
  8
0
 10
-255.600143
 20
121.500000
 11
-256.923645
 21
121.500000
  0
LINE
  8
0
 10
-249.100143
 20
88.000000
 11
-249.100143
 21
125.000000
  0
LINE
  8
0
 10
-237.100143
 20
67.000000
 11
-237.100143
 21
125.000000
  0
LINE
  8
0
 10
-249.100143
 20
125.000000
 11
-254.600143
 21
125.000000
  0
LINE
  8
0
 10
-249.100143
 20
107.500000
 11
-254.600143
 21
107.500000
  0
LINE
  8
0
 10
-255.600143
 20
105.750000
 11
-255.600143
 21
94.250000
  0
LINE
  8
0
 10
-249.100143
 20
92.500000
 11
-254.600143
 21
92.500000
  0
LINE
  8
0
 10
-249.100143
 20
104.000000
 11
-254.600143
 21
104.000000
  0
LINE
  8
0
 10
-249.100143
 20
113.500000
 11
-254.600143
 21
113.500000
  0
LINE
  8
0
 10
-257.600159
 20
120.823502
 11
-257.600159
 21
114.176498
  0
LINE
  8
0
 10
-249.100143
 20
96.000000
 11
-254.600143
 21
96.000000
  0
LINE
  8
0
 10
-255.600143
 20
113.500000
 11
-256.923645
 21
113.500000
  0
LINE
  8
0
 10
-249.100143
 20
110.000000
 11
-254.600143
 21
110.000000
  0
LINE
  8
0
 10
-255.600143
 20
123.250000
 11
-255.600143
 21
111.750000
  0
LINE
  8
0
 10
-249.100143
 20
121.500000
 11
-254.600143
 21
121.500000
  0
LINE
  8
0
 10
-249.100143
 20
125.000000
 11
-237.100143
 21
125.000000
  0
LINE
  8
0
 10
-249.100143
 20
88.000000
 11
-247.100143
 21
88.000000
  0
LINE
  8
0
 10
-247.100143
 20
67.000000
 11
-247.100143
 21
88.000000
  0
LINE
  8
0
 10
-247.100143
 20
67.000000
 11
-237.100143
 21
67.000000
  0
LINE
  8
0
 10
-122.700150
 20
70.000000
 11
-132.700150
 21
70.000000
  0
LINE
  8
0
 10
-120.700150
 20
115.000000
 11
-132.700150
 21
115.000000
  0
LINE
  8
0
 10
-120.700150
 20
125.000000
 11
-115.200150
 21
125.000000
  0
LINE
  8
0
 10
-120.700150
 20
121.500000
 11
-115.200150
 21
121.500000
  0
LINE
  8
0
 10
-120.700150
 20
125.000000
 11
-132.700150
 21
125.000000
  0
LINE
  8
0
 10
-120.700150
 20
110.000000
 11
-115.200150
 21
110.000000
  0
LINE
  8
0
 10
-120.700150
 20
113.500000
 11
-115.200150
 21
113.500000
  0
LINE
  8
0
 10
-114.200150
 20
123.250000
 11
-114.200150
 21
111.750000
  0
LINE
  8
0
 10
-120.700150
 20
92.500000
 11
-115.200150
 21
92.500000
  0
LINE
  8
0
 10
-120.700150
 20
96.000000
 11
-115.200150
 21
96.000000
  0
LINE
  8
0
 10
-120.700150
 20
88.000000
 11
-120.700150
 21
125.000000
  0
LINE
  8
0
 10
-132.700150
 20
67.000000
 11
-132.700150
 21
125.000000
  0
LINE
  8
0
 10
-120.700150
 20
107.500000
 11
-115.200150
 21
107.500000
  0
LINE
  8
0
 10
-114.200150
 20
105.750000
 11
-114.200150
 21
94.250000
  0
LINE
  8
0
 10
-120.700150
 20
104.000000
 11
-115.200150
 21
104.000000
  0
LINE
  8
0
  6
CENTER
 62
     2
 10
-184.900146
 20
80.000000
 11
-184.900146
 21
130.000000
  0
LINE
  8
0
 10
-214.900146
 20
121.000000
 11
-154.900146
 21
121.000000
  0
LINE
  8
0
 10
-214.900146
 20
92.000000
 11
-154.900146
 21
92.000000
  0
LINE
  8
0
  6
CENTER
 62
     2
 10
-169.910141
 20
114.000000
 11
-159.600159
 21
114.000000
  0
LINE
  8
0
  6
CENTER
 62
     2
 10
-209.700134
 20
114.000000
 11
-199.380142
 21
114.000000
  0
LINE
  8
0
  6
CENTER
 62
     2
 10
-164.900146
 20
107.280014
 11
-164.900146
 21
120.120003
  0
LINE
  8
0
  6
CENTER
 62
     2
 10
-204.900146
 20
107.910004
 11
-204.900146
 21
119.279999
  0
LINE
  8
0
 10
-120.700150
 20
88.000000
 11
-122.700150
 21
88.000000
  0
LINE
  8
0
 10
-214.900146
 20
126.000000
 11
-154.900146
 21
126.000000
  0
LINE
  8
0
 10
-150.400146
 20
121.499992
 11
-151.400146
 21
122.500000
  0
LINE
  8
0
 10
-218.400146
 20
95.000000
 11
-219.400131
 21
95.999992
  0
LINE
  8
0
 10
-218.400146
 20
105.000015
 11
-219.400162
 21
104.000015
  0
LINE
  8
0
 10
-150.400146
 20
113.500008
 11
-151.400146
 21
112.500008
  0
LINE
  8
0
 10
-218.400146
 20
95.000000
 11
-218.400146
 21
105.000000
  0
LINE
  8
0
 10
-151.400146
 20
112.500000
 11
-151.400146
 21
122.500000
  0
LINE
  8
0
 10
-150.400146
 20
113.500000
 11
-150.400146
 21
121.500000
  0
LINE
  8
0
 10
-219.400146
 20
96.000000
 11
-219.400146
 21
104.000000
  0
LINE
  8
0
 10
-214.900146
 20
122.500000
 11
-237.100143
 21
122.500000
  0
LINE
  8
0
 10
-214.900146
 20
112.500000
 11
-237.100143
 21
112.500000
  0
LINE
  8
0
 10
-214.900146
 20
105.000000
 11
-237.100143
 21
105.000000
  0
LINE
  8
0
 10
-214.900146
 20
95.000000
 11
-237.100143
 21
95.000000
  0
LINE
  8
0
 10
-132.700150
 20
112.500000
 11
-154.900146
 21
112.500000
  0
LINE
  8
0
 10
-132.700150
 20
122.500000
 11
-154.900146
 21
122.500000
  0
LINE
  8
0
  6
CENTER
 62
     2
 10
-108.770157
 20
117.500000
 11
-261.400146
 21
117.500000
  0
LINE
  8
0
 10
-132.700150
 20
105.000000
 11
-154.900146
 21
105.000000
  0
LINE
  8
0
 10
-132.700150
 20
95.000000
 11
-154.900146
 21
95.000000
  0
LINE
  8
0
 10
-214.900146
 20
86.000000
 11
-154.900146
 21
86.000000
  0
LINE
  8
0
 10
-154.900146
 20
86.000000
 11
-154.900146
 21
126.000000
  0
LINE
  8
0
 10
-214.900146
 20
86.000000
 11
-214.900146
 21
126.000000
  0
LINE
  8
0
 10
-122.700150
 20
67.000000
 11
-122.700150
 21
88.000000
  0
LINE
  8
0
 10
-122.700150
 20
67.000000
 11
-132.700150
 21
67.000000
  0
LINE
  8
0
  6
CENTER
 62
     2
 10
-108.300156
 20
100.000000
 11
-262.350159
 21
100.000000
  0
LINE
  8
0
 10
12.599847
 20
-44.899998
 11
13.499848
 21
-43.999992
  0
LINE
  8
0
 10
-3.300153
 20
-43.999996
 11
-2.400151
 21
-44.899994
  0
LINE
  8
0
 10
12.999846
 20
-42.499992
 11
13.499846
 21
-42.999992
  0
LINE
  8
0
 10
-7.000154
 20
-42.499992
 11
-6.500153
 21
-42.999992
  0
LINE
  8
0
 10
16.699846
 20
-42.999992
 11
17.199846
 21
-42.499992
  0
LINE
  8
0
 10
-3.300153
 20
-42.999992
 11
-2.800153
 21
-42.499992
  0
LINE
  8
0
 10
16.699844
 20
-43.000000
 11
16.699844
 21
-44.000000
  0
LINE
  8
0
 10
13.499847
 20
-43.000000
 11
13.499847
 21
-44.000000
  0
LINE
  8
0
 10
-6.500153
 20
-43.000000
 11
-6.500153
 21
-44.000000
  0
LINE
  8
0
 10
-3.300156
 20
-43.000000
 11
-3.300156
 21
-44.000000
  0
LINE
  8
0
 10
17.199844
 20
-40.899994
 11
17.199844
 21
-42.500000
  0
LINE
  8
0
 10
12.999847
 20
-40.899994
 11
12.999847
 21
-42.500000
  0
LINE
  8
0
 10
-7.000153
 20
-40.899994
 11
-7.000153
 21
-42.500000
  0
LINE
  8
0
 10
-2.800156
 20
-40.899994
 11
-2.800156
 21
-42.500000
  0
LINE
  8
0
 10
-24.900152
 20
-38.499989
 11
-27.900145
 21
-35.499996
  0
LINE
  8
0
 10
-24.900154
 20
18.499987
 11
-27.900146
 21
15.499995
  0
LINE
  8
0
  6
DASHED
 62
     2
 10
-8.900154
 20
16.999992
 11
-7.400152
 21
18.499994
  0
LINE
  8
0
  6
DASHED
 62
     2
 10
-8.900146
 20
17.000000
 11
-8.900146
 21
4.500000
  0
LINE
  8
0
  6
DASHED
 62
     2
 10
-8.900156
 20
4.499991
 11
-1.400156
 21
-3.000009
  0
LINE
  8
0
  6
DASHED
 62
     2
 10
-1.400146
 20
-3.000000
 11
-1.400146
 21
-17.000000
  0
LINE
  8
0
  6
DASHED
 62
     2
 10
-8.900155
 20
-24.499990
 11
-1.400155
 21
-16.999990
  0
LINE
  8
0
  6
DASHED
 62
     2
 10
-8.900146
 20
-24.500000
 11
-8.900146
 21
-38.500000
  0
LINE
  8
0
 10
25.099846
 20
-43.999992
 11
31.099842
 21
-37.999996
  0
LINE
  8
0
 10
16.699844
 20
-44.000000
 11
25.099854
 21
-44.000000
  0
LINE
  8
0
 10
12.599854
 20
-44.899994
 11
12.599854
 21
-47.000000
  0
LINE
  8
0
 10
-2.400146
 20
-44.899994
 11
-2.400146
 21
-47.000000
  0
LINE
  8
0
 10
26.099844
 20
22.999990
 11
31.099840
 21
17.999996
  0
LINE
  8
0
 10
-7.400153
 20
18.499994
 11
-2.900148
 21
22.999998
  0
LINE
  8
0
  6
CENTER
 62
     2
 10
13.649841
 20
-40.500000
 11
16.989853
 21
-40.500000
  0
LINE
  8
0
  6
CENTER
 62
     2
 10
-4.900146
 20
-36.569992
 11
-4.900146
 21
-44.250000
  0
LINE
  8
0
 10
-8.900146
 20
-44.000000
 11
-6.500153
 21
-44.000000
  0
LINE
  8
0
  6
CENTER
 62
     2
 10
15.099854
 20
-36.949997
 11
15.099854
 21
-44.519989
  0
LINE
  8
0
  6
CENTER
 62
     2
 10
-6.210159
 20
-40.500000
 11
-3.390152
 21
-40.500000
  0
LINE
  8
0
 10
-8.900146
 20
-38.500000
 11
-8.900146
 21
-44.000000
  0
LINE
  8
0
 10
31.099854
 20
18.000000
 11
31.099854
 21
-38.000000
  0
LINE
  8
0
 10
-2.400146
 20
-47.000000
 11
12.599854
 21
-47.000000
  0
LINE
  8
0
 10
-2.900146
 20
23.000000
 11
26.099854
 21
23.000000
  0
LINE
  8
0
 10
30.099840
 20
-27.499998
 11
19.099846
 21
-38.499992
  0
LINE
  8
0
 10
19.099846
 20
18.499992
 11
30.099842
 21
7.499998
  0
LINE
  8
0
  6
CENTER
 62
     2
 10
-19.900146
 20
9.500000
 11
-19.900146
 21
0.490000
  0
LINE
  8
0
  6
CENTER
 62
     2
 10
-19.900146
 20
-20.730000
 11
-19.900146
 21
-30.500000
  0
LINE
  8
0
 10
-6.900146
 20
18.500000
 11
-6.900146
 21
-38.500000
  0
LINE
  8
0
  6
CENTER
 62
     2
 10
-14.430147
 20
5.000000
 11
-24.370148
 21
5.000000
  0
LINE
  8
0
  6
CENTER
 62
     2
 10
-15.360147
 20
-25.000000
 11
-25.500147
 21
-25.000000
  0
LINE
  8
0
 10
12.599835
 20
9.999998
 11
8.849839
 21
3.510005
  0
LINE
  8
0
 10
8.849854
 20
3.509999
 11
1.349854
 21
3.509999
  0
LINE
  8
0
 10
1.349846
 20
3.509996
 11
-2.400153
 21
9.999995
  0
LINE
  8
0
 10
-2.400155
 20
9.999989
 11
1.349845
 21
16.499989
  0
LINE
  8
0
 10
8.849854
 20
16.500000
 11
1.349854
 21
16.500000
  0
LINE
  8
0
 10
12.599841
 20
9.999993
 11
8.849842
 21
16.499992
  0
LINE
  8
0
 10
30.099854
 20
7.500000
 11
30.099854
 21
-27.500000
  0
LINE
  8
0
 10
-27.900146
 20
15.500000
 11
-27.900146
 21
-35.499985
  0
LINE
  8
0
 10
19.099854
 20
18.500000
 11
-24.900146
 21
18.500000
  0
LINE
  8
0
 10
19.099854
 20
-38.500000
 11
-24.900146
 21
-38.500000
  0
LINE
  8
0
  6
CENTER
 62
     2
 10
5.099854
 20
18.919998
 11
5.099854
 21
-49.169998
  0
LINE
  8
0
 10
30.099846
 20
-22.000008
 11
26.349852
 21
-28.489998
  0
LINE
  8
0
 10
26.349854
 20
-28.489990
 11
18.849854
 21
-28.489990
  0
LINE
  8
0
 10
18.849846
 20
-28.490000
 11
15.099842
 21
-21.999992
  0
LINE
  8
0
 10
15.099849
 20
-21.999998
 11
18.849844
 21
-15.500007
  0
LINE
  8
0
 10
26.349854
 20
-15.500000
 11
18.849854
 21
-15.500000
  0
LINE
  8
0
 10
30.099840
 20
-22.000006
 11
26.349840
 21
-15.500007
  0
LINE
  8
0
  6
CENTER
 62
     2
 10
37.199844
 20
-10.000000
 11
-30.530146
 21
-10.000000
  0
LINE
  8
0
  6
CENTER
 62
     2
 10
32.629852
 20
-22.000000
 11
13.169846
 21
-22.000000
  0
LINE
  8
0
  6
CENTER
 62
     2
 10
32.839844
 20
2.000000
 11
15.139847
 21
2.000000
  0
LINE
  8
0
  6
CENTER
 62
     2
 10
22.599854
 20
8.709991
 11
22.599854
 21
-32.209991
  0
LINE
  8
0
  6
CENTER
 62
     2
 10
-2.530151
 20
-30.000000
 11
14.349854
 21
-30.000000
  0
LINE
  8
0
  6
CENTER
 62
     2
 10
-4.900146
 20
10.000000
 11
16.539841
 21
10.000000
  0
LINE
  8
0
  6
PHANTOM
 62
     3
 10
-132.700134
 20
20.222610
 11
-132.700134
 21
36.405212
  0
LINE
  8
0
  6
PHANTOM
 62
     3
 10
-132.700134
 20
-53.644760
 11
-132.700134
 21
-39.967667
  0
LINE
  8
0
  6
PHANTOM
 62
     3
 10
-150.700134
 20
-53.644760
 11
-150.700134
 21
-39.967667
  0
LINE
  8
0
  6
PHANTOM
 62
     3
 10
-219.100128
 20
-53.644760
 11
-219.100128
 21
-39.967667
  0
LINE
  8
0
  6
PHANTOM
 62
     3
 10
-237.100128
 20
-53.644760
 11
-237.100128
 21
-39.967667
  0
LINE
  8
0
  6
PHANTOM
 62
     3
 10
-150.700134
 20
20.222610
 11
-150.700134
 21
36.405212
  0
LINE
  8
0
  6
PHANTOM
 62
     3
 10
-219.100128
 20
20.222610
 11
-219.100128
 21
36.405212
  0
LINE
  8
0
  6
PHANTOM
 62
     3
 10
-237.100128
 20
20.222610
 11
-237.100128
 21
36.405212
  0
LINE
  8
0
 10
-112.876633
 20
-26.000000
 11
-112.876633
 21
-18.000000
  0
LINE
  8
0
 10
-112.200134
 20
-18.676510
 11
-112.876640
 21
-18.000008
  0
LINE
  8
0
 10
-112.200142
 20
-25.323498
 11
-112.876640
 21
-25.999992
  0
LINE
  8
0
 62
     2
 10
-113.700134
 20
-18.676498
 11
-112.200134
 21
-18.676498
  0
LINE
  8
0
 62
     2
 10
-113.700134
 20
-25.323500
 11
-112.200134
 21
-25.323500
  0
LINE
  8
0
 10
-113.700134
 20
-26.000000
 11
-112.876633
 21
-26.000000
  0
LINE
  8
0
 10
-112.200134
 20
-25.323500
 11
-112.200134
 21
-18.676498
  0
LINE
  8
0
 10
-113.700134
 20
-18.000000
 11
-112.876633
 21
-18.000000
  0
LINE
  8
0
 10
-112.876633
 20
5.999999
 11
-112.876633
 21
13.999985
  0
LINE
  8
0
 10
-112.200142
 20
13.323508
 11
-112.876640
 21
14.000005
  0
LINE
  8
0
 10
-112.200142
 20
6.676497
 11
-112.876640
 21
6.000001
  0
LINE
  8
0
 62
     2
 10
-113.700134
 20
13.323486
 11
-112.200134
 21
13.323486
  0
LINE
  8
0
 62
     2
 10
-113.700134
 20
6.676498
 11
-112.200134
 21
6.676498
  0
LINE
  8
0
 10
-113.700134
 20
5.999999
 11
-112.876633
 21
5.999999
  0
LINE
  8
0
 10
-112.200134
 20
6.676498
 11
-112.200134
 21
13.323486
  0
LINE
  8
0
 10
-113.700134
 20
13.999985
 11
-112.876633
 21
13.999985
  0
LINE
  8
0
 10
-256.923645
 20
-26.000000
 11
-256.923645
 21
-34.000000
  0
LINE
  8
0
 10
-257.600128
 20
-33.323498
 11
-256.923615
 21
-33.999996
  0
LINE
  8
0
 10
-257.600128
 20
-26.676483
 11
-256.923645
 21
-25.999996
  0
LINE
  8
0
 62
     2
 10
-256.100128
 20
-33.323486
 11
-257.600128
 21
-33.323486
  0
LINE
  8
0
 62
     2
 10
-256.100128
 20
-26.676498
 11
-257.600128
 21
-26.676498
  0
LINE
  8
0
 10
-256.100128
 20
-26.000000
 11
-256.923645
 21
-26.000000
  0
LINE
  8
0
 10
-257.600128
 20
-26.676498
 11
-257.600128
 21
-33.323486
  0
LINE
  8
0
 10
-256.100128
 20
-34.000000
 11
-256.923645
 21
-34.000000
  0
LINE
  8
0
 10
-256.923645
 20
5.999999
 11
-256.923645
 21
-2.000001
  0
LINE
  8
0
 10
-257.600128
 20
-1.323493
 11
-256.923615
 21
-1.999992
  0
LINE
  8
0
 10
-257.600128
 20
5.323498
 11
-256.923615
 21
5.999997
  0
LINE
  8
0
 62
     2
 10
-256.100128
 20
-1.323501
 11
-257.600128
 21
-1.323501
  0
LINE
  8
0
 62
     2
 10
-256.100128
 20
5.323500
 11
-257.600128
 21
5.323500
  0
LINE
  8
0
 10
-256.100128
 20
5.999999
 11
-256.923645
 21
5.999999
  0
LINE
  8
0
 10
-257.600128
 20
5.323500
 11
-257.600128
 21
-1.323501
  0
LINE
  8
0
 10
-256.100128
 20
-2.000001
 11
-256.923645
 21
-2.000001
  0
LINE
  8
0
 10
-219.400131
 20
-18.000000
 11
-219.400131
 21
-25.500000
  0
LINE
  8
0
 10
-218.400131
 20
-17.000000
 11
-218.400131
 21
-25.500000
  0
LINE
  8
0
 10
-122.700134
 20
-35.500000
 11
-132.700134
 21
-35.500000
  0
LINE
  8
0
 10
-247.100128
 20
-35.500000
 11
-237.100128
 21
-35.500000
  0
LINE
  8
0
 10
-122.700134
 20
15.499985
 11
-132.700134
 21
15.499985
  0
LINE
  8
0
 10
-247.100128
 20
15.499985
 11
-237.100128
 21
15.499985
  0
LINE
  8
0
 10
-113.700134
 20
3.509999
 11
-120.700134
 21
3.509999
  0
LINE
  8
0
 10
-114.700134
 20
9.999985
 11
-120.700134
 21
9.999985
  0
LINE
  8
0
 10
-113.700134
 20
3.509999
 11
-113.700134
 21
16.499985
  0
LINE
  8
0
 10
-113.700134
 20
16.499985
 11
-120.700134
 21
16.499985
  0
LINE
  8
0
 10
-256.100128
 20
8.499985
 11
-249.100128
 21
8.499985
  0
LINE
  8
0
 10
-255.100128
 20
1.999999
 11
-249.100128
 21
1.999999
  0
LINE
  8
0
 10
-256.100128
 20
8.499985
 11
-256.100128
 21
-4.490001
  0
LINE
  8
0
 10
-256.100128
 20
-4.490001
 11
-249.100128
 21
-4.490001
  0
LINE
  8
0
 10
-256.100128
 20
-23.500000
 11
-249.100128
 21
-23.500000
  0
LINE
  8
0
 10
-255.100128
 20
-30.000000
 11
-249.100128
 21
-30.000000
  0
LINE
  8
0
 10
-256.100128
 20
-23.500000
 11
-256.100128
 21
-36.489990
  0
LINE
  8
0
 10
-256.100128
 20
-36.489990
 11
-249.100128
 21
-36.489990
  0
LINE
  8
0
 10
-114.700134
 20
-22.000000
 11
-120.700134
 21
-22.000000
  0
LINE
  8
0
 10
-151.400131
 20
-25.000000
 11
-151.400131
 21
-35.000000
  0
LINE
  8
0
 10
-151.400131
 20
-3.000001
 11
-151.400131
 21
5.499999
  0
LINE
  8
0
 10
-218.400131
 20
14.999985
 11
-218.400131
 21
4.999999
  0
LINE
  8
0
 10
-237.100128
 20
18.499985
 11
-249.100128
 21
18.499985
  0
LINE
  8
0
 10
-249.100128
 20
18.499985
 11
-249.100128
 21
-38.500000
  0
LINE
  8
0
 10
-237.100128
 20
-38.500000
 11
-249.100128
 21
-38.500000
  0
LINE
  8
0
 10
-237.100128
 20
18.499985
 11
-237.100128
 21
-38.500000
  0
LINE
  8
0
 10
-132.700134
 20
18.499985
 11
-120.700134
 21
18.499985
  0
LINE
  8
0
 10
-120.700134
 20
18.499985
 11
-120.700134
 21
-38.500000
  0
LINE
  8
0
 10
-132.700134
 20
-38.500000
 11
-120.700134
 21
-38.500000
  0
LINE
  8
0
 10
-132.700134
 20
18.499985
 11
-132.700134
 21
-38.500000
  0
LINE
  8
0
  6
CENTER
 62
     2
 10
-184.900131
 20
25.269989
 11
-184.900131
 21
-49.899994
  0
LINE
  8
0
 10
-113.700134
 20
-28.489990
 11
-113.700134
 21
-15.500000
  0
LINE
  8
0
 10
-113.700134
 20
-15.500000
 11
-120.700134
 21
-15.500000
  0
LINE
  8
0
 10
-113.700134
 20
-28.489990
 11
-120.700134
 21
-28.489990
  0
LINE
  8
0
 10
-256.100128
 20
-2.000001
 11
-256.600128
 21
-2.000001
  0
LINE
  8
0
  6
CENTER
 62
     2
 10
-260.140137
 20
1.999999
 11
-148.060135
 21
1.999999
  0
LINE
  8
0
  6
CENTER
 62
     2
 10
-259.790131
 20
-30.000000
 11
-148.530136
 21
-30.000000
  0
LINE
  8
0
 10
-214.900131
 20
-43.000000
 11
-154.900131
 21
-43.000000
  0
LINE
  8
0
 10
-214.900131
 20
17.999985
 11
-154.900131
 21
17.999985
  0
LINE
  8
0
 10
-214.900131
 20
23.000000
 11
-154.900131
 21
23.000000
  0
LINE
  8
0
 10
-214.900131
 20
-47.000000
 11
-154.900131
 21
-47.000000
  0
LINE
  8
0
 10
-154.900131
 20
-17.000000
 11
-132.700134
 21
-17.000000
  0
LINE
  8
0
 10
-154.900131
 20
-3.000001
 11
-151.400131
 21
-3.000001
  0
LINE
  8
0
 10
-150.400131
 20
-2.000005
 11
-151.400131
 21
-3.000006
  0
LINE
  8
0
 10
-219.400146
 20
-18.000006
 11
-218.400146
 21
-17.000004
  0
LINE
  8
0
 10
-150.400131
 20
-2.000001
 11
-150.400131
 21
5.499999
  0
LINE
  8
0
 10
-150.400131
 20
-27.000000
 11
-132.700134
 21
-27.000000
  0
LINE
  8
0
 10
-218.400131
 20
-17.000000
 11
-214.900131
 21
-17.000000
  0
LINE
  8
0
 10
-237.100128
 20
6.999985
 11
-219.400131
 21
6.999985
  0
LINE
  8
0
 10
-237.100128
 20
-3.000001
 11
-214.900131
 21
-3.000001
  0
LINE
  8
0
  6
CENTER
 62
     2
 10
-107.740143
 20
-22.000000
 11
-220.490128
 21
-22.000000
  0
LINE
  8
0
 10
-154.900131
 20
-35.000000
 11
-151.400131
 21
-35.000000
  0
LINE
  8
0
 10
-154.900131
 20
-25.000000
 11
-151.400131
 21
-25.000000
  0
LINE
  8
0
 10
-219.400116
 20
5.999986
 11
-218.400131
 21
4.999993
  0
LINE
  8
0
 10
-219.400131
 20
14.000004
 11
-218.400131
 21
14.999994
  0
LINE
  8
0
 10
-150.400131
 20
-33.999992
 11
-151.400131
 21
-34.999992
  0
LINE
  8
0
 10
-151.400131
 20
-24.999998
 11
-150.400146
 21
-25.999990
  0
LINE
  8
0
 10
-219.400131
 20
13.999985
 11
-219.400131
 21
5.999999
  0
LINE
  8
0
 10
-150.400131
 20
-26.000000
 11
-150.400131
 21
-34.000000
  0
LINE
  8
0
 10
-237.100128
 20
-35.500000
 11
-214.900131
 21
-35.500000
  0
LINE
  8
0
 10
-237.100128
 20
-25.500000
 11
-214.900131
 21
-25.500000
  0
LINE
  8
0
 10
-214.900131
 20
-23.500000
 11
-154.900131
 21
-23.500000
  0
LINE
  8
0
 10
-214.900131
 20
-17.000000
 11
-154.900131
 21
-17.000000
  0
LINE
  8
0
 10
-214.900131
 20
-3.500001
 11
-154.900131
 21
-3.500001
  0
LINE
  8
0
 10
-214.900131
 20
3.499999
 11
-154.900131
 21
3.499999
  0
LINE
  8
0
 10
-154.900131
 20
4.999999
 11
-132.700134
 21
4.999999
  0
LINE
  8
0
 10
-154.900131
 20
14.999985
 11
-132.700134
 21
14.999985
  0
LINE
  8
0
 10
-122.700134
 20
18.499985
 11
-122.700134
 21
-38.500000
  0
LINE
  8
0
 10
-247.100128
 20
18.499985
 11
-247.100128
 21
-38.500000
  0
LINE
  8
0
  6
CENTER
 62
     2
 10
-109.620132
 20
9.999985
 11
-222.640121
 21
9.999985
  0
LINE
  8
0
  6
CENTER
 62
     2
 10
-161.900131
 20
-4.380000
 11
-161.900131
 21
-15.990000
  0
LINE
  8
0
  6
CENTER
 62
     2
 10
-207.900131
 20
-4.380000
 11
-207.900131
 21
-16.410000
  0
LINE
  8
0
  6
CENTER
 62
     2
 10
-262.400146
 20
-10.000000
 11
-103.700134
 21
-10.000000
  0
LINE
  8
0
 10
-218.400131
 20
14.999985
 11
-214.900131
 21
14.999985
  0
LINE
  8
0
 10
-218.400131
 20
4.999999
 11
-214.900131
 21
4.999999
  0
LINE
  8
0
 10
-154.900131
 20
23.000000
 11
-154.900131
 21
-47.000000
  0
LINE
  8
0
 10
-214.900131
 20
23.000000
 11
-214.900131
 21
-47.000000
  0
LINE
  8
0
 10
282.099854
 20
195.500000
 11
282.099854
 21
-195.000000
  0
LINE
  8
0
 10
-281.250000
 20
195.500000
 11
282.099854
 21
195.500000
  0
LINE
  8
0
 10
-281.250000
 20
195.500000
 11
-281.250000
 21
-195.000000
  0
LINE
  8
0
 10
-281.250000
 20
-195.000000
 11
282.099854
 21
-195.000000
  0
LINE
  8
0
 10
162.099976
 20
-175.000000
 11
162.099976
 21
-195.000000
  0
LINE
  8
0
 10
162.099976
 20
-175.000000
 11
282.099854
 21
-175.000000
  0
LINE
  8
0
 10
162.099976
 20
175.500000
 11
282.099854
 21
175.500000
  0
LINE
  8
0
 10
-281.250000
 20
175.500000
 11
-161.250000
 21
175.500000
  0
LINE
  8
0
 10
162.099976
 20
195.500000
 11
162.099976
 21
175.500000
  0
LINE
  8
0
 10
-161.250000
 20
195.500000
 11
-161.250000
 21
175.500000
  0
CIRCLE
  8
0
 10
188.099854
 20
-10.000000
 40
3.323500
  0
CIRCLE
  8
0
 10
142.099854
 20
-10.000000
 40
3.323500
  0
ARC
  8
0
 10
99.673340
 20
13.254990
 40
5.772006
 50
145.792130
 51
214.207779
  0
ARC
  8
0
 10
99.673340
 20
6.759995
 40
5.774816
 50
145.751144
 51
214.248810
  0
ARC
  8
0
 10
99.673340
 20
-18.744999
 40
5.772006
 50
145.792130
 51
214.207764
  0
ARC
  8
0
 10
99.673340
 20
-25.240000
 40
5.774816
 50
145.751144
 51
214.248810
  0
ARC
  8
0
 10
230.526367
 20
-1.250000
 40
5.774816
 50
325.751129
 51
34.248863
  0
ARC
  8
0
 10
230.526367
 20
5.245000
 40
5.772003
 50
325.792175
 51
34.207836
  0
ARC
  8
0
 10
230.526367
 20
-26.754990
 40
5.772003
 50
325.792175
 51
34.207829
  0
ARC
  8
0
 10
230.526367
 20
-33.250000
 40
5.774816
 50
325.751129
 51
34.248863
  0
CIRCLE
  8
0
 10
165.099854
 20
-10.000000
 40
15.000000
  0
CIRCLE
  8
0
 62
     2
 10
142.099854
 20
-10.000000
 40
4.000000
  0
CIRCLE
  8
0
 62
     2
 10
188.099854
 20
-10.000000
 40
4.000000
  0
CIRCLE
  8
0
 10
-167.900146
 20
-117.000000
 40
2.066999
  0
CIRCLE
  8
0
 10
-201.900146
 20
-123.000000
 40
2.066999
  0
ARC
  8
0
 10
-116.231400
 20
-131.750000
 40
2.031254
 50
300.510437
 51
59.489578
  0
ARC
  8
0
 10
-116.231400
 20
-143.250000
 40
2.031254
 50
300.510437
 51
59.489578
  0
ARC
  8
0
 10
-122.700150
 20
-137.500000
 40
8.500000
 50
331.927521
 51
28.072487
  0
ARC
  8
0
 10
-116.231400
 20
-114.250000
 40
2.031254
 50
300.510437
 51
59.489578
  0
ARC
  8
0
 10
-122.700150
 20
-120.000000
 40
8.500000
 50
331.927521
 51
28.072487
  0
ARC
  8
0
 10
-116.231400
 20
-125.750000
 40
2.031254
 50
300.510437
 51
59.489578
  0
ARC
  8
0
 10
-253.568893
 20
-131.750000
 40
2.031250
 50
120.510239
 51
239.489761
  0
ARC
  8
0
 10
-247.100143
 20
-137.500000
 40
8.500000
 50
151.927505
 51
208.072495
  0
ARC
  8
0
 10
-253.568893
 20
-143.250000
 40
2.031250
 50
120.510239
 51
239.489761
  0
ARC
  8
0
 10
-253.568893
 20
-114.250000
 40
2.031250
 50
120.510239
 51
239.489761
  0
ARC
  8
0
 10
-247.100143
 20
-120.000000
 40
8.500000
 50
151.927505
 51
208.072449
  0
ARC
  8
0
 10
-253.568893
 20
-125.750000
 40
2.031250
 50
120.510239
 51
239.489761
  0
CIRCLE
  8
0
 62
     2
 10
-167.900146
 20
-117.000000
 40
2.500000
  0
CIRCLE
  8
0
 10
-167.900146
 20
-117.000000
 40
4.250000
  0
CIRCLE
  8
0
 10
-201.900146
 20
-123.000000
 40
4.250000
  0
CIRCLE
  8
0
 62
     2
 10
-201.900146
 20
-123.000000
 40
2.500000
  0
ARC
  8
0
 10
-253.568893
 20
123.250000
 40
2.031250
 50
120.510239
 51
239.489761
  0
ARC
  8
0
 10
-247.100143
 20
100.000000
 40
8.500000
 50
151.927505
 51
208.072449
  0
ARC
  8
0
 10
-253.568893
 20
105.750000
 40
2.031250
 50
120.510239
 51
239.489761
  0
ARC
  8
0
 10
-253.568893
 20
111.750000
 40
2.031250
 50
120.510239
 51
239.489761
  0
ARC
  8
0
 10
-247.100143
 20
117.500000
 40
8.500000
 50
151.927505
 51
208.072449
  0
ARC
  8
0
 10
-253.568893
 20
94.250000
 40
2.031250
 50
120.510239
 51
239.489761
  0
ARC
  8
0
 10
-116.231400
 20
123.250000
 40
2.031254
 50
300.510437
 51
59.489578
  0
ARC
  8
0
 10
-116.231400
 20
111.750000
 40
2.031254
 50
300.510437
 51
59.489578
  0
ARC
  8
0
 10
-122.700150
 20
117.500000
 40
8.500000
 50
331.927521
 51
28.072487
  0
ARC
  8
0
 10
-116.231400
 20
94.250000
 40
2.031254
 50
300.510437
 51
59.489578
  0
ARC
  8
0
 10
-122.700150
 20
100.000000
 40
8.500000
 50
331.927521
 51
28.072487
  0
ARC
  8
0
 10
-116.231400
 20
105.750000
 40
2.031254
 50
300.510437
 51
59.489578
  0
CIRCLE
  8
0
 10
-204.900146
 20
114.000000
 40
2.458500
  0
CIRCLE
  8
0
 10
-164.900146
 20
114.000000
 40
2.458500
  0
CIRCLE
  8
0
 62
     2
 10
-164.900146
 20
114.000000
 40
3.000000
  0
CIRCLE
  8
0
 62
     2
 10
-204.900146
 20
114.000000
 40
3.000000
  0
CIRCLE
  8
0
 10
-167.900146
 20
97.000000
 40
1.000000
  0
CIRCLE
  8
0
 10
-201.900146
 20
103.000000
 40
1.000000
  0
CIRCLE
  8
0
 62
     2
 10
5.099854
 20
10.000000
 40
3.323500
  0
CIRCLE
  8
0
 10
22.599838
 20
2.000000
 40
4.000000
  0
CIRCLE
  8
0
 10
5.099854
 20
-30.000000
 40
4.000000
  0
ARC
  8
0
 10
15.099854
 20
-40.899994
 40
2.099998
 50
0.000000
 51
180.000000
  0
ARC
  8
0
 10
-4.900146
 20
-40.899994
 40
2.099999
 50
0.000000
 51
180.000000
  0
ARC
  8
0
 10
5.094849
 20
-29.999985
 40
10.500343
 50
234.046875
 51
305.953156
  0
CIRCLE
  8
0
 10
5.098907
 20
10.000717
 40
7.750938
  0
ARC
  8
0
 10
22.599823
 20
-21.994999
 40
7.750631
 50
14.609957
 51
345.389984
  0
CIRCLE
  8
0
 10
-19.900146
 20
-25.000000
 40
2.458500
  0
CIRCLE
  8
0
 10
-19.900146
 20
5.000000
 40
2.458500
  0
CIRCLE
  8
0
 62
     2
 10
-19.900146
 20
-25.000000
 40
3.000000
  0
CIRCLE
  8
0
 62
     2
 10
-19.900146
 20
5.000000
 40
3.000000
  0
CIRCLE
  8
0
 10
22.599838
 20
2.000000
 40
6.000000
  0
CIRCLE
  8
0
 10
22.599838
 20
2.000000
 40
5.000000
  0
CIRCLE
  8
0
 10
5.099854
 20
10.000000
 40
4.000000
  0
CIRCLE
  8
0
 10
5.099854
 20
-30.000000
 40
6.000000
  0
CIRCLE
  8
0
 10
5.099854
 20
-30.000000
 40
5.000000
  0
CIRCLE
  8
0
 62
     2
 10
22.599838
 20
-22.000000
 40
3.323500
  0
CIRCLE
  8
0
 10
22.599838
 20
-22.000000
 40
4.000000
  0
ARC
  8
0
 10
5.094849
 20
9.999985
 40
10.500344
 50
54.046844
 51
125.953117
  0
ARC
  8
0
 10
-119.473618
 20
6.754990
 40
5.772003
 50
325.792175
 51
34.207836
  0
ARC
  8
0
 10
-119.473618
 20
13.249985
 40
5.774816
 50
325.751129
 51
34.248863
  0
ARC
  8
0
 10
-250.326645
 20
5.249999
 40
5.774816
 50
145.751144
 51
214.248856
  0
ARC
  8
0
 10
-250.326645
 20
-1.245001
 40
5.772006
 50
145.792130
 51
214.207825
  0
ARC
  8
0
 10
-250.326645
 20
-26.750000
 40
5.774816
 50
145.751144
 51
214.248840
  0
ARC
  8
0
 10
-250.326645
 20
-33.244995
 40
5.772006
 50
145.792130
 51
214.207825
  0
ARC
  8
0
 10
-119.473618
 20
-18.750000
 40
5.774816
 50
325.751129
 51
34.248863
  0
ARC
  8
0
 10
-119.473618
 20
-25.244999
 40
5.772003
 50
325.792175
 51
34.207829
  0
CIRCLE
  8
0
 10
-207.900131
 20
-10.000000
 40
3.500000
  0
CIRCLE
  8
0
 10
-161.900131
 20
-10.000000
 40
3.500000
  0
TEXT
  8
0
 62
     3
 10
-130.739227
 20
37.381790
 40
3.200000
  1
OPEN
 50
90.000000
 41
1.052632
 51
0.000000
  7
STANDARD
  0
TEXT
  8
0
 62
     3
 10
-235.143555
 20
38.575928
 40
3.200000
  1
OPEN
 50
90.000000
 41
1.052632
 51
0.000000
  7
STANDARD
  0
TEXT
  8
0
 62
     3
 10
-148.799927
 20
37.198326
 40
3.200000
  1
CLOSE
 50
90.000000
 41
1.052632
 51
0.000000
  7
STANDARD
  0
TEXT
  8
0
 62
     3
 10
-217.324371
 20
37.552452
 40
3.200000
  1
CLOSE
 50
90.000000
 41
1.052632
 51
0.000000
  7
STANDARD
  0
TEXT
  8
0
 62
     3
 10
-131.029205
 20
-67.571915
 40
3.200000
  1
OPEN
 50
90.000000
 41
1.052632
 51
0.000000
  7
STANDARD
  0
TEXT
  8
0
 62
     3
 10
-148.745667
 20
-70.156166
 40
3.200000
  1
CLOSE
 50
90.000000
 41
1.052632
 51
0.000000
  7
STANDARD
  0
TEXT
  8
0
 62
     3
 10
-217.446152
 20
-69.762459
 40
3.200000
  1
CLOSE
 50
90.000000
 41
1.052632
 51
0.000000
  7
STANDARD
  0
TEXT
  8
0
 62
     3
 10
-235.162598
 20
-67.965607
 40
3.200000
  1
OPEN
 50
90.000000
 41
1.052632
 51
0.000000
  7
STANDARD
  0
TEXT
  8
0
 62
     3
 10
219.526886
 20
-69.947830
 40
3.200000
  1
OPEN
 50
90.000000
 41
1.052632
 51
0.000000
  7
STANDARD
  0
TEXT
  8
0
 62
     3
 10
201.163925
 20
-73.239159
 40
3.200000
  1
CLOSE
 50
90.000000
 41
1.052632
 51
0.000000
  7
STANDARD
  0
TEXT
  8
0
 62
     3
 10
132.544418
 20
-72.514305
 40
3.200000
  1
CLOSE
 50
90.000000
 41
1.052632
 51
0.000000
  7
STANDARD
  0
TEXT
  8
0
 62
     3
 10
114.423058
 20
-70.672699
 40
3.200000
  1
OPEN
 50
90.000000
 41
1.052632
 51
0.000000
  7
STANDARD
  0
TEXT
  8
0
 62
     3
 10
219.285263
 20
41.122452
 40
3.200000
  1
OPEN
 50
90.000000
 41
1.052632
 51
0.000000
  7
STANDARD
  0
TEXT
  8
0
 62
     3
 10
201.163925
 20
41.213768
 40
3.200000
  1
CLOSE
 50
90.000000
 41
1.052632
 51
0.000000
  7
STANDARD
  0
TEXT
  8
0
 62
     3
 10
132.786026
 20
41.213768
 40
3.200000
  1
CLOSE
 50
90.000000
 41
1.052632
 51
0.000000
  7
STANDARD
  0
TEXT
  8
0
 62
     3
 10
114.664665
 20
41.847305
 40
3.200000
  1
OPEN
 50
90.000000
 41
1.052632
 51
0.000000
  7
STANDARD
  0
TEXT
  8
0
 10
196.250259
 20
180.830002
 40
6.300000
  1
Ｖｅｒ．　１．０
 50
0.000000
 41
0.833333
 51
0.000000
  7
STANDARD
  0
TEXT
  8
0
 10
167.564651
 20
-192.100006
 40
9.000000
  1
KOGANEI CORP.
 50
0.000000
 41
1.052632
 51
0.000000
  7
STANDARD
  0
TEXT
  8
0
 10
-278.599731
 20
180.830002
 40
6.300000
  1
WIDE TYPE AIR HAND
 50
0.000000
 41
1.052632
 51
0.000000
  7
STANDARD
  0
TEXT
  8
0
 10
-270.049713
 20
155.830002
 40
6.300000
  1
MODEL:WHDP-20
 50
0.000000
 41
1.052632
 51
0.000000
  7
STANDARD
  0
ENDSEC
  0
EOF
