  0
SECTION
  2
HEADER
  0
ENDSEC
  0
SECTION
  2
TABLES
  0
TABLE
  2
LTYPE
 70
     4
  0
LTYPE
  2
CONTINUOUS
 70
    64
  3
Solid line
 72
    65
 73
     0
 40
0.000000
  0
LTYPE
  2
DASHED
 70
    64
  3
__ __ __ __ __ __ __ __ __ __ __ __ __ __ __
 72
    65
 73
     2
 40
3.500000
 49
2.000000
 49
-1.500000
  0
LTYPE
  2
CENTER
 70
    64
  3
____ _ ____ _ ____ _ ____ _ ____ _ ____ _ ____
 72
    65
 73
     4
 40
17.500000
 49
13.000000
 49
-1.500000
 49
1.500000
 49
-1.500000
  0
LTYPE
  2
PHANTOM
 70
    64
  3
_____ _ _ _____ _ _ _____ _ _ _____ _ _ ____  
 72
    65
 73
     6
 40
15.500000
 49
8.000000
 49
-1.500000
 49
1.500000
 49
-1.500000
 49
1.500000
 49
-1.500000
  0
LTYPE
  2
DASHED1
 70
    64
  3
__ __ __ __ __ __ __ __ __ __ __ __ __ __ __
 72
    65
 73
     2
 40
1.500000
 49
1.000000
 49
-0.500000
  0
LTYPE
  2
DASHED2
 70
    64
  3
__ __ __ __ __ __ __ __ __ __ __ __ __ __ __
 72
    65
 73
     2
 40
3.500000
 49
2.500000
 49
-1.000000
  0
LTYPE
  2
DASHED3
 70
    64
  3
__ __ __ __ __ __ __ __ __ __ __ __ __ __ __
 72
    65
 73
     2
 40
6.000000
 49
4.000000
 49
-2.000000
  0
LTYPE
  2
DASHED4
 70
    64
  3
__ __ __ __ __ __ __ __ __ __ __ __ __ __ __
 72
    65
 73
     2
 40
12.000000
 49
10.000000
 49
-2.000000
  0
LTYPE
  2
DASHED5
 70
    64
  3
__ __ __ __ __ __ __ __ __ __ __ __ __ __ __
 72
    65
 73
     2
 40
17.000000
 49
15.000000
 49
-2.000000
  0
LTYPE
  2
DASHED6
 70
    64
  3
__ __ __ __ __ __ __ __ __ __ __ __ __ __ __
 72
    65
 73
     2
 40
29.000000
 49
27.000000
 49
-2.000000
  0
LTYPE
  2
PHANTOM1
 70
    64
  3
_____ _ _ _____ _ _ _____ _ _ _____ _ _ ____  
 72
    65
 73
     6
 40
31.000000
 49
25.000000
 49
-1.500000
 49
1.000000
 49
-1.000000
 49
1.000000
 49
-1.500000
  0
LTYPE
  2
PHANTOM2
 70
    64
  3
_____ _ _ _____ _ _ _____ _ _ _____ _ _ ____  
 72
    65
 73
     6
 40
36.000000
 49
27.000000
 49
-1.500000
 49
2.500000
 49
-1.000000
 49
2.500000
 49
-1.500000
  0
LTYPE
  2
PHANTOM3
 70
    64
  3
_____ _ _ _____ _ _ _____ _ _ _____ _ _ ____  
 72
    65
 73
     6
 40
78.000000
 49
64.000000
 49
-2.000000
 49
4.000000
 49
-2.000000
 49
4.000000
 49
-2.000000
  0
LTYPE
  2
CENTER1
 70
    64
  3
____ _ ____ _ ____ _ ____ _ ____ _ ____ _ ____
 72
    65
 73
     4
 40
19.000000
 49
14.000000
 49
-1.000000
 49
3.000000
 49
-1.000000
  0
LTYPE
  2
CENTER2
 70
    64
  3
____ _ ____ _ ____ _ ____ _ ____ _ ____ _ ____
 72
    65
 73
     4
 40
28.500000
 49
25.000000
 49
-1.000000
 49
1.500000
 49
-1.000000
  0
LTYPE
  2
CENTER3
 70
    64
  3
____ _ ____ _ ____ _ ____ _ ____ _ ____ _ ____
 72
    65
 73
     4
 40
31.500000
 49
27.000000
 49
-1.000000
 49
2.500000
 49
-1.000000
  0
LTYPE
  2
CENTER4
 70
    64
  3
____ _ ____ _ ____ _ ____ _ ____ _ ____ _ ____
 72
    65
 73
     4
 40
50.000000
 49
45.000000
 49
-1.000000
 49
3.000000
 49
-1.000000
  0
LTYPE
  2
CENTER5
 70
    64
  3
____ _ ____ _ ____ _ ____ _ ____ _ ____ _ ____
 72
    65
 73
     4
 40
100.000000
 49
92.000000
 49
-2.000000
 49
4.000000
 49
-2.000000
  0
LTYPE
  2
SBK1
 70
    64
  3
______ _ _ _ ______ _ _ _ ______ _ _ _ _____  
 72
    65
 73
     8
 40
60.500000
 49
45.000000
 49
-2.000000
 49
2.500000
 49
-2.000000
 49
2.500000
 49
-2.000000
 49
2.500000
 49
-2.000000
  0
LTYPE
  2
SBK2
 70
    64
  3
______ _ _ _ ______ _ _ _ ______ _ _ _ _____  
 72
    65
 73
     8
 40
84.000000
 49
64.000000
 49
-2.000000
 49
4.000000
 49
-2.000000
 49
4.000000
 49
-2.000000
 49
4.000000
 49
-2.000000
  0
LTYPE
  2
STCH
 70
    64
  3
__ __ __ __ __ __ __ __ __ __ __ __ __ __ __
 72
    65
 73
     2
 40
3.000000
 49
1.000000
 49
-2.000000
  0
LTYPE
  2
MTCH
 70
    64
  3
_____ _ _ _____ _ _ _____ _ _ _____ _ _ ____  
 72
    65
 73
     6
 40
80.000000
 49
66.000000
 49
-2.000000
 49
4.000000
 49
-2.000000
 49
4.000000
 49
-2.000000
  0
ENDTAB
  0
TABLE
  2
LAYER
 70
     1
  0
LAYER
  2
0
 70
     0
 62
     7
  6
CONTINUOUS
  0
ENDTAB
  0
TABLE
  2
STYLE
 70
     1
  0
STYLE
  2
STANDARD
 70
     0
 40
0.000000
 41
1.000000
 50
0.000000
 71
     0
 42
0.200000
  3
txt
  4
BIGFONT
  0
ENDTAB
  0
TABLE
  2
VIEW
 70
     0
  0
ENDTAB
  0
ENDSEC
  0
SECTION
  2
BLOCKS
  0
ENDSEC
  0
SECTION
  2
ENTITIES
  0
LINE
  8
0
 10
-297.000000
 20
210.000000
 11
297.000000
 21
210.000000
  0
LINE
  8
0
 10
-297.000000
 20
-210.000000
 11
297.000000
 21
-210.000000
  0
LINE
  8
0
 10
297.000000
 20
210.000000
 11
297.000000
 21
-210.000000
  0
LINE
  8
0
 10
-297.000000
 20
210.000000
 11
-297.000000
 21
-210.000000
  0
LINE
  8
0
 10
-281.250000
 20
195.500000
 11
282.099976
 21
195.500000
  0
LINE
  8
0
 10
-281.250000
 20
195.500000
 11
-281.250000
 21
-195.000000
  0
LINE
  8
0
 10
282.099976
 20
195.500000
 11
282.099976
 21
-195.000000
  0
LINE
  8
0
 10
-281.250000
 20
-195.000000
 11
282.099976
 21
-195.000000
  0
LINE
  8
0
 10
162.099976
 20
-175.000000
 11
162.099976
 21
-195.000000
  0
LINE
  8
0
 10
162.099976
 20
-175.000000
 11
282.099976
 21
-175.000000
  0
LINE
  8
0
 10
162.099976
 20
175.500000
 11
282.099976
 21
175.500000
  0
LINE
  8
0
 10
-281.250000
 20
175.500000
 11
-161.250000
 21
175.500000
  0
LINE
  8
0
 10
162.099976
 20
195.500000
 11
162.099976
 21
175.500000
  0
LINE
  8
0
 10
-161.250000
 20
195.500000
 11
-161.250000
 21
175.500000
  0
LINE
  8
0
 10
-281.250000
 20
0.250000
 11
282.099976
 21
0.250000
  0
LINE
  8
0
 10
0.424988
 20
-195.000000
 11
0.424988
 21
195.500000
  0
LINE
  8
0
 10
-281.250000
 20
-185.000000
 11
162.099976
 21
-185.000000
  0
LINE
  8
0
 10
-281.250000
 20
10.250000
 11
282.099976
 21
10.250000
  0
TEXT
  8
0
 10
174.200241
 20
180.830002
 40
6.300000
  1
DATE: SEP ,1992
 50
0.000000
 41
1.052632
 51
0.000000
  7
STANDARD
  0
TEXT
  8
0
 10
167.564667
 20
-192.100006
 40
9.000000
  1
KOGANEI CORP.
 50
0.000000
 41
1.052632
 51
0.000000
  7
STANDARD
  0
TEXT
  8
0
 10
-240.285309
 20
178.399994
 40
9.000000
  1
X80M
 50
0.000000
 41
1.052632
 51
0.000000
  7
STANDARD
  0
TEXT
  8
0
 10
-178.862228
 20
0.579999
 40
6.300000
  1
MODEL : X80M
 50
0.000000
 41
1.052632
 51
0.000000
  7
STANDARD
  0
TEXT
  8
0
 10
93.362762
 20
0.579999
 40
6.300000
  1
MODEL : X801-DN
 50
0.000000
 41
1.052632
 51
0.000000
  7
STANDARD
  0
TEXT
  8
0
 10
-188.312225
 20
-194.669998
 40
6.300000
  1
MODEL : X80M-EL
 50
0.000000
 41
1.052632
 51
0.000000
  7
STANDARD
  0
TEXT
  8
0
 10
33.362762
 20
-194.669998
 40
6.300000
  1
MODEL : X80M-UL
 50
0.000000
 41
1.052632
 51
0.000000
  7
STANDARD
  0
POINT
  8
0
 10
-79.900810
 20
95.732147
  0
POINT
  8
0
 10
-85.900810
 20
95.732147
  0
LINE
  8
0
 10
-80.200798
 20
162.232147
 11
-85.600807
 21
162.232147
  0
LINE
  8
0
 10
-79.900810
 20
165.732147
 11
-79.900810
 21
95.732147
  0
LINE
  8
0
 10
-79.900810
 20
165.732147
 11
-85.900810
 21
165.732147
  0
LINE
  8
0
 10
-79.900810
 20
95.732147
 11
-85.900810
 21
95.732147
  0
LINE
  8
0
 10
-85.900810
 20
155.732147
 11
-79.900810
 21
155.732147
  0
LINE
  8
0
 10
-85.900810
 20
154.866119
 11
-79.900810
 21
154.866119
  0
LINE
  8
0
 10
-85.900810
 20
106.598175
 11
-79.900810
 21
106.598175
  0
LINE
  8
0
 10
-85.900810
 20
105.732147
 11
-79.900810
 21
105.732147
  0
LINE
  8
0
 10
-80.200798
 20
99.232132
 11
-85.600807
 21
99.232132
  0
LINE
  8
0
 10
-82.900810
 20
164.932144
 11
-82.900810
 21
159.532135
  0
LINE
  8
0
 10
-82.900810
 20
101.932144
 11
-82.900810
 21
96.532135
  0
LINE
  8
0
 10
-85.900810
 20
165.732147
 11
-85.900810
 21
95.732147
  0
CIRCLE
  8
0
 10
-82.900810
 20
162.232147
 40
1.700000
  0
CIRCLE
  8
0
 10
-82.900810
 20
99.232132
 40
1.700000
  0
POINT
  8
0
 10
-85.900810
 20
60.232147
  0
POINT
  8
0
 10
-79.900810
 20
60.232147
  0
LINE
  8
0
 10
-79.900810
 20
38.232147
 11
-85.900810
 21
38.232147
  0
LINE
  8
0
 10
-79.900810
 20
60.732147
 11
-79.900810
 21
38.232147
  0
LINE
  8
0
 10
-79.900810
 20
60.732147
 11
-85.900810
 21
60.732147
  0
LINE
  8
0
 10
-85.900810
 20
60.732147
 11
-85.900810
 21
38.232147
  0
LINE
  8
0
 10
-79.900810
 20
60.232147
 11
-85.900810
 21
60.232147
  0
TEXT
  8
0
 10
-85.079247
 20
43.032146
 40
3.000000
  1
A
 50
0.000000
 41
1.052632
 51
0.000000
  7
STANDARD
  0
TEXT
  8
0
 10
-85.079247
 20
53.032146
 40
3.000000
  1
B
 50
0.000000
 41
1.052632
 51
0.000000
  7
STANDARD
  0
POINT
  8
0
 10
-177.667847
 20
95.732040
  0
POINT
  8
0
 10
-197.667847
 20
95.732040
  0
POINT
  8
0
 10
-197.967850
 20
165.732056
  0
POINT
  8
0
 10
-219.667847
 20
165.732056
  0
LINE
  8
0
 10
-219.667847
 20
165.732056
 11
-219.667847
 21
155.732056
  0
LINE
  8
0
 10
-197.167831
 20
154.866028
 11
-197.167831
 21
106.598083
  0
LINE
  8
0
 10
-197.967850
 20
165.732056
 11
-219.667847
 21
165.732056
  0
LINE
  8
0
 10
-197.667847
 20
95.732040
 11
-219.667831
 21
95.732040
  0
LINE
  8
0
 10
-218.667831
 20
105.732040
 11
-219.667831
 21
105.732040
  0
LINE
  8
0
 10
-218.667847
 20
155.732040
 11
-219.667847
 21
155.732040
  0
LINE
  8
0
 10
-219.667847
 20
105.732040
 11
-219.667847
 21
95.732040
  0
LINE
  8
0
 10
-218.667847
 20
155.732056
 11
-218.667847
 21
105.732040
  0
LINE
  8
0
 10
-197.667847
 20
165.432053
 11
-197.667847
 21
155.732056
  0
LINE
  8
0
 10
-197.667862
 20
105.732048
 11
-197.167877
 21
106.598083
  0
LINE
  8
0
 10
-197.667801
 20
155.732086
 11
-197.167801
 21
154.866043
  0
LINE
  8
0
 10
-197.667847
 20
105.732056
 11
-197.667847
 21
95.732040
  0
LINE
  8
0
 10
-197.967850
 20
165.732040
 11
-197.667847
 21
165.432037
  0
LINE
  8
0
 10
-215.870636
 20
162.232056
 11
-220.900406
 21
162.232056
  0
LINE
  8
0
 10
-217.167847
 20
160.532043
 11
-219.667847
 21
160.532043
  0
LINE
  8
0
 10
-217.167847
 20
163.932053
 11
-219.667847
 21
163.932053
  0
LINE
  8
0
 10
-217.167847
 20
163.932053
 11
-217.167847
 21
160.532059
  0
LINE
  8
0
 10
-217.167831
 20
100.932037
 11
-219.667831
 21
100.932037
  0
LINE
  8
0
 10
-215.870621
 20
99.232040
 11
-220.900391
 21
99.232040
  0
LINE
  8
0
 10
-217.167847
 20
97.532043
 11
-217.167847
 21
100.932037
  0
LINE
  8
0
 10
-217.167831
 20
97.532043
 11
-219.667831
 21
97.532043
  0
POINT
  8
0
 10
192.896057
 20
91.732155
  0
POINT
  8
0
 10
205.596024
 20
91.732155
  0
LINE
  8
0
 10
196.245987
 20
164.732147
 11
196.246033
 21
94.732155
  0
LINE
  8
0
 10
202.245987
 20
164.732147
 11
202.246033
 21
94.732162
  0
LINE
  8
0
 10
202.245987
 20
164.732147
 11
196.245987
 21
164.732147
  0
LINE
  8
0
 10
202.246033
 20
94.732162
 11
196.246033
 21
94.732155
  0
LINE
  8
0
 10
196.246002
 20
153.866119
 11
202.246002
 21
153.866119
  0
LINE
  8
0
 10
196.246017
 20
105.598183
 11
202.246017
 21
105.598190
  0
LINE
  8
0
 10
192.895981
 20
167.732147
 11
205.595993
 21
167.732147
  0
LINE
  8
0
 10
192.896027
 20
91.732155
 11
205.596039
 21
91.732162
  0
LINE
  8
0
 10
196.746033
 20
86.732155
 11
201.746033
 21
86.732162
  0
LINE
  8
0
 10
196.746033
 20
86.732155
 11
196.746033
 21
91.732155
  0
LINE
  8
0
 10
201.746033
 20
86.732162
 11
201.746033
 21
91.732162
  0
LINE
  8
0
 10
196.746033
 20
88.332146
 11
201.746033
 21
88.332153
  0
LINE
  8
0
 10
192.895981
 20
167.732147
 11
192.896027
 21
91.732155
  0
LINE
  8
0
 10
205.595993
 20
167.732147
 11
205.596039
 21
91.732162
  0
LINE
  8
0
 10
197.831833
 20
96.817932
 11
200.660248
 21
99.646362
  0
LINE
  8
0
 10
197.831818
 20
99.646378
 11
200.660248
 21
96.817955
  0
LINE
  8
0
 10
197.831772
 20
162.646378
 11
200.660202
 21
159.817963
  0
LINE
  8
0
 10
197.831772
 20
159.817947
 11
200.660202
 21
162.646393
  0
CIRCLE
  8
0
 10
199.245987
 20
161.232147
 40
2.750000
  0
CIRCLE
  8
0
 10
199.246033
 20
98.232147
 40
2.750000
  0
POINT
  8
0
 10
196.746033
 20
61.732140
  0
POINT
  8
0
 10
202.746033
 20
61.732140
  0
LINE
  8
0
 10
202.746033
 20
61.732143
 11
202.745987
 21
39.732143
  0
LINE
  8
0
 10
196.746033
 20
61.732155
 11
196.745987
 21
39.732155
  0
LINE
  8
0
 10
202.746033
 20
61.732143
 11
196.746033
 21
61.732155
  0
LINE
  8
0
 10
193.395996
 20
38.232162
 11
193.395981
 21
27.732162
  0
LINE
  8
0
 10
206.095993
 20
38.232140
 11
206.095978
 21
27.732136
  0
LINE
  8
0
 10
193.395981
 20
27.732155
 11
194.995987
 21
27.732151
  0
LINE
  8
0
 10
194.895996
 20
39.732159
 11
197.246002
 21
39.732155
  0
LINE
  8
0
 10
194.995987
 20
38.132153
 11
194.995972
 21
27.732159
  0
LINE
  8
0
 10
204.495987
 20
38.132133
 11
204.495972
 21
27.732140
  0
LINE
  8
0
 10
194.996002
 20
38.132153
 11
197.246002
 21
38.132149
  0
LINE
  8
0
 10
193.395981
 20
31.232161
 11
194.995987
 21
31.232159
  0
LINE
  8
0
 10
204.495987
 20
31.232140
 11
206.095978
 21
31.232138
  0
LINE
  8
0
 10
204.495987
 20
27.732132
 11
206.095978
 21
27.732128
  0
LINE
  8
0
 10
195.295975
 20
29.132145
 11
196.895981
 21
29.132141
  0
LINE
  8
0
 10
195.295990
 20
36.632149
 11
195.295975
 21
29.132153
  0
LINE
  8
0
 10
204.195999
 20
36.632133
 11
204.195984
 21
29.132133
  0
LINE
  8
0
 10
202.595993
 20
36.532146
 11
202.595978
 21
29.132137
  0
LINE
  8
0
 10
196.895996
 20
36.532158
 11
202.595993
 21
36.532146
  0
LINE
  8
0
 10
202.595978
 20
29.132130
 11
204.195984
 21
29.132126
  0
LINE
  8
0
 10
196.895996
 20
36.532158
 11
196.895981
 21
29.132149
  0
LINE
  8
0
 10
195.295975
 20
33.132149
 11
196.895981
 21
33.132149
  0
LINE
  8
0
 10
202.595978
 20
33.132137
 11
204.195984
 21
33.132133
  0
LINE
  8
0
 10
199.745987
 20
34.377762
 11
199.745987
 21
36.286530
  0
LINE
  8
0
 10
196.895996
 20
34.132149
 11
202.595993
 21
34.132137
  0
LINE
  8
0
 10
202.496033
 20
64.732147
 11
196.996033
 21
64.732155
  0
LINE
  8
0
 10
196.996033
 20
64.732155
 11
196.996033
 21
61.732155
  0
LINE
  8
0
 10
201.245987
 20
34.132141
 11
201.245972
 21
33.032150
  0
LINE
  8
0
 10
200.975494
 20
34.132141
 11
200.975479
 21
32.761642
  0
LINE
  8
0
 10
198.245987
 20
34.132145
 11
198.245972
 21
33.032139
  0
LINE
  8
0
 10
198.516495
 20
34.132145
 11
198.516479
 21
32.761646
  0
LINE
  8
0
 10
201.245987
 20
33.032150
 11
198.245987
 21
33.032154
  0
LINE
  8
0
 10
200.645981
 20
32.432144
 11
198.845978
 21
32.432148
  0
LINE
  8
0
 10
200.645950
 20
32.432159
 11
201.245956
 21
33.032158
  0
LINE
  8
0
 10
198.845993
 20
32.432167
 11
198.246002
 21
33.032154
  0
LINE
  8
0
 10
197.245987
 20
41.532158
 11
202.245987
 21
41.532146
  0
LINE
  8
0
 10
202.245987
 20
41.532146
 11
202.245987
 21
36.532146
  0
LINE
  8
0
 10
197.245987
 20
41.532158
 11
197.245987
 21
36.532143
  0
LINE
  8
0
 10
202.246002
 20
39.732143
 11
204.595993
 21
39.732140
  0
LINE
  8
0
 10
202.246002
 20
38.132137
 11
204.496002
 21
38.132133
  0
LINE
  8
0
 10
202.496033
 20
64.732147
 11
202.496033
 21
61.732143
  0
ARC
  8
0
 10
202.695999
 20
36.632137
 40
1.500000
 50
359.999847
 51
90.000000
  0
ARC
  8
0
 10
196.795990
 20
36.632149
 40
1.500000
 50
90.000000
 51
180.000000
  0
ARC
  8
0
 10
194.895996
 20
38.232159
 40
1.500000
 50
90.000000
 51
179.999847
  0
ARC
  8
0
 10
204.595993
 20
38.232140
 40
1.500000
 50
0.000000
 51
90.000000
  0
TEXT
  8
0
 10
197.567581
 20
54.532154
 40
3.000000
  1
B
 50
-0.000109
 41
1.052632
 51
0.000000
  7
STANDARD
  0
TEXT
  8
0
 10
197.567566
 20
44.532154
 40
3.000000
  1
A
 50
-0.000109
 41
1.052632
 51
0.000000
  7
STANDARD
  0
POINT
  8
0
 10
83.129005
 20
94.732056
  0
POINT
  8
0
 10
103.129005
 20
94.732056
  0
LINE
  8
0
 10
83.629021
 20
153.866043
 11
83.629021
 21
105.598099
  0
LINE
  8
0
 10
83.129005
 20
164.732071
 11
61.129005
 21
164.732071
  0
LINE
  8
0
 10
83.129005
 20
94.732056
 11
61.129021
 21
94.732056
  0
LINE
  8
0
 10
62.129021
 20
104.732056
 11
61.129021
 21
104.732056
  0
LINE
  8
0
 10
62.129005
 20
154.732056
 11
61.129005
 21
154.732056
  0
LINE
  8
0
 10
62.129005
 20
154.732071
 11
62.129005
 21
104.732056
  0
LINE
  8
0
 10
83.129005
 20
164.732071
 11
83.129005
 21
154.732071
  0
LINE
  8
0
 10
83.128990
 20
104.732071
 11
83.628983
 21
105.598099
  0
LINE
  8
0
 10
83.129036
 20
154.732101
 11
83.629044
 21
153.866058
  0
LINE
  8
0
 10
83.129005
 20
104.732071
 11
83.129005
 21
94.732056
  0
LINE
  8
0
 10
64.926216
 20
161.232071
 11
59.896446
 21
161.232071
  0
LINE
  8
0
 10
63.629005
 20
159.532059
 11
61.129005
 21
159.532059
  0
LINE
  8
0
 10
63.629005
 20
162.932068
 11
61.129005
 21
162.932068
  0
LINE
  8
0
 10
63.629005
 20
162.932068
 11
63.629005
 21
159.532074
  0
LINE
  8
0
 10
63.629021
 20
99.932053
 11
61.129021
 21
99.932053
  0
LINE
  8
0
 10
64.926231
 20
98.232056
 11
59.896461
 21
98.232056
  0
LINE
  8
0
 10
63.629005
 20
96.532059
 11
63.629005
 21
99.932053
  0
LINE
  8
0
 10
63.629021
 20
96.532059
 11
61.129021
 21
96.532059
  0
LINE
  8
0
 10
59.529015
 20
88.832062
 11
59.529015
 21
91.732056
  0
LINE
  8
0
 10
49.129005
 20
101.232056
 11
49.129005
 21
110.482056
  0
LINE
  8
0
 10
61.129021
 20
91.732071
 11
54.129021
 21
91.732071
  0
LINE
  8
0
 10
61.129005
 20
167.732056
 11
54.129005
 21
167.732056
  0
LINE
  8
0
 10
53.129005
 20
111.982071
 11
53.129005
 21
147.482071
  0
LINE
  8
0
 10
52.629005
 20
93.232056
 11
52.629005
 21
98.232056
  0
LINE
  8
0
 10
51.129005
 20
159.732056
 11
50.629005
 21
159.732056
  0
LINE
  8
0
 10
51.129021
 20
99.732071
 11
50.629021
 21
99.732071
  0
LINE
  8
0
 10
53.129005
 20
111.982071
 11
50.629005
 21
111.982071
  0
LINE
  8
0
 10
53.129005
 20
147.482071
 11
50.629005
 21
147.482071
  0
LINE
  8
0
 10
49.129005
 20
148.982056
 11
49.129005
 21
158.232056
  0
LINE
  8
0
 10
52.629005
 20
161.232056
 11
52.629005
 21
166.232056
  0
LINE
  8
0
 10
62.929024
 20
87.232079
 11
59.429024
 21
87.232079
  0
LINE
  8
0
 10
57.929008
 20
91.732071
 11
57.929008
 21
88.732071
  0
LINE
  8
0
 10
62.929008
 20
88.832062
 11
62.929008
 21
87.232071
  0
LINE
  8
0
 10
62.929024
 20
88.832062
 11
59.529015
 21
88.832062
  0
LINE
  8
0
 10
86.129021
 20
158.482071
 11
83.129005
 21
158.482071
  0
LINE
  8
0
 10
86.129021
 20
158.482071
 11
86.129021
 21
163.982071
  0
LINE
  8
0
 10
86.129021
 20
163.982071
 11
83.129005
 21
163.982071
  0
LINE
  8
0
 10
86.129021
 20
95.482056
 11
83.129021
 21
95.482056
  0
LINE
  8
0
 10
86.129021
 20
95.482056
 11
86.129021
 21
100.982056
  0
LINE
  8
0
 10
86.129021
 20
100.982056
 11
83.129021
 21
100.982056
  0
LINE
  8
0
 10
61.129005
 20
91.732056
 11
61.129005
 21
167.732056
  0
ARC
  8
0
 10
54.129021
 20
93.232056
 40
1.500000
 50
180.000000
 51
270.000000
  0
ARC
  8
0
 10
51.129021
 20
98.232056
 40
1.500000
 50
0.000000
 51
90.000000
  0
ARC
  8
0
 10
50.629021
 20
101.232056
 40
1.500000
 50
180.000000
 51
270.000000
  0
ARC
  8
0
 10
50.629021
 20
110.482056
 40
1.500000
 50
90.000000
 51
180.000000
  0
ARC
  8
0
 10
50.629005
 20
148.982056
 40
1.500000
 50
180.000000
 51
270.000000
  0
ARC
  8
0
 10
50.629005
 20
158.232056
 40
1.500000
 50
90.000000
 51
180.000000
  0
ARC
  8
0
 10
51.129005
 20
161.232056
 40
1.500000
 50
270.000000
 51
0.000000
  0
ARC
  8
0
 10
54.129005
 20
166.232056
 40
1.500000
 50
90.000000
 51
180.000000
  0
ARC
  8
0
 10
59.429024
 20
88.732071
 40
1.500000
 50
180.000000
 51
270.000000
  0
POINT
  8
0
 10
-75.113281
 20
-93.880943
  0
POINT
  8
0
 10
-60.113274
 20
-93.880943
  0
LINE
  8
0
 10
-60.363182
 20
-27.380936
 11
-74.863182
 21
-27.380936
  0
LINE
  8
0
 10
-60.113281
 20
-23.880959
 11
-60.113281
 21
-93.880959
  0
LINE
  8
0
 10
-60.113174
 20
-23.880936
 11
-75.113174
 21
-23.880936
  0
LINE
  8
0
 10
-60.113281
 20
-93.880936
 11
-75.113281
 21
-93.880936
  0
LINE
  8
0
 10
-75.113190
 20
-33.880936
 11
-60.113190
 21
-33.880936
  0
LINE
  8
0
 10
-75.113266
 20
-83.880936
 11
-60.113266
 21
-83.880936
  0
LINE
  8
0
 10
-60.363274
 20
-90.380951
 11
-74.863274
 21
-90.380951
  0
LINE
  8
0
 10
-71.113174
 20
-25.680969
 11
-64.113174
 21
-25.680969
  0
LINE
  8
0
 10
-71.113167
 20
-29.080994
 11
-64.113167
 21
-29.080994
  0
LINE
  8
0
 10
-71.113274
 20
-88.681000
 11
-64.113274
 21
-88.681000
  0
LINE
  8
0
 10
-71.113281
 20
-92.081024
 11
-64.113281
 21
-92.081024
  0
LINE
  8
0
 10
-67.613281
 20
-24.680977
 11
-67.613281
 21
-30.081001
  0
LINE
  8
0
 10
-67.613281
 20
-87.681007
 11
-67.613281
 21
-93.081032
  0
LINE
  8
0
 10
-75.113281
 20
-23.880936
 11
-75.113281
 21
-93.880936
  0
LINE
  8
0
 10
-75.613182
 20
-29.380936
 11
-75.113182
 21
-29.380936
  0
LINE
  8
0
 10
-75.613213
 20
-47.380936
 11
-75.113213
 21
-47.380936
  0
LINE
  8
0
 10
-75.613281
 20
-29.380936
 11
-75.613281
 21
-47.380936
  0
LINE
  8
0
 10
-77.113281
 20
-32.880936
 11
-77.113281
 21
-43.880936
  0
LINE
  8
0
 10
-75.613266
 20
-29.380905
 11
-77.113266
 21
-32.880905
  0
LINE
  8
0
 10
-75.613274
 20
-47.380962
 11
-77.113274
 21
-43.880959
  0
LINE
  8
0
 10
-78.240013
 20
-38.380936
 11
-73.451973
 21
-38.380936
  0
ARC
  8
0
 10
-64.113182
 20
-27.380951
 40
1.699997
 50
270.000000
 51
90.000000
  0
ARC
  8
0
 10
-71.113182
 20
-27.380943
 40
1.699997
 50
90.000000
 51
270.000000
  0
ARC
  8
0
 10
-64.113274
 20
-90.380966
 40
1.699997
 50
270.000000
 51
90.000000
  0
ARC
  8
0
 10
-71.113274
 20
-90.380959
 40
1.699997
 50
90.000000
 51
270.000000
  0
POINT
  8
0
 10
-75.113289
 20
-135.380936
  0
POINT
  8
0
 10
-60.113297
 20
-135.380936
  0
LINE
  8
0
 10
-60.113251
 20
-157.380920
 11
-75.113251
 21
-157.380920
  0
LINE
  8
0
 10
-60.113289
 20
-134.880905
 11
-60.113289
 21
-157.380905
  0
LINE
  8
0
 10
-60.113289
 20
-134.880920
 11
-75.113289
 21
-134.880920
  0
LINE
  8
0
 10
-75.113274
 20
-134.880920
 11
-75.113274
 21
-157.380920
  0
LINE
  8
0
 10
-60.113289
 20
-135.380920
 11
-75.113289
 21
-135.380920
  0
LINE
  8
0
 10
-75.613174
 20
-135.380920
 11
-75.113174
 21
-135.380920
  0
LINE
  8
0
 10
-75.613190
 20
-153.380920
 11
-75.113190
 21
-153.380920
  0
LINE
  8
0
 10
-75.613274
 20
-135.380920
 11
-75.613274
 21
-153.380920
  0
LINE
  8
0
 10
-77.113274
 20
-138.880920
 11
-77.113274
 21
-149.880920
  0
LINE
  8
0
 10
-75.613258
 20
-135.380875
 11
-77.113258
 21
-138.880875
  0
LINE
  8
0
 10
-75.613258
 20
-153.380951
 11
-77.113258
 21
-149.880951
  0
LINE
  8
0
 10
-78.239998
 20
-144.380920
 11
-73.451965
 21
-144.380920
  0
TEXT
  8
0
 10
-70.291710
 20
-152.580917
 40
3.000000
  1
A
 50
0.000000
 41
1.052632
 51
0.000000
  7
STANDARD
  0
TEXT
  8
0
 10
-70.291718
 20
-142.580917
 40
3.000000
  1
B
 50
0.000000
 41
1.052632
 51
0.000000
  7
STANDARD
  0
POINT
  8
0
 10
-186.880325
 20
-93.881035
  0
POINT
  8
0
 10
-166.880325
 20
-93.881035
  0
LINE
  8
0
 10
-205.083099
 20
-27.381027
 11
-210.112869
 21
-27.381027
  0
LINE
  8
0
 10
-205.083084
 20
-90.381042
 11
-210.112854
 21
-90.381042
  0
LINE
  8
0
 10
-208.880310
 20
-23.881027
 11
-208.880310
 21
-33.881027
  0
LINE
  8
0
 10
-187.180313
 20
-23.881027
 11
-208.880310
 21
-23.881027
  0
LINE
  8
0
 10
-186.880310
 20
-93.881042
 11
-208.880295
 21
-93.881042
  0
LINE
  8
0
 10
-207.880295
 20
-83.881042
 11
-208.880295
 21
-83.881042
  0
LINE
  8
0
 10
-207.880310
 20
-33.881027
 11
-208.880310
 21
-33.881027
  0
LINE
  8
0
 10
-208.880310
 20
-83.881042
 11
-208.880310
 21
-93.881042
  0
LINE
  8
0
 10
-207.880310
 20
-33.881027
 11
-207.880310
 21
-83.881042
  0
LINE
  8
0
 10
-186.880310
 20
-24.181030
 11
-186.880310
 21
-33.881027
  0
LINE
  8
0
 10
-186.880325
 20
-83.881035
 11
-186.380341
 21
-83.015015
  0
LINE
  8
0
 10
-186.880173
 20
-33.880928
 11
-186.380157
 21
-34.746975
  0
LINE
  8
0
 10
-186.880310
 20
-83.881027
 11
-186.880310
 21
-93.881042
  0
LINE
  8
0
 10
-187.180328
 20
-23.881035
 11
-186.880325
 21
-24.181038
  0
LINE
  8
0
 10
-185.880295
 20
-72.881042
 11
-199.880295
 21
-72.881042
  0
LINE
  8
0
 10
-194.880295
 20
-60.381042
 11
-208.880295
 21
-60.381042
  0
LINE
  8
0
 10
-186.280304
 20
-55.881042
 11
-195.404739
 21
-55.881042
  0
LINE
  8
0
 10
-190.880310
 20
-51.338043
 11
-190.880310
 21
-60.424026
  0
LINE
  8
0
 10
-192.880310
 20
-65.956985
 11
-192.880310
 21
-79.805069
  0
LINE
  8
0
 10
-201.880310
 20
-53.457001
 11
-201.880310
 21
-67.305069
  0
LINE
  8
0
 10
-186.380264
 20
-34.747040
 11
-186.380264
 21
-83.014877
  0
LINE
  8
0
 10
-206.380310
 20
-88.681046
 11
-206.380310
 21
-92.081039
  0
LINE
  8
0
 10
-206.380310
 20
-29.081024
 11
-206.380310
 21
-25.681030
  0
LINE
  8
0
 10
-206.380295
 20
-92.081039
 11
-208.880295
 21
-92.081039
  0
LINE
  8
0
 10
-206.380295
 20
-88.681030
 11
-208.880295
 21
-88.681030
  0
LINE
  8
0
 10
-206.380310
 20
-29.081039
 11
-208.880310
 21
-29.081039
  0
LINE
  8
0
 10
-206.380310
 20
-25.681030
 11
-208.880310
 21
-25.681030
  0
LINE
  8
0
 10
-205.880264
 20
-38.381027
 11
-185.880264
 21
-38.381027
  0
LINE
  8
0
 10
-195.880264
 20
-28.381027
 11
-195.880264
 21
-48.381027
  0
LINE
  8
0
 10
-198.880264
 20
-36.648956
 11
-195.880249
 21
-34.916901
  0
LINE
  8
0
 10
-195.880264
 20
-41.845127
 11
-192.880264
 21
-40.113071
  0
LINE
  8
0
 10
-198.880264
 20
-40.113079
 11
-195.880280
 21
-41.845127
  0
LINE
  8
0
 10
-195.880264
 20
-34.916931
 11
-192.880264
 21
-36.648987
  0
LINE
  8
0
 10
-192.880264
 20
-36.648975
 11
-192.880264
 21
-40.113079
  0
LINE
  8
0
 10
-198.880264
 20
-36.648975
 11
-198.880264
 21
-40.113079
  0
CIRCLE
  8
0
 10
-190.880310
 20
-55.881027
 40
2.099999
  0
CIRCLE
  8
0
 10
-190.880310
 20
-55.881027
 40
2.500000
  0
CIRCLE
  8
0
 10
-201.880310
 20
-60.381027
 40
4.300000
  0
CIRCLE
  8
0
 10
-201.880310
 20
-60.381027
 40
5.000000
  0
CIRCLE
  8
0
 10
-192.880295
 20
-72.881027
 40
5.000000
  0
CIRCLE
  8
0
 10
-192.880295
 20
-72.881027
 40
4.300000
  0
CIRCLE
  8
0
 10
-195.880264
 20
-38.381027
 40
9.000000
  0
CIRCLE
  8
0
 10
-195.880264
 20
-38.381027
 40
5.500000
  0
TEXT
  8
0
 10
-206.580307
 20
-49.702606
 40
3.000000
  1
R
 50
-90.000000
 41
1.052632
 51
0.000000
  7
STANDARD
  0
TEXT
  8
0
 10
-191.580292
 20
-82.202576
 40
3.000000
  1
P
 50
-90.000000
 41
1.052632
 51
0.000000
  7
STANDARD
  0
TEXT
  8
0
 10
-191.580307
 20
-45.202591
 40
3.000000
  1
PR
 50
-90.000000
 41
1.052632
 51
0.000000
  7
STANDARD
  0
POINT
  8
0
 10
182.216690
 20
-88.881035
  0
POINT
  8
0
 10
197.216660
 20
-88.881035
  0
LINE
  8
0
 10
182.466690
 20
-85.381042
 11
196.966675
 21
-85.381042
  0
LINE
  8
0
 10
197.216675
 20
-88.881042
 11
197.216675
 21
-18.881042
  0
LINE
  8
0
 10
182.216690
 20
-88.881027
 11
197.216675
 21
-88.881027
  0
LINE
  8
0
 10
182.216766
 20
-18.881027
 11
197.216751
 21
-18.881027
  0
LINE
  8
0
 10
182.466751
 20
-22.381027
 11
196.966736
 21
-22.381027
  0
LINE
  8
0
 10
193.216675
 20
-87.081009
 11
186.216690
 21
-87.081009
  0
LINE
  8
0
 10
193.216675
 20
-83.680984
 11
186.216675
 21
-83.680984
  0
LINE
  8
0
 10
193.216751
 20
-24.080963
 11
186.216751
 21
-24.080963
  0
LINE
  8
0
 10
193.216766
 20
-20.680939
 11
186.216766
 21
-20.680939
  0
LINE
  8
0
 10
189.716690
 20
-90.381050
 11
189.716690
 21
-17.381035
  0
LINE
  8
0
 10
182.216705
 20
-81.381027
 11
197.216690
 21
-81.381027
  0
LINE
  8
0
 10
182.216751
 20
-26.381027
 11
197.216736
 21
-26.381027
  0
LINE
  8
0
 10
182.852692
 20
-67.881027
 11
196.580688
 21
-67.881027
  0
LINE
  8
0
 10
182.852722
 20
-51.881027
 11
196.580719
 21
-51.881027
  0
LINE
  8
0
 10
182.216690
 20
-18.881027
 11
182.216690
 21
-88.881027
  0
CIRCLE
  8
0
 10
189.716721
 20
-51.881035
 40
4.278000
  0
ARC
  8
0
 10
193.216675
 20
-85.381050
 40
1.699997
 50
270.000000
 51
90.000000
  0
ARC
  8
0
 10
186.216690
 20
-85.381035
 40
1.699997
 50
90.000000
 51
270.000000
  0
ARC
  8
0
 10
193.216736
 20
-22.381035
 40
1.699997
 50
270.000000
 51
90.000000
  0
ARC
  8
0
 10
186.216751
 20
-22.381035
 40
1.699997
 50
90.000000
 51
270.000000
  0
CIRCLE
  8
0
 10
189.716690
 20
-67.881035
 40
4.863999
  0
CIRCLE
  8
0
 10
189.716690
 20
-67.881035
 40
4.278000
  0
CIRCLE
  8
0
 10
189.716721
 20
-51.881035
 40
4.863999
  0
TEXT
  8
0
 10
188.038254
 20
-79.081032
 40
3.000000
  1
P
 50
0.000000
 41
1.052632
 51
0.000000
  7
STANDARD
  0
TEXT
  8
0
 10
188.038300
 20
-44.081036
 40
3.000000
  1
R
 50
0.000000
 41
1.052632
 51
0.000000
  7
STANDARD
  0
POINT
  8
0
 10
182.216705
 20
-132.881027
  0
POINT
  8
0
 10
197.216644
 20
-132.881027
  0
LINE
  8
0
 10
197.216705
 20
-132.881042
 11
182.216705
 21
-132.881042
  0
LINE
  8
0
 10
197.216705
 20
-132.881073
 11
197.216705
 21
-154.881073
  0
LINE
  8
0
 10
182.216705
 20
-132.881042
 11
182.216705
 21
-154.881042
  0
LINE
  8
0
 10
197.016739
 20
-115.881035
 11
182.416733
 21
-115.881035
  0
LINE
  8
0
 10
197.016708
 20
-115.881065
 11
197.016708
 21
-132.881073
  0
LINE
  8
0
 10
197.216660
 20
-154.881042
 11
182.216660
 21
-154.881042
  0
LINE
  8
0
 10
182.416702
 20
-115.881035
 11
182.416702
 21
-132.881042
  0
TEXT
  8
0
 10
187.038239
 20
-151.081055
 40
3.000000
  1
A
 50
0.000000
 41
1.052632
 51
0.000000
  7
STANDARD
  0
TEXT
  8
0
 10
187.038254
 20
-141.081055
 40
3.000000
  1
B
 50
0.000000
 41
1.052632
 51
0.000000
  7
STANDARD
  0
POINT
  8
0
 10
66.449669
 20
-88.881081
  0
POINT
  8
0
 10
86.449638
 20
-88.881081
  0
LINE
  8
0
 10
83.449661
 20
-26.381065
 11
83.449661
 21
-81.381065
  0
LINE
  8
0
 10
48.246979
 20
-22.381027
 11
43.217209
 21
-22.381027
  0
LINE
  8
0
 10
48.246849
 20
-85.381042
 11
43.217094
 21
-85.381042
  0
LINE
  8
0
 10
44.449631
 20
-18.880989
 11
44.449631
 21
-28.880989
  0
LINE
  8
0
 10
66.449791
 20
-18.881027
 11
44.449776
 21
-18.881027
  0
LINE
  8
0
 10
66.449631
 20
-88.881042
 11
44.449631
 21
-88.881042
  0
LINE
  8
0
 10
45.449654
 20
-78.881042
 11
44.449654
 21
-78.881042
  0
LINE
  8
0
 10
45.449753
 20
-28.881027
 11
44.449753
 21
-28.881027
  0
LINE
  8
0
 10
44.449631
 20
-78.880989
 11
44.449631
 21
-88.880989
  0
LINE
  8
0
 10
45.449631
 20
-28.880997
 11
45.449631
 21
-78.880997
  0
LINE
  8
0
 10
66.449631
 20
-18.881027
 11
66.449631
 21
-88.881042
  0
LINE
  8
0
 10
46.949631
 20
-83.681000
 11
46.949631
 21
-87.080994
  0
LINE
  8
0
 10
46.949631
 20
-24.080994
 11
46.949631
 21
-20.681000
  0
LINE
  8
0
 10
46.949638
 20
-87.081039
 11
44.449638
 21
-87.081039
  0
LINE
  8
0
 10
46.949646
 20
-83.681030
 11
44.449646
 21
-83.681030
  0
LINE
  8
0
 10
46.949760
 20
-24.081039
 11
44.449760
 21
-24.081039
  0
LINE
  8
0
 10
46.949753
 20
-20.681030
 11
44.449768
 21
-20.681030
  0
LINE
  8
0
 10
83.449677
 20
-81.381027
 11
66.449677
 21
-81.381027
  0
LINE
  8
0
 10
83.449806
 20
-26.381027
 11
66.449806
 21
-26.381027
  0
ENDSEC
  0
EOF
