  0
SECTION
  2
HEADER
  0
ENDSEC
  0
SECTION
  2
TABLES
  0
TABLE
  2
LTYPE
 70
     4
  0
LTYPE
  2
CONTINUOUS
 70
    64
  3
Solid line
 72
    65
 73
     0
 40
0.000000
  0
LTYPE
  2
DASHED
 70
    64
  3
__ __ __ __ __ __ __ __ __ __ __ __ __ __ __
 72
    65
 73
     2
 40
3.500000
 49
2.000000
 49
-1.500000
  0
LTYPE
  2
CENTER
 70
    64
  3
____ _ ____ _ ____ _ ____ _ ____ _ ____ _ ____
 72
    65
 73
     4
 40
17.500000
 49
13.000000
 49
-1.500000
 49
1.500000
 49
-1.500000
  0
LTYPE
  2
PHANTOM
 70
    64
  3
_____ _ _ _____ _ _ _____ _ _ _____ _ _ ____  
 72
    65
 73
     6
 40
15.500000
 49
8.000000
 49
-1.500000
 49
1.500000
 49
-1.500000
 49
1.500000
 49
-1.500000
  0
LTYPE
  2
DASHED1
 70
    64
  3
__ __ __ __ __ __ __ __ __ __ __ __ __ __ __
 72
    65
 73
     2
 40
1.500000
 49
1.000000
 49
-0.500000
  0
LTYPE
  2
DASHED2
 70
    64
  3
__ __ __ __ __ __ __ __ __ __ __ __ __ __ __
 72
    65
 73
     2
 40
3.500000
 49
2.500000
 49
-1.000000
  0
LTYPE
  2
DASHED3
 70
    64
  3
__ __ __ __ __ __ __ __ __ __ __ __ __ __ __
 72
    65
 73
     2
 40
6.000000
 49
4.000000
 49
-2.000000
  0
LTYPE
  2
DASHED4
 70
    64
  3
__ __ __ __ __ __ __ __ __ __ __ __ __ __ __
 72
    65
 73
     2
 40
12.000000
 49
10.000000
 49
-2.000000
  0
LTYPE
  2
DASHED5
 70
    64
  3
__ __ __ __ __ __ __ __ __ __ __ __ __ __ __
 72
    65
 73
     2
 40
17.000000
 49
15.000000
 49
-2.000000
  0
LTYPE
  2
DASHED6
 70
    64
  3
__ __ __ __ __ __ __ __ __ __ __ __ __ __ __
 72
    65
 73
     2
 40
29.000000
 49
27.000000
 49
-2.000000
  0
LTYPE
  2
PHANTOM1
 70
    64
  3
_____ _ _ _____ _ _ _____ _ _ _____ _ _ ____  
 72
    65
 73
     6
 40
31.000000
 49
25.000000
 49
-1.500000
 49
1.000000
 49
-1.000000
 49
1.000000
 49
-1.500000
  0
LTYPE
  2
PHANTOM2
 70
    64
  3
_____ _ _ _____ _ _ _____ _ _ _____ _ _ ____  
 72
    65
 73
     6
 40
36.000000
 49
27.000000
 49
-1.500000
 49
2.500000
 49
-1.000000
 49
2.500000
 49
-1.500000
  0
LTYPE
  2
PHANTOM3
 70
    64
  3
_____ _ _ _____ _ _ _____ _ _ _____ _ _ ____  
 72
    65
 73
     6
 40
78.000000
 49
64.000000
 49
-2.000000
 49
4.000000
 49
-2.000000
 49
4.000000
 49
-2.000000
  0
LTYPE
  2
CENTER1
 70
    64
  3
____ _ ____ _ ____ _ ____ _ ____ _ ____ _ ____
 72
    65
 73
     4
 40
19.000000
 49
14.000000
 49
-1.000000
 49
3.000000
 49
-1.000000
  0
LTYPE
  2
CENTER2
 70
    64
  3
____ _ ____ _ ____ _ ____ _ ____ _ ____ _ ____
 72
    65
 73
     4
 40
28.500000
 49
25.000000
 49
-1.000000
 49
1.500000
 49
-1.000000
  0
LTYPE
  2
CENTER3
 70
    64
  3
____ _ ____ _ ____ _ ____ _ ____ _ ____ _ ____
 72
    65
 73
     4
 40
31.500000
 49
27.000000
 49
-1.000000
 49
2.500000
 49
-1.000000
  0
LTYPE
  2
CENTER4
 70
    64
  3
____ _ ____ _ ____ _ ____ _ ____ _ ____ _ ____
 72
    65
 73
     4
 40
50.000000
 49
45.000000
 49
-1.000000
 49
3.000000
 49
-1.000000
  0
LTYPE
  2
CENTER5
 70
    64
  3
____ _ ____ _ ____ _ ____ _ ____ _ ____ _ ____
 72
    65
 73
     4
 40
100.000000
 49
92.000000
 49
-2.000000
 49
4.000000
 49
-2.000000
  0
LTYPE
  2
SBK1
 70
    64
  3
______ _ _ _ ______ _ _ _ ______ _ _ _ _____  
 72
    65
 73
     8
 40
60.500000
 49
45.000000
 49
-2.000000
 49
2.500000
 49
-2.000000
 49
2.500000
 49
-2.000000
 49
2.500000
 49
-2.000000
  0
LTYPE
  2
SBK2
 70
    64
  3
______ _ _ _ ______ _ _ _ ______ _ _ _ _____  
 72
    65
 73
     8
 40
84.000000
 49
64.000000
 49
-2.000000
 49
4.000000
 49
-2.000000
 49
4.000000
 49
-2.000000
 49
4.000000
 49
-2.000000
  0
LTYPE
  2
STCH
 70
    64
  3
__ __ __ __ __ __ __ __ __ __ __ __ __ __ __
 72
    65
 73
     2
 40
3.000000
 49
1.000000
 49
-2.000000
  0
LTYPE
  2
MTCH
 70
    64
  3
_____ _ _ _____ _ _ _____ _ _ _____ _ _ ____  
 72
    65
 73
     6
 40
80.000000
 49
66.000000
 49
-2.000000
 49
4.000000
 49
-2.000000
 49
4.000000
 49
-2.000000
  0
ENDTAB
  0
TABLE
  2
LAYER
 70
     1
  0
LAYER
  2
0
 70
     0
 62
     7
  6
CONTINUOUS
  0
ENDTAB
  0
TABLE
  2
STYLE
 70
     1
  0
STYLE
  2
STANDARD
 70
     0
 40
0.000000
 41
1.000000
 50
0.000000
 71
     0
 42
0.200000
  3
txt
  4
BIGFONT
  0
ENDTAB
  0
TABLE
  2
VIEW
 70
     0
  0
ENDTAB
  0
ENDSEC
  0
SECTION
  2
BLOCKS
  0
ENDSEC
  0
SECTION
  2
ENTITIES
  0
LINE
  8
0
 10
-297.000000
 20
210.000000
 11
297.000000
 21
210.000000
  0
LINE
  8
0
 10
-297.000000
 20
-210.000000
 11
297.000000
 21
-210.000000
  0
LINE
  8
0
 10
297.000000
 20
210.000000
 11
297.000000
 21
-210.000000
  0
LINE
  8
0
 10
-297.000000
 20
210.000000
 11
-297.000000
 21
-210.000000
  0
LINE
  8
0
 10
-281.250000
 20
195.500000
 11
282.099976
 21
195.500000
  0
LINE
  8
0
 10
-281.250000
 20
195.500000
 11
-281.250000
 21
-195.000000
  0
LINE
  8
0
 10
282.099976
 20
195.500000
 11
282.099976
 21
-195.000000
  0
LINE
  8
0
 10
-281.250000
 20
-195.000000
 11
282.099976
 21
-195.000000
  0
LINE
  8
0
 10
162.099976
 20
-175.000000
 11
162.099976
 21
-195.000000
  0
LINE
  8
0
 10
162.099976
 20
-175.000000
 11
282.099976
 21
-175.000000
  0
LINE
  8
0
 10
162.099976
 20
175.500000
 11
282.099976
 21
175.500000
  0
LINE
  8
0
 10
-281.250000
 20
175.500000
 11
-161.250000
 21
175.500000
  0
LINE
  8
0
 10
162.099976
 20
195.500000
 11
162.099976
 21
175.500000
  0
LINE
  8
0
 10
-161.250000
 20
195.500000
 11
-161.250000
 21
175.500000
  0
LINE
  8
0
  6
PHANTOM
 10
-192.292786
 20
-9.860409
 11
-192.292786
 21
-79.860420
  0
LINE
  8
0
  6
PHANTOM
 10
-213.292786
 20
-9.860409
 11
-213.292786
 21
-79.860420
  0
LINE
  8
0
  6
PHANTOM
 10
-192.292786
 20
-79.860428
 11
-213.292786
 21
-79.860428
  0
LINE
  8
0
  6
PHANTOM
 10
-192.292801
 20
-9.860409
 11
-213.292786
 21
-9.860409
  0
LINE
  8
0
  6
PHANTOM
 10
-191.838593
 20
169.219589
 11
-191.838593
 21
99.219589
  0
LINE
  8
0
  6
PHANTOM
 10
-191.838577
 20
99.219589
 11
-212.838593
 21
99.219589
  0
LINE
  8
0
  6
PHANTOM
 10
-191.838608
 20
169.219589
 11
-212.838593
 21
169.219589
  0
LINE
  8
0
  6
PHANTOM
 10
-212.838593
 20
169.219589
 11
-212.838593
 21
99.219589
  0
LINE
  8
0
  6
PHANTOM
 10
68.670715
 20
-9.860394
 11
68.670715
 21
-79.860413
  0
LINE
  8
0
  6
PHANTOM
 10
47.670708
 20
-9.860409
 11
47.670708
 21
-79.860413
  0
LINE
  8
0
  6
PHANTOM
 10
68.670731
 20
-79.860413
 11
47.670708
 21
-79.860413
  0
LINE
  8
0
  6
PHANTOM
 10
68.670700
 20
-9.860409
 11
47.670708
 21
-9.860409
  0
LINE
  8
0
  6
PHANTOM
 10
71.310287
 20
169.219604
 11
71.310287
 21
99.219589
  0
LINE
  8
0
  6
PHANTOM
 10
50.310280
 20
169.219589
 11
50.310280
 21
99.519592
  0
LINE
  8
0
  6
PHANTOM
 10
71.310303
 20
99.219589
 11
50.610298
 21
99.219589
  0
LINE
  8
0
  6
PHANTOM
 10
71.310272
 20
169.219589
 11
50.310280
 21
169.219589
  0
LINE
  8
0
 10
0.424988
 20
-195.000000
 11
0.424988
 21
195.500000
  0
LINE
  8
0
 10
-281.250000
 20
0.250000
 11
282.099976
 21
0.250000
  0
LINE
  8
0
 10
-281.250000
 20
-185.000000
 11
162.099976
 21
-185.000000
  0
LINE
  8
0
 10
-281.250000
 20
10.250000
 11
282.099976
 21
10.250000
  0
ARC
  8
0
 10
47.970711
 20
-37.660397
 40
0.300000
 50
109.472443
 51
180.000000
  0
TEXT
  8
0
 10
174.200241
 20
180.830002
 40
6.300000
  1
DATE: SEP ,1992
 50
0.000000
 41
1.052632
 51
0.000000
  7
STANDARD
  0
TEXT
  8
0
 10
167.564667
 20
-192.100006
 40
9.000000
  1
KOGANEI CORP.
 50
0.000000
 41
1.052632
 51
0.000000
  7
STANDARD
  0
TEXT
  8
0
 10
-240.285309
 20
178.399994
 40
9.000000
  1
X80M
 50
0.000000
 41
1.052632
 51
0.000000
  7
STANDARD
  0
TEXT
  8
0
 10
-194.612228
 20
-194.669998
 40
6.300000
  1
MODEL : FMCR-D250
 50
0.000000
 41
1.052632
 51
0.000000
  7
STANDARD
  0
TEXT
  8
0
 10
-194.612228
 20
0.579999
 40
6.300000
  1
MODEL : FMCR-F100
 50
0.000000
 41
1.052632
 51
0.000000
  7
STANDARD
  0
TEXT
  8
0
 10
27.062757
 20
-194.669998
 40
6.300000
  1
MODEL : FMCR-T070
 50
0.000000
 41
1.052632
 51
0.000000
  7
STANDARD
  0
TEXT
  8
0
 10
87.062759
 20
0.579999
 40
6.300000
  1
MODEL : FMCR-F200
 50
0.000000
 41
1.052632
 51
0.000000
  7
STANDARD
  0
POINT
  8
0
 10
-72.838577
 20
99.219620
  0
POINT
  8
0
 10
-87.838577
 20
99.219620
  0
LINE
  8
0
 10
-72.838577
 20
169.219620
 11
-72.838577
 21
99.219620
  0
LINE
  8
0
 10
-87.838577
 20
169.219620
 11
-72.838577
 21
169.219620
  0
LINE
  8
0
 10
-87.838577
 20
114.219620
 11
-72.838577
 21
114.219620
  0
LINE
  8
0
 10
-73.638565
 20
114.219620
 11
-73.638565
 21
99.219620
  0
LINE
  8
0
 10
-87.038574
 20
114.219620
 11
-87.038574
 21
99.219620
  0
LINE
  8
0
 10
-87.038574
 20
113.219620
 11
-73.638565
 21
113.219620
  0
LINE
  8
0
 10
-87.038574
 20
104.219604
 11
-73.638565
 21
104.219604
  0
LINE
  8
0
 10
-79.638565
 20
111.569611
 11
-79.638565
 21
105.869614
  0
LINE
  8
0
 10
-73.938568
 20
111.569611
 11
-73.938568
 21
105.869614
  0
LINE
  8
0
 10
-79.638565
 20
105.869614
 11
-73.938568
 21
105.869614
  0
LINE
  8
0
 10
-79.638565
 20
111.569611
 11
-73.938568
 21
111.569611
  0
LINE
  8
0
 10
-86.738571
 20
105.869614
 11
-81.038574
 21
105.869614
  0
LINE
  8
0
 10
-86.738571
 20
111.569611
 11
-86.738571
 21
105.869614
  0
LINE
  8
0
 10
-86.738571
 20
111.569611
 11
-81.038574
 21
111.569611
  0
LINE
  8
0
 10
-81.038574
 20
111.569611
 11
-81.038574
 21
105.869614
  0
LINE
  8
0
 10
-80.338577
 20
172.553925
 11
-80.338577
 21
95.789917
  0
LINE
  8
0
 10
-82.938568
 20
122.219620
 11
-74.338577
 21
122.219620
  0
LINE
  8
0
 10
-82.938568
 20
156.219620
 11
-74.338577
 21
156.219620
  0
LINE
  8
0
 10
-74.338593
 20
155.169617
 11
-82.938568
 21
155.169617
  0
LINE
  8
0
 10
-74.338593
 20
123.269608
 11
-82.938568
 21
123.269608
  0
LINE
  8
0
 10
-80.138565
 20
124.269608
 11
-80.138565
 21
126.969620
  0
LINE
  8
0
 10
-77.138580
 20
124.269608
 11
-77.138580
 21
126.969620
  0
LINE
  8
0
 10
-77.138580
 20
124.269608
 11
-80.138580
 21
124.269608
  0
LINE
  8
0
 10
-80.638580
 20
130.369614
 11
-81.938583
 21
130.369614
  0
LINE
  8
0
 10
-80.638580
 20
126.969620
 11
-80.638580
 21
132.369614
  0
LINE
  8
0
 10
-76.638580
 20
126.969620
 11
-76.638580
 21
132.369614
  0
LINE
  8
0
 10
-76.638580
 20
126.969620
 11
-80.638580
 21
126.969620
  0
LINE
  8
0
 10
-76.638580
 20
132.369614
 11
-80.638580
 21
132.369614
  0
LINE
  8
0
 10
-76.638580
 20
127.969604
 11
-80.638580
 21
127.969604
  0
LINE
  8
0
 10
-76.638580
 20
128.469620
 11
-80.638580
 21
128.469620
  0
LINE
  8
0
 10
-76.638580
 20
128.969620
 11
-80.638580
 21
128.969620
  0
LINE
  8
0
 10
-76.638580
 20
129.469620
 11
-80.638580
 21
129.469620
  0
LINE
  8
0
 10
-76.638580
 20
129.969620
 11
-80.638580
 21
129.969620
  0
LINE
  8
0
 10
-76.638580
 20
130.469604
 11
-80.638580
 21
130.469604
  0
LINE
  8
0
 10
-76.638580
 20
130.969620
 11
-80.638580
 21
130.969620
  0
LINE
  8
0
 10
-76.638580
 20
130.969620
 11
-80.638580
 21
130.969620
  0
LINE
  8
0
 10
-75.338577
 20
130.369614
 11
-76.638580
 21
130.369614
  0
LINE
  8
0
 10
-74.338593
 20
126.869614
 11
-76.963577
 21
126.869614
  0
LINE
  8
0
 10
-80.313568
 20
126.869614
 11
-82.938568
 21
126.869614
  0
LINE
  8
0
 10
-80.313583
 20
155.169617
 11
-80.313583
 21
151.469620
  0
LINE
  8
0
 10
-77.138596
 20
154.169617
 11
-77.138596
 21
151.469620
  0
LINE
  8
0
 10
-80.138596
 20
154.169617
 11
-80.138596
 21
151.469620
  0
LINE
  8
0
 10
-80.138580
 20
154.169617
 11
-77.138580
 21
154.169617
  0
LINE
  8
0
 10
-76.638580
 20
148.069611
 11
-75.338577
 21
148.069611
  0
LINE
  8
0
 10
-76.638580
 20
151.469620
 11
-76.638580
 21
146.069611
  0
LINE
  8
0
 10
-80.638596
 20
151.469620
 11
-80.638596
 21
146.069611
  0
LINE
  8
0
 10
-80.638580
 20
151.469604
 11
-76.638580
 21
151.469604
  0
LINE
  8
0
 10
-80.638580
 20
146.069611
 11
-76.638580
 21
146.069611
  0
LINE
  8
0
 10
-80.638580
 20
150.469620
 11
-76.638580
 21
150.469620
  0
LINE
  8
0
 10
-80.638580
 20
149.969620
 11
-76.638580
 21
149.969620
  0
LINE
  8
0
 10
-80.638580
 20
149.469620
 11
-76.638580
 21
149.469620
  0
LINE
  8
0
 10
-80.638580
 20
148.969620
 11
-76.638580
 21
148.969620
  0
LINE
  8
0
 10
-80.638580
 20
148.469620
 11
-76.638580
 21
148.469620
  0
LINE
  8
0
 10
-80.638580
 20
147.969604
 11
-76.638580
 21
147.969604
  0
LINE
  8
0
 10
-80.638580
 20
147.469620
 11
-76.638580
 21
147.469620
  0
LINE
  8
0
 10
-80.638580
 20
147.469620
 11
-76.638580
 21
147.469620
  0
LINE
  8
0
 10
-81.938583
 20
148.069611
 11
-80.638580
 21
148.069611
  0
LINE
  8
0
 10
-82.938568
 20
151.569611
 11
-80.313568
 21
151.569611
  0
LINE
  8
0
 10
-77.138596
 20
151.569611
 11
-74.338577
 21
151.569611
  0
LINE
  8
0
 10
-74.338577
 20
122.219620
 11
-74.338577
 21
156.219620
  0
LINE
  8
0
 10
-75.338577
 20
130.369629
 11
-75.338577
 21
148.069611
  0
LINE
  8
0
 10
-81.938568
 20
130.369629
 11
-81.938568
 21
148.069611
  0
LINE
  8
0
 10
-82.938568
 20
122.219620
 11
-82.938568
 21
156.219620
  0
LINE
  8
0
 10
-76.338577
 20
103.219604
 11
-76.338577
 21
100.219620
  0
LINE
  8
0
 10
-77.838577
 20
101.719620
 11
-74.838577
 21
101.719620
  0
LINE
  8
0
 10
-84.949211
 20
109.780266
 11
-82.827904
 21
107.658958
  0
LINE
  8
0
 10
-84.949226
 20
107.658951
 11
-82.827904
 21
109.780273
  0
LINE
  8
0
 10
-77.849228
 20
109.780266
 11
-75.727921
 21
107.658958
  0
LINE
  8
0
 10
-77.849228
 20
107.658966
 11
-75.727905
 21
109.780289
  0
LINE
  8
0
 10
-77.849213
 20
109.780281
 11
-75.727905
 21
107.658974
  0
LINE
  8
0
 10
-77.849228
 20
107.658966
 11
-75.727905
 21
109.780289
  0
LINE
  8
0
 10
-81.399269
 20
164.658997
 11
-79.277962
 21
166.780304
  0
LINE
  8
0
 10
-79.277893
 20
164.658966
 11
-81.399208
 21
166.780304
  0
LINE
  8
0
 10
-85.838562
 20
101.719627
 11
-82.838577
 21
101.719627
  0
LINE
  8
0
 10
-84.338562
 20
100.219620
 11
-84.338562
 21
103.219612
  0
LINE
  8
0
 10
-87.838577
 20
99.219620
 11
-72.838577
 21
99.219620
  0
CIRCLE
  8
0
 10
-79.908585
 20
141.759613
 40
0.320000
  0
CIRCLE
  8
0
 10
-77.368591
 20
139.219604
 40
0.320000
  0
CIRCLE
  8
0
 10
-84.338577
 20
101.719620
 40
1.750000
  0
CIRCLE
  8
0
 10
-76.338577
 20
101.719620
 40
1.750000
  0
CIRCLE
  8
0
 10
-83.888565
 20
108.719620
 40
2.799999
  0
CIRCLE
  8
0
 10
-76.788574
 20
108.719620
 40
2.799999
  0
CIRCLE
  8
0
 10
-80.338577
 20
165.719620
 40
2.250000
  0
CIRCLE
  8
0
 10
-79.908585
 20
139.219604
 40
0.320000
  0
CIRCLE
  8
0
 10
-77.368591
 20
134.139618
 40
0.320000
  0
CIRCLE
  8
0
 10
-79.908585
 20
136.679611
 40
0.320000
  0
CIRCLE
  8
0
 10
-77.368591
 20
136.679611
 40
0.320000
  0
CIRCLE
  8
0
 10
-79.908585
 20
134.139618
 40
0.320000
  0
CIRCLE
  8
0
 10
-77.368591
 20
144.299622
 40
0.320000
  0
CIRCLE
  8
0
 10
-79.908585
 20
144.299622
 40
0.320000
  0
CIRCLE
  8
0
 10
-77.368591
 20
141.759613
 40
0.320000
  0
POINT
  8
0
 10
-72.838577
 20
46.219616
  0
POINT
  8
0
 10
-87.838577
 20
46.219616
  0
LINE
  8
0
 10
-84.638565
 20
72.112610
 11
-84.638565
 21
67.219635
  0
LINE
  8
0
 10
-76.038589
 20
72.112610
 11
-76.038589
 21
67.219635
  0
LINE
  8
0
 10
-81.838577
 20
72.059143
 11
-81.838577
 21
67.219635
  0
LINE
  8
0
 10
-78.838593
 20
72.059143
 11
-78.838593
 21
67.219635
  0
LINE
  8
0
 10
-78.838593
 20
72.059143
 11
-78.338593
 21
72.059143
  0
LINE
  8
0
 10
-82.338577
 20
72.059143
 11
-81.838577
 21
72.059143
  0
LINE
  8
0
 10
-82.338577
 20
81.219620
 11
-82.338577
 21
72.059143
  0
LINE
  8
0
 10
-82.338577
 20
81.219620
 11
-78.338577
 21
81.219620
  0
LINE
  8
0
 10
-78.338593
 20
81.219620
 11
-78.338593
 21
72.059143
  0
LINE
  8
0
 10
-84.638565
 20
72.112610
 11
-82.338577
 21
72.112610
  0
LINE
  8
0
 10
-78.338593
 20
72.112610
 11
-76.038589
 21
72.112610
  0
LINE
  8
0
 10
-87.538574
 20
55.219616
 11
-87.838577
 21
55.219616
  0
LINE
  8
0
 10
-87.038589
 20
67.219635
 11
-73.638580
 21
67.219635
  0
LINE
  8
0
 10
-87.038589
 20
60.719631
 11
-73.638580
 21
60.719631
  0
LINE
  8
0
 10
-87.038589
 20
58.719631
 11
-73.638580
 21
58.719631
  0
LINE
  8
0
 10
-73.638580
 20
70.219635
 11
-73.638580
 21
58.719631
  0
LINE
  8
0
 10
-87.038589
 20
70.219635
 11
-87.038589
 21
58.719631
  0
LINE
  8
0
 10
-87.838577
 20
70.219635
 11
-87.838577
 21
57.219631
  0
LINE
  8
0
 10
-72.838577
 20
70.219635
 11
-72.838577
 21
57.219631
  0
LINE
  8
0
 10
-72.838577
 20
25.219616
 11
-87.838577
 21
25.219616
  0
LINE
  8
0
 10
-72.838577
 20
57.219616
 11
-87.838577
 21
57.219616
  0
LINE
  8
0
 10
-72.838577
 20
46.219616
 11
-87.838577
 21
46.219616
  0
LINE
  8
0
 10
-72.838577
 20
48.219616
 11
-87.838577
 21
48.219616
  0
LINE
  8
0
 10
-87.538574
 20
48.219631
 11
-87.538574
 21
46.219631
  0
LINE
  8
0
 10
-73.138580
 20
48.219631
 11
-73.138580
 21
46.219631
  0
LINE
  8
0
 10
-87.538574
 20
51.719631
 11
-87.538574
 21
49.719631
  0
LINE
  8
0
 10
-73.138580
 20
51.719631
 11
-73.138580
 21
49.719631
  0
LINE
  8
0
 10
-72.838577
 20
51.719616
 11
-87.838577
 21
51.719616
  0
LINE
  8
0
 10
-72.838577
 20
49.719616
 11
-87.838577
 21
49.719616
  0
LINE
  8
0
 10
-72.838577
 20
57.219631
 11
-72.838577
 21
55.219631
  0
LINE
  8
0
 10
-72.838577
 20
53.219631
 11
-72.838577
 21
51.719631
  0
LINE
  8
0
 10
-72.838577
 20
49.719631
 11
-72.838577
 21
48.219631
  0
LINE
  8
0
 10
-72.838577
 20
46.219631
 11
-72.838577
 21
25.219631
  0
LINE
  8
0
 10
-87.838577
 20
57.219631
 11
-87.838577
 21
55.219631
  0
LINE
  8
0
 10
-87.838577
 20
53.219631
 11
-87.838577
 21
51.719631
  0
LINE
  8
0
 10
-87.838577
 20
49.719631
 11
-87.838577
 21
48.219631
  0
LINE
  8
0
 10
-72.838577
 20
53.219616
 11
-73.138580
 21
53.219616
  0
LINE
  8
0
 10
-72.838577
 20
55.219616
 11
-73.138580
 21
55.219616
  0
LINE
  8
0
 10
-73.138580
 20
55.219631
 11
-73.138580
 21
53.219631
  0
LINE
  8
0
 10
-87.538574
 20
53.219616
 11
-87.838577
 21
53.219616
  0
LINE
  8
0
 10
-87.538574
 20
55.219631
 11
-87.538574
 21
53.219631
  0
LINE
  8
0
 10
-87.038589
 20
62.019634
 11
-73.638580
 21
62.019634
  0
LINE
  8
0
 10
-79.638580
 20
63.219631
 11
-73.938583
 21
63.219631
  0
LINE
  8
0
 10
-79.638580
 20
63.219631
 11
-79.638580
 21
62.019634
  0
LINE
  8
0
 10
-73.938583
 20
63.219631
 11
-73.938583
 21
62.019634
  0
LINE
  8
0
 10
-73.988586
 20
64.391464
 11
-73.988586
 21
63.219631
  0
LINE
  8
0
 10
-79.588577
 20
64.391464
 11
-79.588577
 21
63.219631
  0
LINE
  8
0
 10
-86.738586
 20
63.219631
 11
-81.038589
 21
63.219631
  0
LINE
  8
0
 10
-86.738586
 20
63.219631
 11
-86.738586
 21
62.019634
  0
LINE
  8
0
 10
-81.038589
 20
63.219631
 11
-81.038589
 21
62.019634
  0
LINE
  8
0
 10
-81.088577
 20
64.391464
 11
-81.088577
 21
63.219631
  0
LINE
  8
0
 10
-86.688583
 20
64.391464
 11
-86.688583
 21
63.219631
  0
LINE
  8
0
 10
-80.338577
 20
82.719620
 11
-80.338577
 21
22.384823
  0
LINE
  8
0
 10
-87.838577
 20
70.219635
 11
-72.838577
 21
70.219635
  0
ARC
  8
0
 10
-81.755249
 20
64.391464
 40
0.666664
 50
0.000000
 51
60.507732
  0
ARC
  8
0
 10
-86.021912
 20
64.391464
 40
0.666661
 50
119.492271
 51
180.000000
  0
ARC
  8
0
 10
-76.788574
 20
60.619625
 40
4.999999
 50
60.507694
 51
119.492378
  0
ARC
  8
0
 10
-74.655243
 20
64.391464
 40
0.666664
 50
0.000000
 51
60.507732
  0
ARC
  8
0
 10
-78.921906
 20
64.391464
 40
0.666661
 50
119.492271
 51
180.000000
  0
ARC
  8
0
 10
-83.888580
 20
60.619625
 40
4.999999
 50
60.507694
 51
119.492378
  0
POINT
  8
0
 10
-191.838531
 20
99.219612
  0
POINT
  8
0
 10
-164.838486
 20
99.219612
  0
LINE
  8
0
 10
-163.200317
 20
150.570312
 11
-159.978088
 21
150.570297
  0
LINE
  8
0
 10
-159.978073
 20
150.570236
 11
-157.371048
 21
151.448853
  0
LINE
  8
0
 10
-166.031631
 20
151.589600
 11
-165.466721
 21
148.108810
  0
LINE
  8
0
 10
-165.466812
 20
148.108826
 11
-160.966827
 21
148.108826
  0
LINE
  8
0
 10
-160.966843
 20
147.608795
 11
-160.966843
 21
148.108765
  0
LINE
  8
0
 10
-160.877548
 20
146.494675
 11
-161.201660
 21
146.666916
  0
LINE
  8
0
 10
-157.318100
 20
150.556442
 11
-157.087326
 21
150.556442
  0
LINE
  8
0
 10
-157.548874
 20
150.210312
 11
-157.318100
 21
150.210312
  0
LINE
  8
0
 10
-157.779633
 20
149.864151
 11
-157.548874
 21
149.864151
  0
LINE
  8
0
 10
-158.010406
 20
149.518005
 11
-157.779633
 21
149.518005
  0
LINE
  8
0
 10
-158.241180
 20
149.171844
 11
-158.010406
 21
149.171844
  0
LINE
  8
0
 10
-158.241196
 20
148.886200
 11
-158.241196
 21
149.171783
  0
LINE
  8
0
 10
-158.010452
 20
149.171783
 11
-158.010452
 21
149.517944
  0
LINE
  8
0
 10
-157.779678
 20
149.517944
 11
-157.779678
 21
149.864136
  0
LINE
  8
0
 10
-157.548904
 20
149.864136
 11
-157.548904
 21
150.210297
  0
LINE
  8
0
 10
-157.318130
 20
150.210297
 11
-157.318130
 21
150.556427
  0
LINE
  8
0
 10
-157.087357
 20
150.556427
 11
-157.087357
 21
150.731445
  0
LINE
  8
0
 10
-169.478104
 20
132.076324
 11
-169.478088
 21
146.364258
  0
LINE
  8
0
 10
-174.836533
 20
123.681122
 11
-163.200272
 21
127.870163
  0
LINE
  8
0
 10
-169.141785
 20
131.603699
 11
-165.466949
 21
130.331635
  0
LINE
  8
0
 10
-158.274796
 20
129.665253
 11
-159.576050
 21
131.617142
  0
LINE
  8
0
 10
-163.200317
 20
127.870308
 11
-159.978088
 21
127.870300
  0
LINE
  8
0
 10
-159.978027
 20
127.870522
 11
-157.371002
 21
126.991898
  0
LINE
  8
0
 10
-166.031540
 20
126.850945
 11
-165.466644
 21
130.331726
  0
LINE
  8
0
 10
-165.466812
 20
130.331787
 11
-160.966812
 21
130.331772
  0
LINE
  8
0
 10
-160.966827
 20
130.831757
 11
-160.966827
 21
130.331757
  0
LINE
  8
0
 10
-160.877441
 20
131.945755
 11
-161.201553
 21
131.773514
  0
LINE
  8
0
 10
-157.318115
 20
127.884155
 11
-157.087341
 21
127.884155
  0
LINE
  8
0
 10
-157.548889
 20
128.230301
 11
-157.318115
 21
128.230301
  0
LINE
  8
0
 10
-157.779617
 20
128.576462
 11
-157.548874
 21
128.576462
  0
LINE
  8
0
 10
-158.010422
 20
128.922607
 11
-157.779617
 21
128.922607
  0
LINE
  8
0
 10
-158.241165
 20
129.268768
 11
-158.010422
 21
129.268768
  0
LINE
  8
0
 10
-158.241180
 20
129.554337
 11
-158.241180
 21
129.268753
  0
LINE
  8
0
 10
-158.010437
 20
129.268753
 11
-158.010437
 21
128.922592
  0
LINE
  8
0
 10
-157.779633
 20
128.922592
 11
-157.779633
 21
128.576431
  0
LINE
  8
0
 10
-157.548889
 20
128.576431
 11
-157.548889
 21
128.230286
  0
LINE
  8
0
 10
-157.318115
 20
128.230286
 11
-157.318115
 21
127.884132
  0
LINE
  8
0
 10
-157.087341
 20
127.884132
 11
-157.087341
 21
127.709114
  0
LINE
  8
0
 10
-158.274719
 20
148.775208
 11
-159.575974
 21
146.823318
  0
LINE
  8
0
 10
-174.836487
 20
154.759399
 11
-163.200165
 21
150.570328
  0
LINE
  8
0
 10
-169.141586
 20
146.836594
 11
-165.466400
 21
148.108765
  0
LINE
  8
0
 10
-179.338531
 20
169.219574
 11
-179.338577
 21
114.219574
  0
LINE
  8
0
 10
-181.338531
 20
169.219574
 11
-181.338577
 21
114.219574
  0
LINE
  8
0
 10
-189.838531
 20
169.219574
 11
-189.838593
 21
99.219574
  0
LINE
  8
0
 10
-188.338531
 20
169.219574
 11
-188.338593
 21
99.219574
  0
LINE
  8
0
 10
-186.338531
 20
169.219574
 11
-186.338593
 21
99.219559
  0
LINE
  8
0
 10
-184.838531
 20
169.219574
 11
-184.838593
 21
99.219559
  0
LINE
  8
0
 10
-182.838531
 20
169.219574
 11
-182.838593
 21
99.219574
  0
LINE
  8
0
 10
-176.838501
 20
169.219574
 11
-179.338501
 21
169.219574
  0
LINE
  8
0
 10
-176.838531
 20
169.219559
 11
-176.838577
 21
114.219566
  0
LINE
  8
0
 10
-176.838547
 20
114.219574
 11
-181.338562
 21
114.219582
  0
LINE
  8
0
 10
-180.838577
 20
114.219574
 11
-180.838593
 21
99.219574
  0
LINE
  8
0
 10
-180.838577
 20
99.219582
 11
-186.338577
 21
99.219582
  0
LINE
  8
0
 10
-189.838577
 20
99.519592
 11
-191.838577
 21
99.519592
  0
LINE
  8
0
 10
-186.338577
 20
99.519585
 11
-188.338577
 21
99.519592
  0
LINE
  8
0
 10
-188.338577
 20
99.219589
 11
-189.838577
 21
99.219589
  0
LINE
  8
0
 10
-179.338501
 20
168.919586
 11
-181.338501
 21
168.919586
  0
LINE
  8
0
 10
-182.838501
 20
168.919586
 11
-184.838501
 21
168.919586
  0
LINE
  8
0
 10
-186.338501
 20
168.919586
 11
-188.338501
 21
168.919586
  0
LINE
  8
0
 10
-189.838501
 20
168.919586
 11
-191.838501
 21
168.919586
  0
LINE
  8
0
 10
-181.338501
 20
169.219574
 11
-182.838501
 21
169.219574
  0
LINE
  8
0
 10
-184.838501
 20
169.219574
 11
-186.338501
 21
169.219574
  0
LINE
  8
0
 10
-188.338501
 20
169.219589
 11
-189.838501
 21
169.219589
  0
LINE
  8
0
 10
-174.838531
 20
168.919556
 11
-174.838577
 21
114.219559
  0
LINE
  8
0
 10
-175.138489
 20
169.219574
 11
-176.838501
 21
169.219574
  0
LINE
  8
0
 10
-169.338577
 20
99.219574
 11
-180.838577
 21
99.219582
  0
LINE
  8
0
 10
-167.838562
 20
114.219566
 11
-174.838547
 21
114.219574
  0
LINE
  8
0
 10
-167.838577
 20
114.219551
 11
-167.838593
 21
100.719551
  0
LINE
  8
0
 10
-167.838593
 20
100.969551
 11
-167.838593
 21
100.719551
  0
ARC
  8
0
 10
-168.978088
 20
132.076324
 40
0.500000
 50
180.000000
 51
250.906509
  0
ARC
  8
0
 10
-157.036514
 20
151.102585
 40
0.199996
 50
291.901245
 51
11.205340
  0
ARC
  8
0
 10
-156.887329
 20
127.709114
 40
0.199997
 50
180.000000
 51
248.103622
  0
ARC
  8
0
 10
-158.441162
 20
129.554337
 40
0.199997
 50
0.000000
 51
33.687641
  0
ARC
  8
0
 10
-160.408051
 20
131.062485
 40
0.999998
 50
33.690311
 51
117.987991
  0
ARC
  8
0
 10
-168.978058
 20
146.364258
 40
0.499997
 50
109.094063
 51
180.000000
  0
CIRCLE
  8
0
 10
-169.838577
 20
101.719559
 40
0.750000
  0
CIRCLE
  8
0
 10
-169.838577
 20
111.719559
 40
0.800000
  0
ARC
  8
0
 10
-157.240707
 20
151.062119
 40
0.408138
 50
11.203648
 51
108.625969
  0
ARC
  8
0
 10
-175.138489
 20
168.919556
 40
0.300003
 50
0.000000
 51
90.000000
  0
ARC
  8
0
 10
-169.338577
 20
100.719559
 40
1.500000
 50
270.000000
 51
359.999695
  0
ARC
  8
0
 10
-156.887314
 20
150.731430
 40
0.199996
 50
111.901253
 51
180.000000
  0
ARC
  8
0
 10
-158.441193
 20
148.886200
 40
0.199997
 50
326.312347
 51
0.000000
  0
ARC
  8
0
 10
-160.966797
 20
131.331757
 40
0.500008
 50
117.988350
 51
270.000000
  0
ARC
  8
0
 10
-157.036530
 20
127.337975
 40
0.200010
 50
348.795502
 51
68.095505
  0
ARC
  8
0
 10
-157.240723
 20
127.378426
 40
0.408137
 50
251.376053
 51
348.795715
  0
ARC
  8
0
 10
-160.408081
 20
147.378082
 40
0.999995
 50
242.012009
 51
326.309692
  0
ARC
  8
0
 10
-160.966827
 20
147.108765
 40
0.500000
 50
90.000000
 51
242.011642
  0
POINT
  8
0
 10
176.077377
 20
99.219627
  0
POINT
  8
0
 10
191.077316
 20
99.219627
  0
LINE
  8
0
 10
185.277313
 20
115.041473
 11
185.277222
 21
162.973328
  0
LINE
  8
0
 10
189.577301
 20
116.219635
 11
189.577209
 21
162.219635
  0
LINE
  8
0
 10
180.977325
 20
116.219612
 11
180.977234
 21
162.219620
  0
LINE
  8
0
 10
188.577301
 20
123.869652
 11
188.577240
 21
154.569641
  0
LINE
  8
0
 10
181.977310
 20
123.869644
 11
181.977249
 21
154.569626
  0
LINE
  8
0
 10
183.777313
 20
117.769608
 11
183.777298
 21
120.469635
  0
LINE
  8
0
 10
186.777313
 20
117.769630
 11
186.777298
 21
120.469643
  0
LINE
  8
0
 10
186.777283
 20
117.769630
 11
183.777298
 21
117.769623
  0
LINE
  8
0
 10
183.277283
 20
123.869629
 11
181.977280
 21
123.869629
  0
LINE
  8
0
 10
183.277298
 20
120.469635
 11
183.277283
 21
125.869629
  0
LINE
  8
0
 10
187.277298
 20
120.469643
 11
187.277283
 21
125.869637
  0
LINE
  8
0
 10
187.277283
 20
120.469643
 11
183.277283
 21
120.469635
  0
LINE
  8
0
 10
187.277267
 20
125.869637
 11
183.277267
 21
125.869629
  0
LINE
  8
0
 10
187.277283
 20
121.469627
 11
183.277283
 21
121.469620
  0
LINE
  8
0
 10
187.277283
 20
122.469643
 11
183.277283
 21
122.469635
  0
LINE
  8
0
 10
187.277283
 20
123.469643
 11
183.277283
 21
123.469635
  0
LINE
  8
0
 10
187.277283
 20
124.469643
 11
183.277283
 21
124.469635
  0
LINE
  8
0
 10
187.277283
 20
124.469643
 11
183.277283
 21
124.469635
  0
LINE
  8
0
 10
188.577286
 20
123.869637
 11
187.277283
 21
123.869637
  0
LINE
  8
0
 10
189.577271
 20
120.369644
 11
186.952286
 21
120.369637
  0
LINE
  8
0
 10
183.602280
 20
120.369629
 11
180.977280
 21
120.369621
  0
LINE
  8
0
 10
189.577271
 20
122.869659
 11
187.277283
 21
122.869652
  0
LINE
  8
0
 10
183.277283
 20
122.869644
 11
180.977280
 21
122.869637
  0
LINE
  8
0
 10
186.777191
 20
160.669617
 11
186.777191
 21
157.969635
  0
LINE
  8
0
 10
183.777191
 20
160.669617
 11
183.777191
 21
157.969620
  0
LINE
  8
0
 10
183.777191
 20
160.669617
 11
186.777191
 21
160.669617
  0
LINE
  8
0
 10
187.277206
 20
154.569641
 11
188.577209
 21
154.569641
  0
LINE
  8
0
 10
187.277206
 20
157.969635
 11
187.277222
 21
152.569611
  0
LINE
  8
0
 10
183.277206
 20
157.969620
 11
183.277222
 21
152.569611
  0
LINE
  8
0
 10
183.277191
 20
157.969620
 11
187.277191
 21
157.969635
  0
LINE
  8
0
 10
183.277206
 20
152.569626
 11
187.277206
 21
152.569641
  0
LINE
  8
0
 10
183.277191
 20
156.969635
 11
187.277191
 21
156.969635
  0
LINE
  8
0
 10
183.277191
 20
155.969620
 11
187.277191
 21
155.969635
  0
LINE
  8
0
 10
183.277206
 20
154.969635
 11
187.277206
 21
154.969635
  0
LINE
  8
0
 10
183.277206
 20
153.969620
 11
187.277206
 21
153.969635
  0
LINE
  8
0
 10
183.277206
 20
153.969620
 11
187.277206
 21
153.969635
  0
LINE
  8
0
 10
181.977203
 20
154.569626
 11
183.277206
 21
154.569626
  0
LINE
  8
0
 10
180.977188
 20
158.069626
 11
183.777191
 21
158.069626
  0
LINE
  8
0
 10
186.777191
 20
158.069641
 11
189.577179
 21
158.069641
  0
LINE
  8
0
 10
180.977203
 20
155.569626
 11
183.277191
 21
155.569626
  0
LINE
  8
0
 10
187.277191
 20
155.569641
 11
189.577179
 21
155.569641
  0
LINE
  8
0
 10
191.077194
 20
169.219635
 11
191.077332
 21
99.219635
  0
LINE
  8
0
 10
176.077194
 20
169.219604
 11
191.077194
 21
169.219635
  0
LINE
  8
0
 10
176.077332
 20
99.219604
 11
191.077332
 21
99.219635
  0
LINE
  8
0
 10
183.577194
 20
169.951828
 11
183.577332
 21
97.298798
  0
LINE
  8
0
 10
176.077301
 20
114.219604
 11
191.077301
 21
114.219635
  0
LINE
  8
0
 10
176.877304
 20
113.219604
 11
190.277313
 21
113.219635
  0
LINE
  8
0
 10
176.877319
 20
104.219589
 11
190.077316
 21
104.219620
  0
LINE
  8
0
 10
181.177338
 20
102.719597
 11
185.977341
 21
102.719612
  0
LINE
  8
0
 10
180.977325
 20
116.219612
 11
189.577301
 21
116.219635
  0
LINE
  8
0
 10
180.977234
 20
162.219620
 11
189.577209
 21
162.219635
  0
LINE
  8
0
 10
186.066666
 20
107.658966
 11
188.187988
 21
109.780289
  0
LINE
  8
0
 10
186.066681
 20
109.780281
 11
188.188004
 21
107.658981
  0
LINE
  8
0
 10
184.277313
 20
111.569611
 11
184.277328
 21
105.869614
  0
LINE
  8
0
 10
189.977310
 20
111.569626
 11
189.977325
 21
105.869629
  0
LINE
  8
0
 10
184.277328
 20
105.869614
 11
189.977325
 21
105.869629
  0
LINE
  8
0
 10
184.277313
 20
111.569611
 11
189.977310
 21
111.569626
  0
LINE
  8
0
 10
177.177322
 20
105.869598
 11
182.877319
 21
105.869614
  0
LINE
  8
0
 10
177.177307
 20
111.569595
 11
177.177322
 21
105.869598
  0
LINE
  8
0
 10
177.177307
 20
111.569595
 11
182.877304
 21
111.569611
  0
LINE
  8
0
 10
182.877304
 20
111.569611
 11
182.877319
 21
105.869614
  0
LINE
  8
0
 10
190.277313
 20
114.219635
 11
190.277344
 21
99.219635
  0
LINE
  8
0
 10
176.877304
 20
114.219604
 11
176.877335
 21
99.219604
  0
LINE
  8
0
 10
179.477280
 20
139.219635
 11
192.577255
 21
139.219650
  0
LINE
  8
0
 10
182.516541
 20
164.658966
 11
184.637863
 21
166.780289
  0
LINE
  8
0
 10
182.516541
 20
166.780304
 11
184.637863
 21
164.658966
  0
LINE
  8
0
 10
187.577316
 20
103.219612
 11
187.577332
 21
100.219627
  0
LINE
  8
0
 10
186.077332
 20
101.719627
 11
189.077332
 21
101.719627
  0
LINE
  8
0
 10
179.577316
 20
103.219597
 11
179.577332
 21
100.219612
  0
LINE
  8
0
 10
178.077332
 20
101.719612
 11
181.077332
 21
101.719612
  0
LINE
  8
0
 10
178.966675
 20
109.780266
 11
181.087997
 21
107.658958
  0
LINE
  8
0
 10
178.966675
 20
107.658958
 11
181.087997
 21
109.780281
  0
CIRCLE
  8
0
 10
183.577194
 20
165.719620
 40
2.250000
  0
CIRCLE
  8
0
 10
187.127319
 20
108.719627
 40
2.799999
  0
CIRCLE
  8
0
 10
184.007233
 20
145.569626
 40
0.320000
  0
CIRCLE
  8
0
 10
184.007263
 20
130.329636
 40
0.320000
  0
CIRCLE
  8
0
 10
186.547256
 20
127.789650
 40
0.320000
  0
CIRCLE
  8
0
 10
184.007263
 20
127.789642
 40
0.320000
  0
CIRCLE
  8
0
 10
186.547241
 20
137.949646
 40
0.320000
  0
CIRCLE
  8
0
 10
184.007248
 20
137.949631
 40
0.320000
  0
CIRCLE
  8
0
 10
186.547241
 20
135.409637
 40
0.320000
  0
CIRCLE
  8
0
 10
184.007248
 20
135.409637
 40
0.320000
  0
CIRCLE
  8
0
 10
186.547241
 20
132.869659
 40
0.320000
  0
CIRCLE
  8
0
 10
184.007263
 20
132.869644
 40
0.320000
  0
CIRCLE
  8
0
 10
186.547256
 20
130.329636
 40
0.320000
  0
CIRCLE
  8
0
 10
186.547241
 20
140.489655
 40
0.320000
  0
CIRCLE
  8
0
 10
184.007233
 20
143.029633
 40
0.320000
  0
CIRCLE
  8
0
 10
186.547226
 20
143.029633
 40
0.320000
  0
CIRCLE
  8
0
 10
184.007233
 20
140.489639
 40
0.320000
  0
CIRCLE
  8
0
 10
186.547195
 20
150.649658
 40
0.320000
  0
CIRCLE
  8
0
 10
184.007202
 20
150.649643
 40
0.320000
  0
CIRCLE
  8
0
 10
186.547211
 20
148.109650
 40
0.320000
  0
CIRCLE
  8
0
 10
184.007202
 20
148.109634
 40
0.320000
  0
CIRCLE
  8
0
 10
186.547211
 20
145.569641
 40
0.320000
  0
CIRCLE
  8
0
 10
179.577332
 20
101.719612
 40
1.750000
  0
CIRCLE
  8
0
 10
187.577332
 20
101.719627
 40
1.750000
  0
CIRCLE
  8
0
 10
183.577332
 20
102.719604
 40
1.400000
  0
CIRCLE
  8
0
 10
180.027328
 20
108.719612
 40
2.799999
  0
POINT
  8
0
 10
176.077377
 20
46.755234
  0
POINT
  8
0
 10
191.077316
 20
46.755234
  0
LINE
  8
0
 10
179.277298
 20
72.648201
 11
179.277298
 21
68.005226
  0
LINE
  8
0
 10
187.877274
 20
72.648224
 11
187.877274
 21
68.005249
  0
LINE
  8
0
 10
182.077286
 20
72.594742
 11
182.077286
 21
68.005234
  0
LINE
  8
0
 10
185.077271
 20
72.594749
 11
185.077271
 21
68.005241
  0
LINE
  8
0
 10
185.077271
 20
72.594749
 11
185.577271
 21
72.594749
  0
LINE
  8
0
 10
181.577286
 20
72.594742
 11
182.077286
 21
72.594742
  0
LINE
  8
0
 10
181.577255
 20
81.755219
 11
181.577286
 21
72.594742
  0
LINE
  8
0
 10
181.577271
 20
75.426147
 11
185.577255
 21
75.426155
  0
LINE
  8
0
 10
181.577271
 20
78.648773
 11
185.577255
 21
78.648781
  0
LINE
  8
0
 10
185.577240
 20
81.755226
 11
185.577271
 21
72.594749
  0
LINE
  8
0
 10
179.277298
 20
72.648201
 11
181.577286
 21
72.648209
  0
LINE
  8
0
 10
185.577271
 20
72.648216
 11
187.877274
 21
72.648224
  0
LINE
  8
0
 10
176.377319
 20
55.755207
 11
176.077316
 21
55.755207
  0
LINE
  8
0
 10
176.877289
 20
59.255226
 11
190.277298
 21
59.255249
  0
LINE
  8
0
 10
190.277283
 20
70.755249
 11
190.277298
 21
59.255249
  0
LINE
  8
0
 10
176.877274
 20
70.755226
 11
176.877289
 21
59.255226
  0
LINE
  8
0
 10
176.077286
 20
70.755219
 11
176.077316
 21
57.755222
  0
LINE
  8
0
 10
191.077286
 20
70.755249
 11
191.077316
 21
57.755253
  0
LINE
  8
0
 10
191.077377
 20
25.755238
 11
176.077377
 21
25.755207
  0
LINE
  8
0
 10
191.077316
 20
57.755238
 11
176.077316
 21
57.755207
  0
LINE
  8
0
 10
191.077332
 20
46.755238
 11
176.077332
 21
46.755207
  0
LINE
  8
0
 10
191.077332
 20
48.755238
 11
176.077332
 21
48.755207
  0
LINE
  8
0
 10
176.377335
 20
48.755222
 11
176.377335
 21
46.755222
  0
LINE
  8
0
 10
190.777328
 20
48.755253
 11
190.777328
 21
46.755253
  0
LINE
  8
0
 10
176.377319
 20
52.255222
 11
176.377335
 21
50.255222
  0
LINE
  8
0
 10
190.777313
 20
52.255253
 11
190.777328
 21
50.255253
  0
LINE
  8
0
 10
191.077316
 20
52.255238
 11
176.077316
 21
52.255207
  0
LINE
  8
0
 10
191.077332
 20
50.255238
 11
176.077332
 21
50.255207
  0
LINE
  8
0
 10
191.077316
 20
57.755253
 11
191.077316
 21
55.755253
  0
LINE
  8
0
 10
191.077316
 20
53.755253
 11
191.077316
 21
52.255253
  0
LINE
  8
0
 10
191.077332
 20
50.255253
 11
191.077332
 21
48.755253
  0
LINE
  8
0
 10
191.077332
 20
46.755253
 11
191.077377
 21
25.755253
  0
LINE
  8
0
 10
176.077316
 20
57.755222
 11
176.077316
 21
55.755222
  0
LINE
  8
0
 10
176.077316
 20
53.755222
 11
176.077316
 21
52.255222
  0
LINE
  8
0
 10
176.077332
 20
50.255222
 11
176.077332
 21
48.755222
  0
LINE
  8
0
 10
191.077316
 20
53.755238
 11
190.777313
 21
53.755238
  0
LINE
  8
0
 10
191.077316
 20
55.755238
 11
190.777313
 21
55.755238
  0
LINE
  8
0
 10
190.777313
 20
55.755253
 11
190.777313
 21
53.755253
  0
LINE
  8
0
 10
176.377319
 20
53.755207
 11
176.077316
 21
53.755207
  0
LINE
  8
0
 10
176.377319
 20
55.755222
 11
176.377319
 21
53.755222
  0
LINE
  8
0
 10
176.877289
 20
62.555229
 11
190.277298
 21
62.555252
  0
LINE
  8
0
 10
184.277298
 20
63.755241
 11
189.977295
 21
63.755249
  0
LINE
  8
0
 10
184.277298
 20
63.755241
 11
184.277298
 21
62.555241
  0
LINE
  8
0
 10
189.977295
 20
63.755249
 11
189.977295
 21
62.555252
  0
LINE
  8
0
 10
189.927292
 20
64.927078
 11
189.927292
 21
63.755249
  0
LINE
  8
0
 10
184.327301
 20
64.927071
 11
184.327301
 21
63.755241
  0
LINE
  8
0
 10
177.177292
 20
63.755226
 11
182.877289
 21
63.755234
  0
LINE
  8
0
 10
177.177292
 20
63.755226
 11
177.177292
 21
62.555229
  0
LINE
  8
0
 10
182.877289
 20
63.755234
 11
182.877289
 21
62.555241
  0
LINE
  8
0
 10
182.827301
 20
64.927063
 11
182.827301
 21
63.755234
  0
LINE
  8
0
 10
177.227295
 20
64.927055
 11
177.227295
 21
63.755226
  0
LINE
  8
0
 10
183.577255
 20
83.255219
 11
183.577377
 21
22.920429
  0
LINE
  8
0
 10
176.077286
 20
70.755219
 11
191.077286
 21
70.755249
  0
LINE
  8
0
 10
176.877274
 20
68.005226
 11
190.277283
 21
68.005249
  0
LINE
  8
0
 10
181.577255
 20
81.755219
 11
185.577255
 21
81.755226
  0
ARC
  8
0
 10
177.893967
 20
64.927055
 40
0.666675
 50
119.493088
 51
180.000000
  0
ARC
  8
0
 10
183.577301
 20
59.255238
 40
1.400009
 50
0.000156
 51
180.000153
  0
ARC
  8
0
 10
187.127304
 20
61.155239
 40
5.000005
 50
60.507740
 51
119.492500
  0
ARC
  8
0
 10
189.260635
 20
64.927078
 40
0.666656
 50
0.000000
 51
60.507732
  0
ARC
  8
0
 10
184.993973
 20
64.927071
 40
0.666669
 50
119.493408
 51
180.000000
  0
ARC
  8
0
 10
180.027298
 20
61.155224
 40
5.000005
 50
60.507740
 51
119.492500
  0
ARC
  8
0
 10
182.160629
 20
64.927063
 40
0.666656
 50
0.000000
 51
60.508053
  0
POINT
  8
0
 10
98.310318
 20
99.219604
  0
POINT
  8
0
 10
71.310303
 20
99.219604
  0
LINE
  8
0
 10
99.946472
 20
157.069626
 11
103.168701
 21
157.069626
  0
LINE
  8
0
 10
103.168732
 20
157.069565
 11
105.775749
 21
157.948181
  0
LINE
  8
0
 10
97.115135
 20
158.089005
 11
97.680038
 21
154.608185
  0
LINE
  8
0
 10
97.679977
 20
154.608154
 11
102.179962
 21
154.608154
  0
LINE
  8
0
 10
102.179970
 20
154.108170
 11
102.179970
 21
154.608139
  0
LINE
  8
0
 10
102.269302
 20
152.994141
 11
101.945190
 21
153.166382
  0
LINE
  8
0
 10
105.828690
 20
157.055771
 11
106.059464
 21
157.055771
  0
LINE
  8
0
 10
105.597916
 20
156.709641
 11
105.828690
 21
156.709641
  0
LINE
  8
0
 10
105.367157
 20
156.363480
 11
105.597916
 21
156.363480
  0
LINE
  8
0
 10
105.136383
 20
156.017334
 11
105.367157
 21
156.017334
  0
LINE
  8
0
 10
104.905609
 20
155.671173
 11
105.136383
 21
155.671173
  0
LINE
  8
0
 10
104.905617
 20
155.385574
 11
104.905617
 21
155.671158
  0
LINE
  8
0
 10
105.136360
 20
155.671158
 11
105.136360
 21
156.017319
  0
LINE
  8
0
 10
105.367149
 20
156.017319
 11
105.367149
 21
156.363495
  0
LINE
  8
0
 10
105.597908
 20
156.363495
 11
105.597900
 21
156.709656
  0
LINE
  8
0
 10
105.828674
 20
156.709656
 11
105.828674
 21
157.055786
  0
LINE
  8
0
 10
106.059448
 20
157.055786
 11
106.059448
 21
157.230804
  0
LINE
  8
0
 10
93.668739
 20
125.575668
 11
93.668724
 21
152.863602
  0
LINE
  8
0
 10
88.314255
 20
117.181976
 11
99.946503
 21
121.369598
  0
LINE
  8
0
 10
94.005089
 20
125.103050
 11
97.679932
 21
123.830994
  0
LINE
  8
0
 10
104.871994
 20
123.164597
 11
103.570740
 21
125.116478
  0
LINE
  8
0
 10
99.946510
 20
121.369614
 11
103.168739
 21
121.369614
  0
LINE
  8
0
 10
103.168816
 20
121.369827
 11
105.775856
 21
120.491203
  0
LINE
  8
0
 10
97.115250
 20
120.350296
 11
97.680145
 21
123.831070
  0
LINE
  8
0
 10
97.680016
 20
123.831100
 11
102.180016
 21
123.831100
  0
LINE
  8
0
 10
102.180016
 20
124.331116
 11
102.180016
 21
123.831116
  0
LINE
  8
0
 10
102.269470
 20
125.444984
 11
101.945358
 21
125.272736
  0
LINE
  8
0
 10
105.828735
 20
121.383469
 11
106.059509
 21
121.383469
  0
LINE
  8
0
 10
105.597977
 20
121.729614
 11
105.828735
 21
121.729614
  0
LINE
  8
0
 10
105.367218
 20
122.075775
 11
105.597977
 21
122.075775
  0
LINE
  8
0
 10
105.136429
 20
122.421921
 11
105.367218
 21
122.421921
  0
LINE
  8
0
 10
104.905670
 20
122.768082
 11
105.136429
 21
122.768082
  0
LINE
  8
0
 10
104.905663
 20
123.053680
 11
104.905670
 21
122.768097
  0
LINE
  8
0
 10
105.136429
 20
122.768097
 11
105.136429
 21
122.421936
  0
LINE
  8
0
 10
105.367218
 20
122.421936
 11
105.367218
 21
122.075775
  0
LINE
  8
0
 10
105.597961
 20
122.075775
 11
105.597961
 21
121.729630
  0
LINE
  8
0
 10
105.828751
 20
121.729630
 11
105.828751
 21
121.383484
  0
LINE
  8
0
 10
106.059509
 20
121.383484
 11
106.059509
 21
121.208466
  0
LINE
  8
0
 10
104.872101
 20
155.274612
 11
103.570831
 21
153.322693
  0
LINE
  8
0
 10
88.310249
 20
161.258713
 11
99.946594
 21
157.069641
  0
LINE
  8
0
 10
94.005180
 20
153.335922
 11
97.680069
 21
154.608002
  0
LINE
  8
0
 10
83.810249
 20
169.219604
 11
83.810280
 21
114.219612
  0
LINE
  8
0
 10
81.810249
 20
169.219604
 11
81.810280
 21
114.219612
  0
LINE
  8
0
 10
73.310249
 20
169.219604
 11
73.310287
 21
99.219589
  0
LINE
  8
0
 10
74.810249
 20
169.219604
 11
74.810287
 21
99.219589
  0
LINE
  8
0
 10
76.810249
 20
169.219604
 11
76.810287
 21
99.219589
  0
LINE
  8
0
 10
78.310249
 20
169.219604
 11
78.310287
 21
99.219597
  0
LINE
  8
0
 10
80.310249
 20
169.219604
 11
80.310287
 21
99.219612
  0
LINE
  8
0
 10
88.310249
 20
169.219604
 11
83.810234
 21
169.219604
  0
LINE
  8
0
 10
86.310249
 20
169.219604
 11
86.310280
 21
114.219612
  0
LINE
  8
0
 10
86.310280
 20
114.219597
 11
81.810280
 21
114.219597
  0
LINE
  8
0
 10
82.310280
 20
114.219612
 11
82.310287
 21
99.219612
  0
LINE
  8
0
 10
82.310303
 20
99.219597
 11
76.810303
 21
99.219589
  0
LINE
  8
0
 10
73.310303
 20
99.519592
 11
71.310303
 21
99.519592
  0
LINE
  8
0
 10
76.810303
 20
99.519592
 11
74.810303
 21
99.519592
  0
LINE
  8
0
 10
74.810303
 20
99.219589
 11
73.310303
 21
99.219589
  0
LINE
  8
0
 10
83.810234
 20
168.919586
 11
81.810234
 21
168.919586
  0
LINE
  8
0
 10
80.310234
 20
168.919586
 11
78.310234
 21
168.919586
  0
LINE
  8
0
 10
76.810234
 20
168.919586
 11
74.810234
 21
168.919586
  0
LINE
  8
0
 10
73.310234
 20
168.919586
 11
71.310234
 21
168.919586
  0
LINE
  8
0
 10
81.810234
 20
169.219604
 11
80.310234
 21
169.219604
  0
LINE
  8
0
 10
78.310234
 20
169.219604
 11
76.810234
 21
169.219589
  0
LINE
  8
0
 10
74.810234
 20
169.219589
 11
73.310234
 21
169.219589
  0
LINE
  8
0
 10
88.310249
 20
169.219604
 11
88.310280
 21
114.219612
  0
LINE
  8
0
 10
93.810295
 20
99.219604
 11
82.310303
 21
99.219597
  0
LINE
  8
0
 10
95.310272
 20
114.219604
 11
88.310280
 21
114.219597
  0
LINE
  8
0
 10
95.310272
 20
114.219620
 11
95.310280
 21
100.719620
  0
LINE
  8
0
 10
95.310280
 20
100.969620
 11
95.310280
 21
100.719620
  0
ARC
  8
0
 10
106.259460
 20
157.230804
 40
0.200010
 50
111.899628
 51
180.000000
  0
ARC
  8
0
 10
105.906082
 20
157.561493
 40
0.408141
 50
11.205750
 51
108.625282
  0
ARC
  8
0
 10
104.705597
 20
155.385574
 40
0.199997
 50
326.312347
 51
0.000000
  0
CIRCLE
  8
0
 10
93.310295
 20
101.719620
 40
0.750000
  0
CIRCLE
  8
0
 10
93.310272
 20
111.719620
 40
0.800000
  0
ARC
  8
0
 10
93.810295
 20
100.719620
 40
1.500000
 50
270.000000
 51
0.000000
  0
ARC
  8
0
 10
102.180016
 20
124.831116
 40
0.500004
 50
117.987579
 51
270.000000
  0
ARC
  8
0
 10
106.110321
 20
120.837326
 40
0.199995
 50
348.794647
 51
68.099564
  0
ARC
  8
0
 10
105.906128
 20
120.877777
 40
0.408141
 50
251.374023
 51
348.796356
  0
ARC
  8
0
 10
102.738708
 20
153.877457
 40
0.999995
 50
242.012009
 51
326.309692
  0
ARC
  8
0
 10
102.179962
 20
153.608139
 40
0.500000
 50
90.000000
 51
242.011597
  0
ARC
  8
0
 10
106.110260
 20
157.601959
 40
0.199996
 50
291.901245
 51
11.205340
  0
ARC
  8
0
 10
94.168724
 20
152.863602
 40
0.499997
 50
109.094063
 51
180.000000
  0
ARC
  8
0
 10
94.168739
 20
125.575668
 40
0.500000
 50
180.000000
 51
250.906219
  0
ARC
  8
0
 10
102.738762
 20
124.561844
 40
1.000005
 50
33.690067
 51
117.987785
  0
ARC
  8
0
 10
104.705650
 20
123.053680
 40
0.200005
 50
0.000000
 51
33.691280
  0
ARC
  8
0
 10
106.259521
 20
121.208466
 40
0.200005
 50
180.000000
 51
248.098740
  0
POINT
  8
0
 10
-87.525734
 20
-79.860397
  0
POINT
  8
0
 10
-72.525742
 20
-79.860397
  0
LINE
  8
0
 10
-79.325745
 20
-67.510406
 11
-79.325737
 21
-73.210403
  0
LINE
  8
0
 10
-73.625748
 20
-67.510399
 11
-73.625740
 21
-73.210396
  0
LINE
  8
0
 10
-79.325737
 20
-73.210403
 11
-73.625740
 21
-73.210396
  0
LINE
  8
0
 10
-79.325745
 20
-67.510406
 11
-73.625748
 21
-67.510399
  0
LINE
  8
0
 10
-86.425743
 20
-73.210419
 11
-80.725746
 21
-73.210411
  0
LINE
  8
0
 10
-86.425751
 20
-67.510422
 11
-86.425743
 21
-73.210419
  0
LINE
  8
0
 10
-86.425751
 20
-67.510422
 11
-80.725754
 21
-67.510414
  0
LINE
  8
0
 10
-80.725754
 20
-67.510414
 11
-80.725746
 21
-73.210411
  0
LINE
  8
0
 10
-87.525742
 20
-79.860413
 11
-72.525742
 21
-79.860390
  0
LINE
  8
0
 10
-72.525848
 20
-9.860390
 11
-72.525742
 21
-79.860390
  0
LINE
  8
0
 10
-87.525848
 20
-9.860413
 11
-72.525848
 21
-9.860390
  0
LINE
  8
0
 10
-87.525764
 20
-64.860413
 11
-72.525764
 21
-64.860390
  0
LINE
  8
0
 10
-73.325752
 20
-64.860390
 11
-73.325729
 21
-79.860390
  0
LINE
  8
0
 10
-86.725761
 20
-64.860413
 11
-86.725739
 21
-79.860413
  0
LINE
  8
0
 10
-86.725761
 20
-65.860413
 11
-73.325752
 21
-65.860390
  0
LINE
  8
0
 10
-86.725746
 20
-74.860428
 11
-73.325737
 21
-74.860405
  0
LINE
  8
0
 10
-77.536415
 20
-71.421066
 11
-75.415100
 21
-69.299744
  0
LINE
  8
0
 10
-77.536407
 20
-69.299744
 11
-75.415092
 21
-71.421051
  0
LINE
  8
0
 10
-80.025856
 20
-6.526100
 11
-80.025734
 21
-83.290100
  0
LINE
  8
0
 10
-86.325829
 20
-12.860397
 11
-86.325760
 21
-60.860397
  0
LINE
  8
0
 10
-76.225861
 20
-10.360382
 11
-79.687424
 21
-10.360382
  0
LINE
  8
0
 10
-73.725822
 20
-12.860359
 11
-73.725754
 21
-60.860359
  0
LINE
  8
0
 10
-76.115814
 20
-19.736359
 11
-76.115761
 21
-53.984383
  0
LINE
  8
0
 10
-78.110977
 20
-55.658562
 11
-82.530998
 21
-54.879204
  0
LINE
  8
0
 10
-78.111046
 20
-18.062187
 11
-82.531052
 21
-18.841560
  0
LINE
  8
0
 10
-77.275757
 20
-61.968079
 11
-77.275757
 21
-58.792648
  0
LINE
  8
0
 10
-82.775757
 20
-61.968086
 11
-82.775757
 21
-58.792656
  0
LINE
  8
0
 10
-77.275772
 20
-61.968094
 11
-80.025772
 21
-63.555813
  0
LINE
  8
0
 10
-80.025795
 20
-57.204964
 11
-82.775795
 21
-58.792679
  0
LINE
  8
0
 10
-80.025787
 20
-63.555779
 11
-82.775780
 21
-61.968075
  0
LINE
  8
0
 10
-77.275772
 20
-58.792648
 11
-80.025772
 21
-57.204941
  0
LINE
  8
0
 10
-77.275826
 20
-14.928131
 11
-77.275833
 21
-11.752701
  0
LINE
  8
0
 10
-82.775826
 20
-14.928139
 11
-82.775833
 21
-11.752708
  0
LINE
  8
0
 10
-77.275810
 20
-14.928162
 11
-80.025803
 21
-16.515873
  0
LINE
  8
0
 10
-80.025826
 20
-10.165016
 11
-82.775826
 21
-11.752731
  0
LINE
  8
0
 10
-80.025818
 20
-16.515881
 11
-82.775826
 21
-14.928169
  0
LINE
  8
0
 10
-77.275848
 20
-11.752724
 11
-80.025856
 21
-10.165016
  0
LINE
  8
0
 10
-80.364258
 20
-10.360390
 11
-83.825867
 21
-10.360390
  0
LINE
  8
0
 10
-80.364250
 20
-63.360371
 11
-83.825768
 21
-63.360374
  0
LINE
  8
0
 10
-76.225761
 20
-63.360367
 11
-79.687294
 21
-63.360371
  0
LINE
  8
0
 10
-76.025749
 20
-75.860413
 11
-76.025742
 21
-78.860397
  0
LINE
  8
0
 10
-77.525742
 20
-77.360397
 11
-74.525742
 21
-77.360390
  0
LINE
  8
0
 10
-84.025749
 20
-75.860420
 11
-84.025742
 21
-78.860405
  0
LINE
  8
0
 10
-85.525742
 20
-77.360413
 11
-82.525742
 21
-77.360405
  0
LINE
  8
0
 10
-84.636406
 20
-69.299767
 11
-82.515091
 21
-71.421066
  0
LINE
  8
0
 10
-84.636406
 20
-71.421066
 11
-82.515091
 21
-69.299744
  0
LINE
  8
0
 10
-83.935852
 20
-20.515762
 11
-83.935806
 21
-53.205032
  0
CIRCLE
  8
0
 10
-80.025826
 20
-13.340424
 40
2.750000
  0
CIRCLE
  8
0
 10
-80.025826
 20
-13.340424
 40
1.500000
  0
CIRCLE
  8
0
 10
-80.025826
 20
-13.340424
 40
1.229500
  0
CIRCLE
  8
0
 10
-76.475754
 20
-70.360397
 40
2.799999
  0
CIRCLE
  8
0
 10
-84.025742
 20
-77.360405
 40
1.750000
  0
CIRCLE
  8
0
 10
-76.025742
 20
-77.360397
 40
1.750000
  0
CIRCLE
  8
0
 10
-83.575745
 20
-70.360405
 40
2.799999
  0
CIRCLE
  8
0
 10
-81.445816
 20
-52.040390
 40
0.500000
  0
CIRCLE
  8
0
 10
-78.605797
 20
-53.420387
 40
0.500000
  0
CIRCLE
  8
0
 10
-78.605804
 20
-50.660378
 40
0.500000
  0
CIRCLE
  8
0
 10
-78.605804
 20
-47.900429
 40
0.500000
  0
CIRCLE
  8
0
 10
-78.605827
 20
-45.140419
 40
0.500000
  0
CIRCLE
  8
0
 10
-78.605820
 20
-42.380405
 40
0.500000
  0
CIRCLE
  8
0
 10
-78.605820
 20
-39.620396
 40
0.500000
  0
CIRCLE
  8
0
 10
-78.605843
 20
-36.860386
 40
0.500000
  0
CIRCLE
  8
0
 10
-78.605843
 20
-34.100376
 40
0.500000
  0
CIRCLE
  8
0
 10
-78.605850
 20
-31.340427
 40
0.500000
  0
CIRCLE
  8
0
 10
-78.605850
 20
-28.580418
 40
0.500000
  0
CIRCLE
  8
0
 10
-78.605858
 20
-25.820408
 40
0.500000
  0
CIRCLE
  8
0
 10
-78.605858
 20
-23.060398
 40
0.500000
  0
CIRCLE
  8
0
 10
-78.605865
 20
-20.300419
 40
0.500000
  0
CIRCLE
  8
0
 10
-81.445877
 20
-21.680431
 40
0.500000
  0
CIRCLE
  8
0
 10
-81.445869
 20
-24.440411
 40
0.500000
  0
CIRCLE
  8
0
 10
-81.445869
 20
-27.200420
 40
0.500000
  0
CIRCLE
  8
0
 10
-81.445862
 20
-29.960430
 40
0.500000
  0
CIRCLE
  8
0
 10
-81.445854
 20
-32.720440
 40
0.500000
  0
CIRCLE
  8
0
 10
-81.445854
 20
-35.480389
 40
0.500000
  0
CIRCLE
  8
0
 10
-81.445831
 20
-38.240398
 40
0.500000
  0
CIRCLE
  8
0
 10
-81.445831
 20
-41.000408
 40
0.500000
  0
CIRCLE
  8
0
 10
-81.445839
 20
-43.760418
 40
0.500000
  0
CIRCLE
  8
0
 10
-81.445839
 20
-46.520432
 40
0.500000
  0
CIRCLE
  8
0
 10
-81.445816
 20
-49.280441
 40
0.500000
  0
ARC
  8
0
 10
-76.225769
 20
-60.860382
 40
2.500000
 50
270.000183
 51
0.000175
  0
ARC
  8
0
 10
-76.225853
 20
-12.860367
 40
2.500000
 50
0.000175
 51
90.000175
  0
ARC
  8
0
 10
-83.825859
 20
-12.860390
 40
2.500000
 50
90.000175
 51
180.000168
  0
ARC
  8
0
 10
-83.825775
 20
-60.860390
 40
2.500000
 50
180.000168
 51
270.000183
  0
ARC
  8
0
 10
-77.815773
 20
-53.984383
 40
1.700000
 50
260.000458
 51
0.000129
  0
ARC
  8
0
 10
-77.815842
 20
-19.736362
 40
1.699997
 50
0.000257
 51
100.000061
  0
ARC
  8
0
 10
-82.235855
 20
-20.515759
 40
1.700000
 50
100.000336
 51
180.000259
  0
ARC
  8
0
 10
-82.235786
 20
-53.205032
 40
1.700005
 50
180.000259
 51
260.000183
  0
CIRCLE
  8
0
 10
-80.025772
 20
-60.380375
 40
2.750000
  0
CIRCLE
  8
0
 10
-80.025772
 20
-60.380375
 40
1.500000
  0
CIRCLE
  8
0
 10
-80.025772
 20
-60.380375
 40
1.229500
  0
POINT
  8
0
 10
-87.525742
 20
-131.324799
  0
POINT
  8
0
 10
-72.525726
 20
-131.324799
  0
LINE
  8
0
 10
-87.225754
 20
-122.324814
 11
-87.525757
 21
-122.324814
  0
LINE
  8
0
 10
-86.725784
 20
-116.824799
 11
-73.325775
 21
-116.824768
  0
LINE
  8
0
 10
-86.725777
 20
-118.824799
 11
-73.325768
 21
-118.824768
  0
LINE
  8
0
 10
-73.325790
 20
-107.324768
 11
-73.325768
 21
-118.824768
  0
LINE
  8
0
 10
-86.725800
 20
-107.324799
 11
-86.725777
 21
-118.824799
  0
LINE
  8
0
 10
-87.525787
 20
-107.324799
 11
-87.525764
 21
-120.324799
  0
LINE
  8
0
 10
-72.525787
 20
-107.324768
 11
-72.525764
 21
-120.324768
  0
LINE
  8
0
 10
-72.525696
 20
-152.324783
 11
-87.525696
 21
-152.324814
  0
LINE
  8
0
 10
-72.525764
 20
-120.324783
 11
-87.525764
 21
-120.324814
  0
LINE
  8
0
 10
-72.525742
 20
-131.324783
 11
-87.525742
 21
-131.324814
  0
LINE
  8
0
 10
-72.525742
 20
-129.324783
 11
-87.525749
 21
-129.324814
  0
LINE
  8
0
 10
-87.225746
 20
-129.324799
 11
-87.225739
 21
-131.324799
  0
LINE
  8
0
 10
-72.825745
 20
-129.324768
 11
-72.825745
 21
-131.324768
  0
LINE
  8
0
 10
-87.225746
 20
-125.824799
 11
-87.225746
 21
-127.824799
  0
LINE
  8
0
 10
-72.825760
 20
-125.824768
 11
-72.825752
 21
-127.824768
  0
LINE
  8
0
 10
-72.525757
 20
-125.824783
 11
-87.525749
 21
-125.824814
  0
LINE
  8
0
 10
-72.525749
 20
-127.824783
 11
-87.525749
 21
-127.824814
  0
LINE
  8
0
 10
-72.525764
 20
-120.324768
 11
-72.525757
 21
-122.324768
  0
LINE
  8
0
 10
-72.525757
 20
-124.324768
 11
-72.525757
 21
-125.824768
  0
LINE
  8
0
 10
-72.525749
 20
-127.824768
 11
-72.525742
 21
-129.324768
  0
LINE
  8
0
 10
-72.525742
 20
-131.324768
 11
-72.525696
 21
-152.324768
  0
LINE
  8
0
 10
-87.525764
 20
-120.324799
 11
-87.525757
 21
-122.324799
  0
LINE
  8
0
 10
-87.525757
 20
-124.324799
 11
-87.525749
 21
-125.824799
  0
LINE
  8
0
 10
-87.525749
 20
-127.824799
 11
-87.525749
 21
-129.324799
  0
LINE
  8
0
 10
-72.525757
 20
-124.324783
 11
-72.825760
 21
-124.324783
  0
LINE
  8
0
 10
-72.525757
 20
-122.324783
 11
-72.825760
 21
-122.324783
  0
LINE
  8
0
 10
-72.825760
 20
-122.324768
 11
-72.825760
 21
-124.324768
  0
LINE
  8
0
 10
-87.225754
 20
-124.324814
 11
-87.525757
 21
-124.324814
  0
LINE
  8
0
 10
-87.225754
 20
-122.324799
 11
-87.225754
 21
-124.324799
  0
LINE
  8
0
 10
-86.725784
 20
-115.524796
 11
-73.325775
 21
-115.524765
  0
LINE
  8
0
 10
-79.325775
 20
-114.324783
 11
-73.625778
 21
-114.324768
  0
LINE
  8
0
 10
-79.325775
 20
-114.324783
 11
-79.325775
 21
-115.524780
  0
LINE
  8
0
 10
-73.625778
 20
-114.324768
 11
-73.625778
 21
-115.524765
  0
LINE
  8
0
 10
-73.675774
 20
-113.152939
 11
-73.675766
 21
-114.324768
  0
LINE
  8
0
 10
-79.275780
 20
-113.152954
 11
-79.275772
 21
-114.324783
  0
LINE
  8
0
 10
-86.425789
 20
-114.324799
 11
-80.725777
 21
-114.324783
  0
LINE
  8
0
 10
-86.425789
 20
-114.324799
 11
-86.425781
 21
-115.524796
  0
LINE
  8
0
 10
-80.725777
 20
-114.324783
 11
-80.725769
 21
-115.524780
  0
LINE
  8
0
 10
-80.775780
 20
-113.152954
 11
-80.775780
 21
-114.324783
  0
LINE
  8
0
 10
-86.375786
 20
-113.152969
 11
-86.375786
 21
-114.324799
  0
LINE
  8
0
 10
-80.025795
 20
-104.495880
 11
-80.025696
 21
-155.159592
  0
LINE
  8
0
 10
-87.525787
 20
-107.324799
 11
-72.525787
 21
-107.324768
  0
ARC
  8
0
 10
-81.442451
 20
-113.152954
 40
0.666664
 50
0.000000
 51
60.507732
  0
ARC
  8
0
 10
-85.709114
 20
-113.152969
 40
0.666668
 50
119.491943
 51
180.000000
  0
ARC
  8
0
 10
-76.475769
 20
-116.924782
 40
4.999998
 50
60.507793
 51
119.492477
  0
ARC
  8
0
 10
-74.342445
 20
-113.152939
 40
0.666664
 50
0.000000
 51
60.507160
  0
ARC
  8
0
 10
-78.609108
 20
-113.152954
 40
0.666671
 50
119.492516
 51
180.000000
  0
ARC
  8
0
 10
-83.575775
 20
-116.924797
 40
4.999998
 50
60.507793
 51
119.492477
  0
POINT
  8
0
 10
-192.292786
 20
-79.860413
  0
POINT
  8
0
 10
-165.292770
 20
-79.860413
  0
LINE
  8
0
 10
-174.292786
 20
-63.360420
 11
-175.292786
 21
-63.360420
  0
LINE
  8
0
 10
-174.292816
 20
-10.360405
 11
-175.292816
 21
-10.360405
  0
LINE
  8
0
 10
-168.292786
 20
-56.010422
 11
-174.292786
 21
-56.010422
  0
LINE
  8
0
 10
-168.292816
 20
-17.710415
 11
-174.292801
 21
-17.710419
  0
LINE
  8
0
 10
-168.292786
 20
-78.360405
 11
-168.292786
 21
-64.860420
  0
LINE
  8
0
 10
-169.292801
 20
-16.110409
 11
-169.292801
 21
-10.610405
  0
LINE
  8
0
 10
-174.292786
 20
-63.535835
 11
-174.292801
 21
-10.184975
  0
LINE
  8
0
 10
-169.538437
 20
-16.535839
 11
-174.292816
 21
-16.535843
  0
LINE
  8
0
 10
-169.538437
 20
-14.948112
 11
-174.292816
 21
-14.948112
  0
LINE
  8
0
 10
-169.538437
 20
-11.772697
 11
-174.292816
 21
-11.772697
  0
LINE
  8
0
 10
-169.538437
 20
-10.184975
 11
-174.292816
 21
-10.184975
  0
LINE
  8
0
 10
-169.292831
 20
-16.110374
 11
-169.538452
 21
-16.535805
  0
LINE
  8
0
 10
-169.292847
 20
-10.610390
 11
-169.538467
 21
-10.184959
  0
LINE
  8
0
 10
-169.292786
 20
-63.110405
 11
-169.292786
 21
-57.610405
  0
LINE
  8
0
 10
-169.538406
 20
-63.535851
 11
-174.292786
 21
-63.535851
  0
LINE
  8
0
 10
-169.538406
 20
-61.948128
 11
-174.292786
 21
-61.948128
  0
LINE
  8
0
 10
-169.538406
 20
-58.772713
 11
-174.292786
 21
-58.772713
  0
LINE
  8
0
 10
-169.538406
 20
-57.184998
 11
-174.292786
 21
-57.184998
  0
LINE
  8
0
 10
-169.292786
 20
-63.110401
 11
-169.538406
 21
-63.535828
  0
LINE
  8
0
 10
-169.292786
 20
-57.610435
 11
-169.538406
 21
-57.185013
  0
LINE
  8
0
 10
-179.792801
 20
-9.860413
 11
-179.792786
 21
-64.860413
  0
LINE
  8
0
 10
-181.792801
 20
-9.860413
 11
-181.792786
 21
-64.860413
  0
LINE
  8
0
 10
-190.292801
 20
-9.860413
 11
-190.292786
 21
-79.860428
  0
LINE
  8
0
 10
-188.792801
 20
-9.860413
 11
-188.792786
 21
-79.860428
  0
LINE
  8
0
 10
-186.792801
 20
-9.860413
 11
-186.792786
 21
-79.860428
  0
LINE
  8
0
 10
-185.292801
 20
-9.860413
 11
-185.292786
 21
-79.860428
  0
LINE
  8
0
 10
-183.292801
 20
-9.860413
 11
-183.292786
 21
-79.860413
  0
LINE
  8
0
 10
-177.292816
 20
-9.860405
 11
-179.792816
 21
-9.860413
  0
LINE
  8
0
 10
-177.292801
 20
-9.860405
 11
-177.292786
 21
-64.860413
  0
LINE
  8
0
 10
-177.292786
 20
-64.860428
 11
-181.792786
 21
-64.860428
  0
LINE
  8
0
 10
-181.292786
 20
-64.860413
 11
-181.292786
 21
-79.860413
  0
LINE
  8
0
 10
-181.292786
 20
-79.860428
 11
-186.792786
 21
-79.860428
  0
LINE
  8
0
 10
-190.292786
 20
-79.560425
 11
-192.292786
 21
-79.560425
  0
LINE
  8
0
 10
-186.792786
 20
-79.560425
 11
-188.792786
 21
-79.560425
  0
LINE
  8
0
 10
-188.792786
 20
-79.860428
 11
-190.292786
 21
-79.860428
  0
LINE
  8
0
 10
-179.792816
 20
-10.160416
 11
-181.792816
 21
-10.160416
  0
LINE
  8
0
 10
-183.292816
 20
-10.160416
 11
-185.292816
 21
-10.160416
  0
LINE
  8
0
 10
-186.792816
 20
-10.160416
 11
-188.792816
 21
-10.160416
  0
LINE
  8
0
 10
-190.292816
 20
-10.160416
 11
-192.292816
 21
-10.160416
  0
LINE
  8
0
 10
-181.792816
 20
-9.860413
 11
-183.292816
 21
-9.860413
  0
LINE
  8
0
 10
-185.292816
 20
-9.860413
 11
-186.792816
 21
-9.860413
  0
LINE
  8
0
 10
-188.792816
 20
-9.860413
 11
-190.292816
 21
-9.860413
  0
LINE
  8
0
 10
-175.292801
 20
-10.160408
 11
-175.292786
 21
-64.860405
  0
LINE
  8
0
 10
-175.592819
 20
-9.860405
 11
-177.292816
 21
-9.860405
  0
LINE
  8
0
 10
-169.792770
 20
-79.860420
 11
-181.292786
 21
-79.860428
  0
LINE
  8
0
 10
-168.292786
 20
-64.860420
 11
-175.292786
 21
-64.860420
  0
LINE
  8
0
 10
-168.292786
 20
-78.110405
 11
-168.292786
 21
-78.360405
  0
LINE
  8
0
 10
-168.292786
 20
-56.010422
 11
-168.292801
 21
-17.710415
  0
ARC
  8
0
 10
-212.992813
 20
-37.660427
 40
0.300000
 50
109.472443
 51
180.000000
  0
CIRCLE
  8
0
 10
-170.292786
 20
-67.360405
 40
0.800000
  0
ARC
  8
0
 10
-175.592819
 20
-10.160408
 40
0.300003
 50
0.000000
 51
90.000000
  0
ARC
  8
0
 10
-169.792770
 20
-78.360405
 40
1.500000
 50
270.000000
 51
0.000000
  0
CIRCLE
  8
0
 10
-170.292770
 20
-77.360405
 40
0.750000
  0
ARC
  8
0
 10
-174.547195
 20
-13.360405
 40
5.254377
 50
342.412109
 51
17.587978
  0
ARC
  8
0
 10
-170.698517
 20
-15.741966
 40
1.405694
 50
334.384155
 51
34.384209
  0
ARC
  8
0
 10
-170.698532
 20
-10.978828
 40
1.405699
 50
325.615784
 51
25.615988
  0
ARC
  8
0
 10
-174.547165
 20
-60.360405
 40
5.254378
 50
342.412048
 51
17.587938
  0
ARC
  8
0
 10
-170.698486
 20
-62.741966
 40
1.405695
 50
334.384003
 51
34.384209
  0
ARC
  8
0
 10
-170.698502
 20
-57.978828
 40
1.405701
 50
325.615662
 51
25.615707
  0
POINT
  8
0
 10
173.437759
 20
-79.860382
  0
POINT
  8
0
 10
188.437759
 20
-79.860382
  0
LINE
  8
0
 10
188.437729
 20
-9.860382
 11
188.437759
 21
-79.860382
  0
LINE
  8
0
 10
173.437729
 20
-9.860390
 11
188.437729
 21
-9.860382
  0
LINE
  8
0
 10
173.437759
 20
-79.860390
 11
188.437759
 21
-79.860382
  0
LINE
  8
0
 10
180.937729
 20
-6.526077
 11
180.937759
 21
-83.290085
  0
LINE
  8
0
 10
175.187759
 20
-75.190392
 11
186.587769
 21
-75.190384
  0
LINE
  8
0
 10
175.187759
 20
-73.870399
 11
186.587769
 21
-73.870392
  0
LINE
  8
0
 10
175.187759
 20
-67.570396
 11
186.587769
 21
-67.570389
  0
LINE
  8
0
 10
186.587769
 20
-75.190384
 11
186.587738
 21
-20.530380
  0
LINE
  8
0
 10
175.187775
 20
-75.190392
 11
175.187744
 21
-20.530388
  0
LINE
  8
0
 10
184.637772
 20
-72.870377
 11
184.637772
 21
-68.570389
  0
LINE
  8
0
 10
177.737762
 20
-72.870384
 11
177.737762
 21
-68.570396
  0
LINE
  8
0
 10
183.787766
 20
-73.870392
 11
183.787766
 21
-72.870377
  0
LINE
  8
0
 10
178.587769
 20
-73.870399
 11
178.587769
 21
-72.870384
  0
LINE
  8
0
 10
177.737762
 20
-72.870384
 11
178.587769
 21
-72.870384
  0
LINE
  8
0
 10
177.737762
 20
-68.570396
 11
178.587769
 21
-68.570396
  0
LINE
  8
0
 10
183.787766
 20
-68.570389
 11
183.787766
 21
-67.570389
  0
LINE
  8
0
 10
178.587769
 20
-68.570396
 11
178.587769
 21
-67.570396
  0
LINE
  8
0
 10
183.787766
 20
-72.870377
 11
184.637772
 21
-72.870377
  0
LINE
  8
0
 10
183.787766
 20
-68.570389
 11
184.637772
 21
-68.570389
  0
LINE
  8
0
 10
175.187759
 20
-66.250389
 11
186.587769
 21
-66.250381
  0
LINE
  8
0
 10
175.187744
 20
-59.950386
 11
186.587753
 21
-59.950378
  0
LINE
  8
0
 10
184.637756
 20
-65.250381
 11
184.637756
 21
-60.950394
  0
LINE
  8
0
 10
177.737762
 20
-65.250389
 11
177.737747
 21
-60.950401
  0
LINE
  8
0
 10
183.787766
 20
-66.250381
 11
183.787750
 21
-65.250381
  0
LINE
  8
0
 10
178.587769
 20
-66.250389
 11
178.587769
 21
-65.250389
  0
LINE
  8
0
 10
177.737762
 20
-65.250389
 11
178.587769
 21
-65.250389
  0
LINE
  8
0
 10
177.737747
 20
-60.950401
 11
178.587753
 21
-60.950401
  0
LINE
  8
0
 10
183.787750
 20
-60.950394
 11
183.787750
 21
-59.950378
  0
LINE
  8
0
 10
178.587753
 20
-60.950401
 11
178.587753
 21
-59.950386
  0
LINE
  8
0
 10
183.787750
 20
-65.250381
 11
184.637756
 21
-65.250381
  0
LINE
  8
0
 10
183.787750
 20
-60.950394
 11
184.637756
 21
-60.950394
  0
LINE
  8
0
 10
175.187744
 20
-58.630394
 11
186.587753
 21
-58.630386
  0
LINE
  8
0
 10
175.187744
 20
-52.330391
 11
186.587753
 21
-52.330383
  0
LINE
  8
0
 10
184.637756
 20
-57.630386
 11
184.637756
 21
-53.330399
  0
LINE
  8
0
 10
177.737747
 20
-57.630394
 11
177.737747
 21
-53.330406
  0
LINE
  8
0
 10
183.787750
 20
-58.630386
 11
183.787750
 21
-57.630386
  0
LINE
  8
0
 10
178.587753
 20
-58.630394
 11
178.587753
 21
-57.630394
  0
LINE
  8
0
 10
177.737747
 20
-57.630394
 11
178.587753
 21
-57.630394
  0
LINE
  8
0
 10
177.737747
 20
-53.330406
 11
178.587753
 21
-53.330406
  0
LINE
  8
0
 10
183.787750
 20
-53.330399
 11
183.787750
 21
-52.330383
  0
LINE
  8
0
 10
178.587753
 20
-53.330406
 11
178.587753
 21
-52.330391
  0
LINE
  8
0
 10
183.787750
 20
-57.630386
 11
184.637756
 21
-57.630386
  0
LINE
  8
0
 10
183.787750
 20
-53.330399
 11
184.637756
 21
-53.330399
  0
LINE
  8
0
 10
175.187759
 20
-51.010399
 11
186.587753
 21
-51.010391
  0
LINE
  8
0
 10
175.187759
 20
-44.710396
 11
186.587753
 21
-44.710388
  0
LINE
  8
0
 10
184.637756
 20
-50.010376
 11
184.637756
 21
-45.710392
  0
LINE
  8
0
 10
177.737747
 20
-50.010384
 11
177.737747
 21
-45.710392
  0
LINE
  8
0
 10
183.787750
 20
-51.010391
 11
183.787750
 21
-50.010376
  0
LINE
  8
0
 10
178.587753
 20
-51.010399
 11
178.587753
 21
-50.010384
  0
LINE
  8
0
 10
177.737747
 20
-50.010384
 11
178.587753
 21
-50.010384
  0
LINE
  8
0
 10
177.737747
 20
-45.710392
 11
178.587753
 21
-45.710392
  0
LINE
  8
0
 10
183.787750
 20
-45.710392
 11
183.787750
 21
-44.710392
  0
LINE
  8
0
 10
178.587753
 20
-45.710392
 11
178.587753
 21
-44.710392
  0
LINE
  8
0
 10
183.787750
 20
-50.010376
 11
184.637756
 21
-50.010376
  0
LINE
  8
0
 10
183.787750
 20
-45.710392
 11
184.637756
 21
-45.710392
  0
LINE
  8
0
 10
175.187759
 20
-43.390404
 11
186.587753
 21
-43.390396
  0
LINE
  8
0
 10
175.187759
 20
-37.090385
 11
186.587753
 21
-37.090378
  0
LINE
  8
0
 10
184.637756
 20
-42.390385
 11
184.637756
 21
-38.090397
  0
LINE
  8
0
 10
177.737747
 20
-42.390385
 11
177.737747
 21
-38.090397
  0
LINE
  8
0
 10
183.787750
 20
-43.390400
 11
183.787750
 21
-42.390385
  0
LINE
  8
0
 10
178.587753
 20
-43.390400
 11
178.587753
 21
-42.390385
  0
LINE
  8
0
 10
177.737747
 20
-42.390385
 11
178.587753
 21
-42.390385
  0
LINE
  8
0
 10
177.737747
 20
-38.090397
 11
178.587753
 21
-38.090397
  0
LINE
  8
0
 10
183.787750
 20
-38.090397
 11
183.787750
 21
-37.090382
  0
LINE
  8
0
 10
178.587753
 20
-38.090397
 11
178.587753
 21
-37.090382
  0
LINE
  8
0
 10
183.787750
 20
-42.390385
 11
184.637756
 21
-42.390385
  0
LINE
  8
0
 10
183.787750
 20
-38.090397
 11
184.637756
 21
-38.090397
  0
LINE
  8
0
 10
175.187759
 20
-35.770393
 11
186.587738
 21
-35.770386
  0
LINE
  8
0
 10
184.637756
 20
-34.770390
 11
184.637741
 21
-30.470402
  0
LINE
  8
0
 10
177.737732
 20
-34.770390
 11
177.737732
 21
-30.470402
  0
LINE
  8
0
 10
183.787750
 20
-35.770390
 11
183.787750
 21
-34.770390
  0
LINE
  8
0
 10
178.587753
 20
-35.770390
 11
178.587738
 21
-34.770390
  0
LINE
  8
0
 10
177.737732
 20
-34.770390
 11
178.587738
 21
-34.770390
  0
LINE
  8
0
 10
177.737732
 20
-30.470402
 11
178.587738
 21
-30.470402
  0
LINE
  8
0
 10
183.787735
 20
-30.470402
 11
183.787735
 21
-29.470387
  0
LINE
  8
0
 10
178.587738
 20
-30.470402
 11
178.587738
 21
-29.470387
  0
LINE
  8
0
 10
183.787750
 20
-34.770390
 11
184.637756
 21
-34.770390
  0
LINE
  8
0
 10
183.787735
 20
-30.470402
 11
184.637741
 21
-30.470402
  0
LINE
  8
0
 10
175.187744
 20
-29.470390
 11
186.587738
 21
-29.470383
  0
LINE
  8
0
 10
175.187744
 20
-28.150398
 11
186.587738
 21
-28.150391
  0
LINE
  8
0
 10
175.187744
 20
-21.850395
 11
186.587738
 21
-21.850388
  0
LINE
  8
0
 10
184.637741
 20
-27.150379
 11
184.637741
 21
-22.850391
  0
LINE
  8
0
 10
177.737732
 20
-27.150379
 11
177.737732
 21
-22.850391
  0
LINE
  8
0
 10
183.787735
 20
-28.150394
 11
183.787735
 21
-27.150379
  0
LINE
  8
0
 10
178.587738
 20
-28.150394
 11
178.587738
 21
-27.150379
  0
LINE
  8
0
 10
177.737732
 20
-27.150379
 11
178.587738
 21
-27.150379
  0
LINE
  8
0
 10
177.737732
 20
-22.850391
 11
178.587738
 21
-22.850391
  0
LINE
  8
0
 10
183.787735
 20
-22.850391
 11
183.787735
 21
-21.850391
  0
LINE
  8
0
 10
178.587738
 20
-22.850391
 11
178.587738
 21
-21.850391
  0
LINE
  8
0
 10
183.787735
 20
-27.150379
 11
184.637741
 21
-27.150379
  0
LINE
  8
0
 10
183.787735
 20
-22.850391
 11
184.637741
 21
-22.850391
  0
LINE
  8
0
 10
175.187744
 20
-20.530388
 11
186.587738
 21
-20.530380
  0
LINE
  8
0
 10
179.773544
 20
-72.134621
 11
182.601974
 21
-69.306190
  0
LINE
  8
0
 10
179.773560
 20
-69.306152
 11
182.601974
 21
-72.134575
  0
LINE
  8
0
 10
179.523529
 20
-11.946152
 11
182.351959
 21
-14.774567
  0
LINE
  8
0
 10
179.523514
 20
-14.774612
 11
182.351944
 21
-11.946175
  0
LINE
  8
0
 10
179.773544
 20
-31.206161
 11
182.601974
 21
-34.034588
  0
LINE
  8
0
 10
179.773544
 20
-34.034626
 11
182.601974
 21
-31.206203
  0
LINE
  8
0
 10
179.773560
 20
-38.826157
 11
182.601990
 21
-41.654583
  0
LINE
  8
0
 10
179.773544
 20
-41.654613
 11
182.601974
 21
-38.826187
  0
LINE
  8
0
 10
179.773544
 20
-46.446144
 11
182.601974
 21
-49.274570
  0
LINE
  8
0
 10
179.773499
 20
-49.274616
 11
182.601929
 21
-46.446190
  0
LINE
  8
0
 10
179.773560
 20
-54.066154
 11
182.601990
 21
-56.894585
  0
LINE
  8
0
 10
179.773529
 20
-56.894611
 11
182.601959
 21
-54.066185
  0
LINE
  8
0
 10
179.773544
 20
-61.686150
 11
182.601990
 21
-64.514587
  0
LINE
  8
0
 10
179.773529
 20
-64.514618
 11
182.601959
 21
-61.686188
  0
LINE
  8
0
 10
179.773529
 20
-23.586166
 11
182.601959
 21
-26.414593
  0
LINE
  8
0
 10
179.773529
 20
-26.414600
 11
182.601959
 21
-23.586174
  0
CIRCLE
  8
0
 10
181.187744
 20
-32.620396
 40
2.799999
  0
CIRCLE
  8
0
 10
181.187744
 20
-25.000385
 40
2.799999
  0
CIRCLE
  8
0
 10
180.937729
 20
-13.360382
 40
2.250000
  0
CIRCLE
  8
0
 10
181.187759
 20
-70.720383
 40
2.799999
  0
CIRCLE
  8
0
 10
181.187744
 20
-63.100391
 40
2.799999
  0
CIRCLE
  8
0
 10
181.187744
 20
-55.480396
 40
2.799999
  0
CIRCLE
  8
0
 10
181.187744
 20
-47.860386
 40
2.799999
  0
CIRCLE
  8
0
 10
181.187759
 20
-40.240391
 40
2.799999
  0
POINT
  8
0
 10
173.437775
 20
-134.860397
  0
POINT
  8
0
 10
188.437759
 20
-134.860397
  0
LINE
  8
0
 10
173.737778
 20
-125.860390
 11
173.437775
 21
-125.860390
  0
LINE
  8
0
 10
188.437744
 20
-155.860413
 11
173.437744
 21
-155.860382
  0
LINE
  8
0
 10
188.437775
 20
-123.860405
 11
173.437775
 21
-123.860390
  0
LINE
  8
0
 10
187.437775
 20
-126.860405
 11
183.937775
 21
-126.860397
  0
LINE
  8
0
 10
187.437759
 20
-127.860405
 11
183.937759
 21
-127.860397
  0
LINE
  8
0
 10
183.937775
 20
-126.860382
 11
183.937759
 21
-127.860382
  0
LINE
  8
0
 10
177.937775
 20
-126.860382
 11
177.937759
 21
-127.860382
  0
LINE
  8
0
 10
187.437775
 20
-126.860390
 11
187.437759
 21
-127.860390
  0
LINE
  8
0
 10
174.437775
 20
-126.860374
 11
174.437759
 21
-127.860374
  0
LINE
  8
0
 10
177.937759
 20
-127.860397
 11
174.437759
 21
-127.860390
  0
LINE
  8
0
 10
188.437759
 20
-134.860413
 11
173.437759
 21
-134.860382
  0
LINE
  8
0
 10
188.437759
 20
-132.860413
 11
173.437759
 21
-132.860382
  0
LINE
  8
0
 10
177.937775
 20
-126.860397
 11
174.437775
 21
-126.860390
  0
LINE
  8
0
 10
173.737762
 20
-132.860382
 11
173.737762
 21
-134.860382
  0
LINE
  8
0
 10
188.137756
 20
-132.860382
 11
188.137756
 21
-134.860382
  0
LINE
  8
0
 10
173.737762
 20
-129.360382
 11
173.737762
 21
-131.360382
  0
LINE
  8
0
 10
188.137756
 20
-129.360382
 11
188.137756
 21
-131.360382
  0
LINE
  8
0
 10
188.437759
 20
-129.360413
 11
173.437759
 21
-129.360382
  0
LINE
  8
0
 10
188.437759
 20
-131.360413
 11
173.437759
 21
-131.360382
  0
LINE
  8
0
 10
188.437775
 20
-117.860405
 11
188.437775
 21
-125.860390
  0
LINE
  8
0
 10
188.437759
 20
-127.860390
 11
188.437759
 21
-129.360382
  0
LINE
  8
0
 10
188.437759
 20
-131.360382
 11
188.437759
 21
-132.860382
  0
LINE
  8
0
 10
188.437759
 20
-134.860397
 11
188.437744
 21
-155.860382
  0
LINE
  8
0
 10
188.437759
 20
-127.860405
 11
188.137756
 21
-127.860405
  0
LINE
  8
0
 10
188.437775
 20
-125.860405
 11
188.137772
 21
-125.860405
  0
LINE
  8
0
 10
188.137772
 20
-125.860390
 11
188.137756
 21
-127.860390
  0
LINE
  8
0
 10
173.737762
 20
-127.860390
 11
173.437759
 21
-127.860390
  0
LINE
  8
0
 10
173.737778
 20
-125.860374
 11
173.737762
 21
-127.860374
  0
LINE
  8
0
 10
180.937790
 20
-104.521339
 11
180.937729
 21
-158.695190
  0
LINE
  8
0
 10
188.437775
 20
-117.860405
 11
173.437775
 21
-117.860390
  0
LINE
  8
0
 10
186.637787
 20
-107.860405
 11
186.637772
 21
-117.860405
  0
LINE
  8
0
 10
175.237793
 20
-107.860390
 11
175.237778
 21
-117.860390
  0
LINE
  8
0
 10
186.637787
 20
-107.860405
 11
175.237793
 21
-107.860390
  0
LINE
  8
0
 10
187.637787
 20
-106.860405
 11
174.237793
 21
-106.860390
  0
LINE
  8
0
 10
187.637787
 20
-108.860405
 11
186.637787
 21
-108.860405
  0
LINE
  8
0
 10
174.237793
 20
-106.860390
 11
174.237793
 21
-108.860390
  0
LINE
  8
0
 10
187.637787
 20
-106.860405
 11
187.637787
 21
-108.860405
  0
LINE
  8
0
 10
175.237793
 20
-108.860390
 11
174.237793
 21
-108.860390
  0
LINE
  8
0
 10
173.437775
 20
-117.860390
 11
173.437775
 21
-125.860374
  0
LINE
  8
0
 10
173.437759
 20
-127.860374
 11
173.437759
 21
-129.360382
  0
LINE
  8
0
 10
173.437759
 20
-131.360382
 11
173.437759
 21
-132.860382
  0
POINT
  8
0
 10
68.670708
 20
-79.860397
  0
POINT
  8
0
 10
89.670731
 20
-79.860397
  0
LINE
  8
0
 10
81.170639
 20
-9.860374
 11
81.170700
 21
-64.860374
  0
LINE
  8
0
 10
79.170639
 20
-9.860382
 11
79.170700
 21
-64.860382
  0
LINE
  8
0
 10
70.670639
 20
-9.860390
 11
70.670715
 21
-79.860405
  0
LINE
  8
0
 10
72.170639
 20
-9.860382
 11
72.170715
 21
-79.860397
  0
LINE
  8
0
 10
74.170639
 20
-9.860382
 11
74.170715
 21
-79.860397
  0
LINE
  8
0
 10
75.670639
 20
-9.860382
 11
75.670715
 21
-79.860397
  0
LINE
  8
0
 10
77.670639
 20
-9.860382
 11
77.670715
 21
-79.860382
  0
LINE
  8
0
 10
85.670639
 20
-9.860390
 11
81.170624
 21
-9.860390
  0
LINE
  8
0
 10
83.670639
 20
-9.860374
 11
83.670700
 21
-64.860374
  0
LINE
  8
0
 10
83.670700
 20
-64.860390
 11
79.170700
 21
-64.860397
  0
LINE
  8
0
 10
79.670700
 20
-64.860374
 11
79.670715
 21
-79.860374
  0
LINE
  8
0
 10
85.670715
 20
-79.860390
 11
74.170731
 21
-79.860397
  0
LINE
  8
0
 10
70.670731
 20
-79.560402
 11
68.670731
 21
-79.560402
  0
LINE
  8
0
 10
74.170731
 20
-79.560394
 11
72.170731
 21
-79.560394
  0
LINE
  8
0
 10
72.170731
 20
-79.860397
 11
70.670731
 21
-79.860405
  0
LINE
  8
0
 10
81.170624
 20
-10.160393
 11
79.170624
 21
-10.160400
  0
LINE
  8
0
 10
77.670624
 20
-10.160400
 11
75.670624
 21
-10.160400
  0
LINE
  8
0
 10
74.170624
 20
-10.160400
 11
72.170624
 21
-10.160408
  0
LINE
  8
0
 10
70.670624
 20
-10.160408
 11
68.670624
 21
-10.160408
  0
LINE
  8
0
 10
79.170624
 20
-9.860397
 11
77.670624
 21
-9.860397
  0
LINE
  8
0
 10
75.670624
 20
-9.860397
 11
74.170624
 21
-9.860397
  0
LINE
  8
0
 10
72.170624
 20
-9.860405
 11
70.670624
 21
-9.860405
  0
LINE
  8
0
 10
85.670639
 20
-9.860390
 11
85.670715
 21
-79.860390
  0
LINE
  8
0
 10
89.170708
 20
-72.860382
 11
85.670708
 21
-72.860390
  0
LINE
  8
0
 10
89.170654
 20
-21.860367
 11
89.170708
 21
-72.860367
  0
LINE
  8
0
 10
89.170639
 20
-21.860382
 11
85.670639
 21
-21.860386
  0
LINE
  8
0
 10
87.670654
 20
-21.860371
 11
87.670708
 21
-72.860367
  0
LINE
  8
0
 10
85.670654
 20
-20.030369
 11
85.670708
 21
-74.690376
  0
LINE
  8
0
 10
96.770630
 20
-20.030373
 11
85.670639
 21
-20.030384
  0
LINE
  8
0
 10
90.570633
 20
-20.030365
 11
90.570694
 21
-74.690369
  0
LINE
  8
0
 10
95.770630
 20
-20.030357
 11
95.770638
 21
-21.350365
  0
LINE
  8
0
 10
95.770630
 20
-21.350380
 11
90.570641
 21
-21.350388
  0
LINE
  8
0
 10
95.770691
 20
-65.750374
 11
90.570702
 21
-65.750381
  0
LINE
  8
0
 10
95.770691
 20
-67.070366
 11
90.570702
 21
-67.070374
  0
LINE
  8
0
 10
95.770683
 20
-65.750359
 11
95.770683
 21
-67.070366
  0
LINE
  8
0
 10
95.770645
 20
-27.650368
 11
90.570648
 21
-27.650375
  0
LINE
  8
0
 10
95.770645
 20
-28.970375
 11
90.570648
 21
-28.970383
  0
LINE
  8
0
 10
95.770645
 20
-27.650352
 11
95.770645
 21
-28.970360
  0
LINE
  8
0
 10
95.770653
 20
-35.270378
 11
90.570656
 21
-35.270386
  0
LINE
  8
0
 10
95.770653
 20
-36.590370
 11
90.570656
 21
-36.590378
  0
LINE
  8
0
 10
95.770653
 20
-35.270363
 11
95.770653
 21
-36.590355
  0
LINE
  8
0
 10
95.770660
 20
-42.890373
 11
90.570663
 21
-42.890381
  0
LINE
  8
0
 10
95.770660
 20
-44.210381
 11
90.570663
 21
-44.210388
  0
LINE
  8
0
 10
95.770660
 20
-42.890358
 11
95.770660
 21
-44.210365
  0
LINE
  8
0
 10
95.770668
 20
-50.510368
 11
90.570671
 21
-50.510376
  0
LINE
  8
0
 10
95.770676
 20
-51.830376
 11
90.570686
 21
-51.830383
  0
LINE
  8
0
 10
95.770668
 20
-50.510368
 11
95.770668
 21
-51.830360
  0
LINE
  8
0
 10
95.770683
 20
-58.130379
 11
90.570694
 21
-58.130386
  0
LINE
  8
0
 10
95.770683
 20
-59.450371
 11
90.570694
 21
-59.450378
  0
LINE
  8
0
 10
95.770676
 20
-58.130363
 11
95.770676
 21
-59.450356
  0
LINE
  8
0
 10
96.770699
 20
-74.690376
 11
85.670708
 21
-74.690392
  0
LINE
  8
0
 10
95.770699
 20
-73.370369
 11
90.570709
 21
-73.370377
  0
LINE
  8
0
 10
95.770691
 20
-73.370354
 11
95.770691
 21
-74.690361
  0
LINE
  8
0
 10
91.370689
 20
-67.270370
 11
91.370697
 21
-73.170364
  0
LINE
  8
0
 10
91.370705
 20
-67.270386
 11
90.570702
 21
-67.270386
  0
LINE
  8
0
 10
91.370712
 20
-73.170380
 11
90.570709
 21
-73.170380
  0
LINE
  8
0
 10
91.870697
 20
-73.020370
 11
91.870689
 21
-67.420364
  0
LINE
  8
0
 10
91.870712
 20
-72.720383
 11
91.370712
 21
-72.720383
  0
LINE
  8
0
 10
91.870705
 20
-67.720383
 11
91.370705
 21
-67.720383
  0
LINE
  8
0
 10
93.042526
 20
-73.020386
 11
91.870712
 21
-73.020386
  0
LINE
  8
0
 10
93.042519
 20
-67.420380
 11
91.870705
 21
-67.420380
  0
LINE
  8
0
 10
91.370644
 20
-21.550369
 11
91.370651
 21
-27.450363
  0
LINE
  8
0
 10
91.370651
 20
-27.450378
 11
90.570648
 21
-27.450378
  0
LINE
  8
0
 10
91.870651
 20
-27.300365
 11
91.870644
 21
-21.700359
  0
LINE
  8
0
 10
91.870651
 20
-27.000378
 11
91.370651
 21
-27.000381
  0
LINE
  8
0
 10
91.870644
 20
-22.000378
 11
91.370644
 21
-22.000381
  0
LINE
  8
0
 10
93.042480
 20
-27.300381
 11
91.870651
 21
-27.300381
  0
LINE
  8
0
 10
93.042458
 20
-21.700375
 11
91.870644
 21
-21.700375
  0
LINE
  8
0
 10
91.370644
 20
-21.550385
 11
90.570641
 21
-21.550385
  0
LINE
  8
0
 10
91.370651
 20
-29.170364
 11
91.370651
 21
-35.070358
  0
LINE
  8
0
 10
91.370651
 20
-35.070374
 11
90.570648
 21
-35.070374
  0
LINE
  8
0
 10
91.870651
 20
-34.920361
 11
91.870651
 21
-29.320354
  0
LINE
  8
0
 10
91.870651
 20
-34.620373
 11
91.370651
 21
-34.620377
  0
LINE
  8
0
 10
91.870651
 20
-29.620373
 11
91.370651
 21
-29.620377
  0
LINE
  8
0
 10
93.042480
 20
-34.920376
 11
91.870651
 21
-34.920376
  0
LINE
  8
0
 10
93.042480
 20
-29.320370
 11
91.870651
 21
-29.320370
  0
LINE
  8
0
 10
91.370651
 20
-29.170380
 11
90.570648
 21
-29.170380
  0
LINE
  8
0
 10
91.370659
 20
-36.790375
 11
91.370667
 21
-42.690369
  0
LINE
  8
0
 10
91.370667
 20
-42.690384
 11
90.570663
 21
-42.690384
  0
LINE
  8
0
 10
91.870667
 20
-42.540371
 11
91.870659
 21
-36.940365
  0
LINE
  8
0
 10
91.870667
 20
-42.240383
 11
91.370667
 21
-42.240387
  0
LINE
  8
0
 10
91.870659
 20
-37.240383
 11
91.370659
 21
-37.240387
  0
LINE
  8
0
 10
93.042496
 20
-42.540386
 11
91.870667
 21
-42.540386
  0
LINE
  8
0
 10
93.042488
 20
-36.940380
 11
91.870659
 21
-36.940380
  0
LINE
  8
0
 10
91.370659
 20
-36.790390
 11
90.570656
 21
-36.790390
  0
LINE
  8
0
 10
91.370667
 20
-44.410370
 11
91.370674
 21
-50.310364
  0
LINE
  8
0
 10
91.370674
 20
-50.310379
 11
90.570671
 21
-50.310379
  0
LINE
  8
0
 10
91.870674
 20
-50.160370
 11
91.870667
 21
-44.560360
  0
LINE
  8
0
 10
91.870674
 20
-49.860382
 11
91.370674
 21
-49.860382
  0
LINE
  8
0
 10
91.870667
 20
-44.860378
 11
91.370667
 21
-44.860382
  0
LINE
  8
0
 10
93.042503
 20
-50.160381
 11
91.870674
 21
-50.160385
  0
LINE
  8
0
 10
93.042496
 20
-44.560375
 11
91.870667
 21
-44.560375
  0
LINE
  8
0
 10
91.370667
 20
-44.410385
 11
90.570663
 21
-44.410385
  0
LINE
  8
0
 10
91.370674
 20
-52.030365
 11
91.370682
 21
-57.930359
  0
LINE
  8
0
 10
91.370682
 20
-57.930374
 11
90.570694
 21
-57.930374
  0
LINE
  8
0
 10
91.870682
 20
-57.780365
 11
91.870674
 21
-52.180359
  0
LINE
  8
0
 10
91.870682
 20
-57.480377
 11
91.370682
 21
-57.480377
  0
LINE
  8
0
 10
91.870674
 20
-52.480377
 11
91.370674
 21
-52.480377
  0
LINE
  8
0
 10
93.042511
 20
-57.780376
 11
91.870682
 21
-57.780380
  0
LINE
  8
0
 10
93.042503
 20
-52.180370
 11
91.870674
 21
-52.180374
  0
LINE
  8
0
 10
91.370674
 20
-52.030380
 11
90.570686
 21
-52.030380
  0
LINE
  8
0
 10
91.370682
 20
-59.650375
 11
91.370689
 21
-65.550369
  0
LINE
  8
0
 10
91.370705
 20
-65.550369
 11
90.570702
 21
-65.550369
  0
LINE
  8
0
 10
91.870689
 20
-65.400375
 11
91.870682
 21
-59.800369
  0
LINE
  8
0
 10
91.870705
 20
-65.100372
 11
91.370705
 21
-65.100372
  0
LINE
  8
0
 10
91.870682
 20
-60.100372
 11
91.370682
 21
-60.100372
  0
LINE
  8
0
 10
93.042519
 20
-65.400375
 11
91.870705
 21
-65.400375
  0
LINE
  8
0
 10
93.042511
 20
-59.800365
 11
91.870682
 21
-59.800369
  0
LINE
  8
0
 10
91.370682
 20
-59.650375
 11
90.570694
 21
-59.650375
  0
LINE
  8
0
 10
96.770630
 20
-20.030357
 11
96.770691
 21
-74.690361
  0
LINE
  8
0
 10
94.770630
 20
-20.030361
 11
94.770691
 21
-74.690361
  0
ARC
  8
0
 10
93.042519
 20
-64.733704
 40
0.666664
 50
270.000000
 51
330.508057
  0
ARC
  8
0
 10
89.270691
 20
-54.980362
 40
5.000002
 50
330.507721
 51
29.492401
  0
ARC
  8
0
 10
89.270706
 20
-62.600372
 40
5.000002
 50
330.507721
 51
29.492445
  0
ARC
  8
0
 10
93.042511
 20
-57.113689
 40
0.666668
 50
270.000000
 51
330.507446
  0
ARC
  8
0
 10
93.042511
 20
-60.467037
 40
0.666670
 50
29.492231
 51
90.000000
  0
ARC
  8
0
 10
93.042503
 20
-52.847027
 40
0.666670
 50
29.492231
 51
90.000000
  0
ARC
  8
0
 10
89.270706
 20
-70.220367
 40
5.000002
 50
330.507721
 51
29.492359
  0
ARC
  8
0
 10
93.042526
 20
-72.353699
 40
0.666664
 50
270.000000
 51
330.507721
  0
ARC
  8
0
 10
93.042519
 20
-68.087036
 40
0.666671
 50
29.492517
 51
90.000000
  0
ARC
  8
0
 10
89.270645
 20
-24.500366
 40
5.000002
 50
330.507721
 51
29.492401
  0
ARC
  8
0
 10
93.042480
 20
-26.633694
 40
0.666668
 50
270.000000
 51
330.507446
  0
ARC
  8
0
 10
93.042458
 20
-22.367031
 40
0.666663
 50
29.492556
 51
90.000000
  0
ARC
  8
0
 10
89.270653
 20
-32.120377
 40
5.000002
 50
330.507721
 51
29.492401
  0
ARC
  8
0
 10
93.042480
 20
-34.253704
 40
0.666668
 50
270.000000
 51
330.507782
  0
ARC
  8
0
 10
93.042480
 20
-29.987041
 40
0.666663
 50
29.492556
 51
90.000000
  0
ARC
  8
0
 10
89.270660
 20
-39.740372
 40
5.000002
 50
330.507721
 51
29.492401
  0
ARC
  8
0
 10
93.042496
 20
-41.873699
 40
0.666668
 50
270.000000
 51
330.507446
  0
ARC
  8
0
 10
93.042488
 20
-37.607037
 40
0.666670
 50
29.492231
 51
90.000000
  0
ARC
  8
0
 10
89.270668
 20
-47.360367
 40
5.000002
 50
330.507721
 51
29.492401
  0
ARC
  8
0
 10
93.042503
 20
-49.493694
 40
0.666668
 50
270.000000
 51
330.507446
  0
ARC
  8
0
 10
93.042496
 20
-45.227032
 40
0.666663
 50
29.492556
 51
90.000000
  0
ENDSEC
  0
EOF
