  0
SECTION
  2
HEADER
  0
ENDSEC
  0
SECTION
  2
TABLES
  0
TABLE
  2
LTYPE
 70
     4
  0
LTYPE
  2
CONTINUOUS
 70
    64
  3
Solid line
 72
    65
 73
     0
 40
0.000000
  0
LTYPE
  2
DASHED
 70
    64
  3
__ __ __ __ __ __ __ __ __ __ __ __ __ __ __
 72
    65
 73
     2
 40
3.500000
 49
2.000000
 49
-1.500000
  0
LTYPE
  2
CENTER
 70
    64
  3
____ _ ____ _ ____ _ ____ _ ____ _ ____ _ ____
 72
    65
 73
     4
 40
17.500000
 49
13.000000
 49
-1.500000
 49
1.500000
 49
-1.500000
  0
LTYPE
  2
PHANTOM
 70
    64
  3
_____ _ _ _____ _ _ _____ _ _ _____ _ _ ____  
 72
    65
 73
     6
 40
15.500000
 49
8.000000
 49
-1.500000
 49
1.500000
 49
-1.500000
 49
1.500000
 49
-1.500000
  0
LTYPE
  2
DASHED1
 70
    64
  3
__ __ __ __ __ __ __ __ __ __ __ __ __ __ __
 72
    65
 73
     2
 40
1.500000
 49
1.000000
 49
-0.500000
  0
LTYPE
  2
DASHED2
 70
    64
  3
__ __ __ __ __ __ __ __ __ __ __ __ __ __ __
 72
    65
 73
     2
 40
3.500000
 49
2.500000
 49
-1.000000
  0
LTYPE
  2
DASHED3
 70
    64
  3
__ __ __ __ __ __ __ __ __ __ __ __ __ __ __
 72
    65
 73
     2
 40
6.000000
 49
4.000000
 49
-2.000000
  0
LTYPE
  2
DASHED4
 70
    64
  3
__ __ __ __ __ __ __ __ __ __ __ __ __ __ __
 72
    65
 73
     2
 40
12.000000
 49
10.000000
 49
-2.000000
  0
LTYPE
  2
DASHED5
 70
    64
  3
__ __ __ __ __ __ __ __ __ __ __ __ __ __ __
 72
    65
 73
     2
 40
17.000000
 49
15.000000
 49
-2.000000
  0
LTYPE
  2
DASHED6
 70
    64
  3
__ __ __ __ __ __ __ __ __ __ __ __ __ __ __
 72
    65
 73
     2
 40
29.000000
 49
27.000000
 49
-2.000000
  0
LTYPE
  2
PHANTOM1
 70
    64
  3
_____ _ _ _____ _ _ _____ _ _ _____ _ _ ____  
 72
    65
 73
     6
 40
31.000000
 49
25.000000
 49
-1.500000
 49
1.000000
 49
-1.000000
 49
1.000000
 49
-1.500000
  0
LTYPE
  2
PHANTOM2
 70
    64
  3
_____ _ _ _____ _ _ _____ _ _ _____ _ _ ____  
 72
    65
 73
     6
 40
36.000000
 49
27.000000
 49
-1.500000
 49
2.500000
 49
-1.000000
 49
2.500000
 49
-1.500000
  0
LTYPE
  2
PHANTOM3
 70
    64
  3
_____ _ _ _____ _ _ _____ _ _ _____ _ _ ____  
 72
    65
 73
     6
 40
78.000000
 49
64.000000
 49
-2.000000
 49
4.000000
 49
-2.000000
 49
4.000000
 49
-2.000000
  0
LTYPE
  2
CENTER1
 70
    64
  3
____ _ ____ _ ____ _ ____ _ ____ _ ____ _ ____
 72
    65
 73
     4
 40
19.000000
 49
14.000000
 49
-1.000000
 49
3.000000
 49
-1.000000
  0
LTYPE
  2
CENTER2
 70
    64
  3
____ _ ____ _ ____ _ ____ _ ____ _ ____ _ ____
 72
    65
 73
     4
 40
28.500000
 49
25.000000
 49
-1.000000
 49
1.500000
 49
-1.000000
  0
LTYPE
  2
CENTER3
 70
    64
  3
____ _ ____ _ ____ _ ____ _ ____ _ ____ _ ____
 72
    65
 73
     4
 40
31.500000
 49
27.000000
 49
-1.000000
 49
2.500000
 49
-1.000000
  0
LTYPE
  2
CENTER4
 70
    64
  3
____ _ ____ _ ____ _ ____ _ ____ _ ____ _ ____
 72
    65
 73
     4
 40
50.000000
 49
45.000000
 49
-1.000000
 49
3.000000
 49
-1.000000
  0
LTYPE
  2
CENTER5
 70
    64
  3
____ _ ____ _ ____ _ ____ _ ____ _ ____ _ ____
 72
    65
 73
     4
 40
100.000000
 49
92.000000
 49
-2.000000
 49
4.000000
 49
-2.000000
  0
LTYPE
  2
SBK1
 70
    64
  3
______ _ _ _ ______ _ _ _ ______ _ _ _ _____  
 72
    65
 73
     8
 40
60.500000
 49
45.000000
 49
-2.000000
 49
2.500000
 49
-2.000000
 49
2.500000
 49
-2.000000
 49
2.500000
 49
-2.000000
  0
LTYPE
  2
SBK2
 70
    64
  3
______ _ _ _ ______ _ _ _ ______ _ _ _ _____  
 72
    65
 73
     8
 40
84.000000
 49
64.000000
 49
-2.000000
 49
4.000000
 49
-2.000000
 49
4.000000
 49
-2.000000
 49
4.000000
 49
-2.000000
  0
LTYPE
  2
STCH
 70
    64
  3
__ __ __ __ __ __ __ __ __ __ __ __ __ __ __
 72
    65
 73
     2
 40
3.000000
 49
1.000000
 49
-2.000000
  0
LTYPE
  2
MTCH
 70
    64
  3
_____ _ _ _____ _ _ _____ _ _ _____ _ _ ____  
 72
    65
 73
     6
 40
80.000000
 49
66.000000
 49
-2.000000
 49
4.000000
 49
-2.000000
 49
4.000000
 49
-2.000000
  0
ENDTAB
  0
TABLE
  2
LAYER
 70
     1
  0
LAYER
  2
0
 70
     0
 62
     7
  6
CONTINUOUS
  0
ENDTAB
  0
TABLE
  2
STYLE
 70
     1
  0
STYLE
  2
STANDARD
 70
     0
 40
0.000000
 41
1.000000
 50
0.000000
 71
     0
 42
0.200000
  3
txt
  4
BIGFONT
  0
ENDTAB
  0
TABLE
  2
VIEW
 70
     0
  0
ENDTAB
  0
ENDSEC
  0
SECTION
  2
BLOCKS
  0
ENDSEC
  0
SECTION
  2
ENTITIES
  0
LINE
  8
0
 10
-297.000000
 20
210.000000
 11
297.000000
 21
210.000000
  0
LINE
  8
0
 10
-297.000000
 20
-210.000000
 11
297.000000
 21
-210.000000
  0
LINE
  8
0
 10
297.000000
 20
210.000000
 11
297.000000
 21
-210.000000
  0
LINE
  8
0
 10
-297.000000
 20
210.000000
 11
-297.000000
 21
-210.000000
  0
LINE
  8
0
 10
-281.250000
 20
195.500000
 11
282.099976
 21
195.500000
  0
LINE
  8
0
 10
-281.250000
 20
195.500000
 11
-281.250000
 21
-195.000000
  0
LINE
  8
0
 10
282.099976
 20
195.500000
 11
282.099976
 21
-195.000000
  0
LINE
  8
0
 10
-281.250000
 20
-195.000000
 11
282.099976
 21
-195.000000
  0
LINE
  8
0
 10
162.099976
 20
-175.000000
 11
162.099976
 21
-195.000000
  0
LINE
  8
0
 10
162.099976
 20
-175.000000
 11
282.099976
 21
-175.000000
  0
LINE
  8
0
 10
162.099976
 20
175.500000
 11
282.099976
 21
175.500000
  0
LINE
  8
0
 10
-281.250000
 20
175.500000
 11
-161.250000
 21
175.500000
  0
LINE
  8
0
 10
162.099976
 20
195.500000
 11
162.099976
 21
175.500000
  0
LINE
  8
0
 10
-161.250000
 20
195.500000
 11
-161.250000
 21
175.500000
  0
LINE
  8
0
 10
-281.250000
 20
0.250000
 11
282.099976
 21
0.250000
  0
LINE
  8
0
 10
0.424988
 20
-195.000000
 11
0.424988
 21
195.500000
  0
LINE
  8
0
 10
-281.250000
 20
-185.000000
 11
162.099976
 21
-185.000000
  0
LINE
  8
0
 10
-281.250000
 20
10.250000
 11
282.099976
 21
10.250000
  0
LINE
  8
0
  6
PHANTOM
 10
-216.157318
 20
158.236130
 11
-216.157318
 21
88.236130
  0
LINE
  8
0
  6
PHANTOM
 10
-195.457336
 20
158.236130
 11
-216.157318
 21
158.236130
  0
LINE
  8
0
  6
PHANTOM
 10
-195.157318
 20
88.236130
 11
-216.157318
 21
88.236130
  0
LINE
  8
0
  6
PHANTOM
 10
-195.157318
 20
158.036133
 11
-195.157318
 21
88.236130
  0
LINE
  8
0
  6
PHANTOM
 10
27.797569
 20
175.069458
 11
27.797569
 21
105.069466
  0
LINE
  8
0
  6
PHANTOM
 10
48.797569
 20
105.069466
 11
27.797569
 21
105.069466
  0
LINE
  8
0
  6
PHANTOM
 10
48.797569
 20
175.069458
 11
48.797569
 21
105.069466
  0
LINE
  8
0
  6
PHANTOM
 10
-209.794708
 20
-11.105972
 11
-209.794708
 21
-81.105972
  0
LINE
  8
0
  6
PHANTOM
 10
-188.794708
 20
-81.105972
 11
-209.794708
 21
-81.105972
  0
LINE
  8
0
  6
PHANTOM
 10
-189.094727
 20
-11.105972
 11
-209.794708
 21
-11.105972
  0
LINE
  8
0
  6
PHANTOM
 10
-188.794708
 20
-11.405960
 11
-188.794708
 21
-81.105972
  0
LINE
  8
0
  6
PHANTOM
 10
55.084869
 20
-11.105972
 11
55.084869
 21
-81.105972
  0
LINE
  8
0
  6
PHANTOM
 10
76.084869
 20
-81.105972
 11
55.084869
 21
-81.105972
  0
LINE
  8
0
  6
PHANTOM
 10
76.084869
 20
-11.105972
 11
55.084869
 21
-11.105972
  0
LINE
  8
0
  6
PHANTOM
 10
76.084869
 20
-11.105972
 11
76.084869
 21
-81.105972
  0
LINE
  8
0
  6
PHANTOM
 10
48.797569
 20
175.069458
 11
27.797569
 21
175.069458
  0
TEXT
  8
0
 10
174.200241
 20
180.830002
 40
6.300000
  1
DATE: SEP ,1992
 50
0.000000
 41
1.052632
 51
0.000000
  7
STANDARD
  0
TEXT
  8
0
 10
167.564667
 20
-192.100006
 40
9.000000
  1
KOGANEI CORP.
 50
0.000000
 41
1.052632
 51
0.000000
  7
STANDARD
  0
TEXT
  8
0
 10
-240.285309
 20
178.399994
 40
9.000000
  1
X80M
 50
0.000000
 41
1.052632
 51
0.000000
  7
STANDARD
  0
TEXT
  8
0
 10
-194.612228
 20
-194.669998
 40
6.300000
  1
MODEL : FMPR-FR01
 50
0.000000
 41
1.052632
 51
0.000000
  7
STANDARD
  0
TEXT
  8
0
 10
23.912760
 20
-194.669998
 40
6.300000
  1
MODEL : FMPR-PR01S
 50
0.000000
 41
1.052632
 51
0.000000
  7
STANDARD
  0
TEXT
  8
0
 10
-194.612228
 20
0.579999
 40
6.300000
  1
MODEL : FMPR-FJ8S
 50
0.000000
 41
1.052632
 51
0.000000
  7
STANDARD
  0
TEXT
  8
0
 10
87.062767
 20
0.579999
 40
6.300000
  1
MODEL : FMPR-FJ8L
 50
0.000000
 41
1.052631
 51
0.000000
  7
STANDARD
  0
POINT
  8
0
 10
-90.390259
 20
88.236122
  0
POINT
  8
0
 10
-75.390244
 20
88.236122
  0
LINE
  8
0
 10
-76.490250
 20
83.736122
 11
-89.290253
 21
83.736122
  0
LINE
  8
0
 10
-76.490250
 20
81.536125
 11
-89.290253
 21
81.536125
  0
LINE
  8
0
 10
-76.090256
 20
78.336121
 11
-89.690262
 21
78.336121
  0
LINE
  8
0
 10
-75.890259
 20
80.336121
 11
-89.890259
 21
80.336121
  0
LINE
  8
0
 10
-75.890244
 20
93.236107
 11
-75.890244
 21
84.696098
  0
LINE
  8
0
 10
-89.890244
 20
93.236122
 11
-89.890244
 21
84.696114
  0
LINE
  8
0
 10
-75.890244
 20
80.336113
 11
-75.890244
 21
78.536118
  0
LINE
  8
0
 10
-89.890244
 20
80.336121
 11
-89.890244
 21
78.536125
  0
LINE
  8
0
 10
-76.490250
 20
83.736107
 11
-76.490250
 21
81.536110
  0
LINE
  8
0
 10
-89.290253
 20
83.736122
 11
-89.290253
 21
81.536125
  0
LINE
  8
0
 10
-75.890228
 20
84.696091
 11
-76.490219
 21
83.736099
  0
LINE
  8
0
 10
-89.290260
 20
83.736122
 11
-89.890259
 21
84.696114
  0
LINE
  8
0
 10
-77.890244
 20
81.536110
 11
-77.890244
 21
80.336113
  0
LINE
  8
0
 10
-87.890244
 20
81.536125
 11
-87.890244
 21
80.336121
  0
LINE
  8
0
 10
-89.890259
 20
84.696114
 11
-75.890259
 21
84.696114
  0
LINE
  8
0
 10
-82.890244
 20
159.736115
 11
-82.890244
 21
77.036118
  0
LINE
  8
0
 10
-75.890244
 20
93.236107
 11
-89.890244
 21
93.236107
  0
LINE
  8
0
 10
-76.890244
 20
112.236122
 11
-88.890244
 21
112.236122
  0
LINE
  8
0
 10
-76.890244
 20
117.236122
 11
-88.890244
 21
117.236122
  0
LINE
  8
0
 10
-76.890244
 20
127.236122
 11
-88.890244
 21
127.236122
  0
LINE
  8
0
 10
-76.890244
 20
137.236115
 11
-88.890244
 21
137.236115
  0
LINE
  8
0
 10
-76.890244
 20
147.236115
 11
-88.890244
 21
147.236115
  0
LINE
  8
0
 10
-76.890244
 20
151.236115
 11
-88.890244
 21
151.236115
  0
LINE
  8
0
 10
-82.890244
 20
159.736115
 11
-82.890244
 21
86.736122
  0
LINE
  8
0
 10
-76.890244
 20
116.236122
 11
-88.890244
 21
116.236122
  0
LINE
  8
0
 10
-76.890244
 20
121.236122
 11
-88.890244
 21
121.236122
  0
LINE
  8
0
 10
-76.890244
 20
122.236122
 11
-88.890244
 21
122.236122
  0
LINE
  8
0
 10
-76.890244
 20
151.236115
 11
-76.890244
 21
147.236115
  0
LINE
  8
0
 10
-88.890244
 20
151.236115
 11
-88.890244
 21
147.236115
  0
LINE
  8
0
 10
-76.890244
 20
126.236122
 11
-88.890244
 21
126.236122
  0
LINE
  8
0
 10
-79.488312
 20
132.236115
 11
-86.292160
 21
132.236115
  0
LINE
  8
0
 10
-79.848282
 20
131.236115
 11
-85.932190
 21
131.236115
  0
LINE
  8
0
 10
-76.890244
 20
136.236115
 11
-88.890244
 21
136.236115
  0
LINE
  8
0
 10
-79.718658
 20
141.236115
 11
-86.061813
 21
141.236115
  0
LINE
  8
0
 10
-79.890244
 20
142.236115
 11
-85.890244
 21
142.236115
  0
LINE
  8
0
 10
-76.890244
 20
146.236115
 11
-88.890244
 21
146.236115
  0
LINE
  8
0
 10
-88.890244
 20
146.234344
 11
-88.890244
 21
145.236115
  0
LINE
  8
0
 10
-88.890244
 20
139.236115
 11
-88.890244
 21
137.159088
  0
LINE
  8
0
 10
-88.890244
 20
136.236115
 11
-88.890244
 21
133.736115
  0
LINE
  8
0
 10
-88.890244
 20
126.236107
 11
-88.890244
 21
122.236107
  0
LINE
  8
0
 10
-88.890244
 20
121.236107
 11
-88.890244
 21
117.236107
  0
LINE
  8
0
 10
-88.890244
 20
116.236107
 11
-88.890244
 21
112.236107
  0
LINE
  8
0
 10
-76.890244
 20
116.236107
 11
-76.890244
 21
112.236107
  0
LINE
  8
0
 10
-76.890244
 20
121.236107
 11
-76.890244
 21
117.236107
  0
LINE
  8
0
 10
-76.890244
 20
126.236107
 11
-76.890244
 21
122.102379
  0
LINE
  8
0
 10
-76.890244
 20
127.736107
 11
-76.890244
 21
127.236107
  0
LINE
  8
0
 10
-76.890244
 20
136.236115
 11
-76.890244
 21
133.736115
  0
LINE
  8
0
 10
-76.890244
 20
139.236115
 11
-76.890244
 21
137.227844
  0
LINE
  8
0
 10
-76.890244
 20
146.236115
 11
-76.890244
 21
145.236115
  0
LINE
  8
0
 10
-88.890244
 20
127.736107
 11
-88.890244
 21
127.236107
  0
LINE
  8
0
 10
-90.390259
 20
88.236122
 11
-89.890244
 21
88.236122
  0
LINE
  8
0
 10
-75.390244
 20
88.236122
 11
-75.390244
 21
158.236115
  0
LINE
  8
0
 10
-90.390244
 20
158.236115
 11
-75.390244
 21
158.236115
  0
LINE
  8
0
 10
-75.890244
 20
88.236122
 11
-75.390259
 21
88.236122
  0
ARC
  8
0
 10
-76.890244
 20
142.236115
 40
3.000000
 50
90.000000
 51
180.000000
  0
ARC
  8
0
 10
-89.690247
 20
78.536125
 40
0.199997
 50
180.000000
 51
270.000000
  0
ARC
  8
0
 10
-76.090256
 20
78.536118
 40
0.199997
 50
270.000000
 51
0.000000
  0
ARC
  8
0
 10
-88.890244
 20
130.736115
 40
3.000008
 50
270.000000
 51
9.594073
  0
ARC
  8
0
 10
-76.890244
 20
142.236115
 40
3.000008
 50
199.471481
 51
270.000000
  0
ARC
  8
0
 10
-88.890244
 20
142.236115
 40
3.000000
 50
0.000000
 51
90.000000
  0
ARC
  8
0
 10
-88.890244
 20
130.736115
 40
3.000000
 50
30.000004
 51
90.000000
  0
ARC
  8
0
 10
-76.890244
 20
130.736115
 40
3.000000
 50
90.000000
 51
150.000000
  0
ARC
  8
0
 10
-76.890244
 20
130.736115
 40
2.999999
 50
170.405930
 51
270.000000
  0
ARC
  8
0
 10
-88.890244
 20
142.236115
 40
3.000000
 50
270.000000
 51
340.528809
  0
TEXT
  8
0
 10
-84.568680
 20
102.536110
 40
3.000000
  1
P
 50
0.000000
 41
1.052632
 51
0.000000
  7
STANDARD
  0
POINT
  8
0
 10
-75.390244
 20
43.336105
  0
POINT
  8
0
 10
-90.390244
 20
43.336105
  0
LINE
  8
0
 10
-75.890244
 20
60.336121
 11
-89.890244
 21
60.336121
  0
LINE
  8
0
 10
-90.190247
 20
60.036118
 11
-90.190247
 21
43.336121
  0
LINE
  8
0
 10
-75.590240
 20
60.036118
 11
-75.590240
 21
43.336121
  0
LINE
  8
0
 10
-74.490250
 20
52.336121
 11
-91.290253
 21
52.336121
  0
LINE
  8
0
 10
-89.890251
 20
60.336128
 11
-90.190247
 21
60.036129
  0
LINE
  8
0
 10
-75.890236
 20
60.336113
 11
-75.590240
 21
60.036118
  0
LINE
  8
0
 10
-75.390244
 20
43.336105
 11
-90.390244
 21
43.336105
  0
LINE
  8
0
 10
-75.390244
 20
22.336105
 11
-90.390244
 21
22.336105
  0
LINE
  8
0
 10
-75.390244
 20
43.336121
 11
-75.390244
 21
22.336121
  0
LINE
  8
0
 10
-82.890244
 20
61.836121
 11
-82.890244
 21
20.836105
  0
CIRCLE
  8
0
 10
-82.890244
 20
52.336121
 40
4.000000
  0
CIRCLE
  8
0
 10
-82.890244
 20
52.336121
 40
7.000000
  0
CIRCLE
  8
0
 10
-82.890244
 20
52.336121
 40
4.000000
  0
POINT
  8
0
 10
-195.157318
 20
88.236130
  0
POINT
  8
0
 10
-195.157318
 20
88.236130
  0
POINT
  8
0
 10
-175.157303
 20
88.236130
  0
LINE
  8
0
 10
-193.157349
 20
84.696114
 11
-192.557358
 21
83.736122
  0
LINE
  8
0
 10
-179.757309
 20
83.736130
 11
-192.557312
 21
83.736130
  0
LINE
  8
0
 10
-179.757309
 20
81.536133
 11
-192.557312
 21
81.536133
  0
LINE
  8
0
 10
-179.357315
 20
78.336128
 11
-192.957306
 21
78.336128
  0
LINE
  8
0
 10
-179.157303
 20
80.336128
 11
-193.157303
 21
80.336128
  0
LINE
  8
0
 10
-179.157318
 20
93.236130
 11
-179.157318
 21
84.696121
  0
LINE
  8
0
 10
-193.157318
 20
93.236130
 11
-193.157318
 21
84.696121
  0
LINE
  8
0
 10
-179.157318
 20
80.336136
 11
-179.157318
 21
78.536133
  0
LINE
  8
0
 10
-193.157318
 20
80.336136
 11
-193.157318
 21
78.536133
  0
LINE
  8
0
 10
-186.157318
 20
93.236130
 11
-186.157318
 21
77.036133
  0
LINE
  8
0
 10
-179.757324
 20
83.736130
 11
-179.757324
 21
81.536133
  0
LINE
  8
0
 10
-192.557327
 20
83.736130
 11
-192.557327
 21
81.536133
  0
LINE
  8
0
 10
-179.157303
 20
84.696121
 11
-179.757294
 21
83.736130
  0
LINE
  8
0
 10
-181.157318
 20
81.536133
 11
-181.157318
 21
80.336136
  0
LINE
  8
0
 10
-191.157318
 20
81.536133
 11
-191.157318
 21
80.336136
  0
LINE
  8
0
 10
-193.157318
 20
84.696121
 11
-179.157303
 21
84.696121
  0
LINE
  8
0
  6
PHANTOM
 10
-195.457352
 20
158.236115
 11
-195.157333
 21
157.936096
  0
LINE
  8
0
 10
-178.457336
 20
158.036133
 11
-195.157333
 21
158.036133
  0
LINE
  8
0
 10
-178.457306
 20
93.236130
 11
-195.157318
 21
93.236130
  0
LINE
  8
0
 10
-178.157318
 20
157.736130
 11
-178.157318
 21
93.536133
  0
LINE
  8
0
 10
-178.157349
 20
157.736115
 11
-178.457352
 21
158.036118
  0
LINE
  8
0
 10
-178.157318
 20
93.536140
 11
-178.457321
 21
93.236137
  0
LINE
  8
0
 10
-191.657318
 20
158.036133
 11
-191.657318
 21
93.236130
  0
LINE
  8
0
 10
-188.157318
 20
158.036133
 11
-188.157318
 21
93.236130
  0
LINE
  8
0
 10
-186.157318
 20
158.036133
 11
-186.157318
 21
93.236130
  0
LINE
  8
0
 10
-184.657318
 20
158.036133
 11
-184.657318
 21
93.236130
  0
LINE
  8
0
 10
-181.157318
 20
158.036133
 11
-181.157318
 21
93.236130
  0
ARC
  8
0
 10
-179.357315
 20
78.536133
 40
0.199997
 50
270.000000
 51
0.000000
  0
ARC
  8
0
 10
-192.957306
 20
78.536133
 40
0.199997
 50
180.000000
 51
270.000000
  0
POINT
  8
0
 10
144.564590
 20
105.069458
  0
POINT
  8
0
 10
159.564606
 20
105.069458
  0
LINE
  8
0
 10
160.564606
 20
93.569458
 11
143.564606
 21
93.569458
  0
LINE
  8
0
 10
159.064606
 20
98.569458
 11
157.464600
 21
98.569458
  0
LINE
  8
0
 10
145.064606
 20
98.569458
 11
145.064606
 21
110.069458
  0
LINE
  8
0
 10
159.064606
 20
98.569458
 11
159.064606
 21
110.069443
  0
LINE
  8
0
 10
146.664597
 20
98.569458
 11
145.064606
 21
98.569458
  0
LINE
  8
0
 10
146.664597
 20
98.407059
 11
146.664597
 21
98.569458
  0
LINE
  8
0
 10
157.464600
 20
98.407059
 11
157.464600
 21
98.569458
  0
LINE
  8
0
 10
159.064606
 20
98.569427
 11
158.092651
 21
97.597481
  0
LINE
  8
0
 10
146.036545
 20
97.597511
 11
145.064606
 21
98.569458
  0
LINE
  8
0
 10
152.064606
 20
176.569458
 11
152.064606
 21
85.319458
  0
LINE
  8
0
 10
159.064606
 20
110.069443
 11
145.064606
 21
110.069443
  0
LINE
  8
0
 10
158.064606
 20
129.069458
 11
146.064606
 21
129.069458
  0
LINE
  8
0
 10
158.064606
 20
134.069458
 11
146.064606
 21
134.069458
  0
LINE
  8
0
 10
158.064606
 20
144.069458
 11
146.064606
 21
144.069458
  0
LINE
  8
0
 10
158.064606
 20
154.069458
 11
146.064606
 21
154.069458
  0
LINE
  8
0
 10
158.064606
 20
164.069458
 11
146.064606
 21
164.069458
  0
LINE
  8
0
 10
158.064606
 20
168.069458
 11
146.064606
 21
168.069458
  0
LINE
  8
0
 10
158.064606
 20
133.069458
 11
146.064606
 21
133.069458
  0
LINE
  8
0
 10
158.064606
 20
138.069458
 11
146.064606
 21
138.069458
  0
LINE
  8
0
 10
158.064606
 20
139.069458
 11
146.064606
 21
139.069458
  0
LINE
  8
0
 10
158.064606
 20
168.069443
 11
158.064606
 21
164.069443
  0
LINE
  8
0
 10
146.064606
 20
168.069443
 11
146.064606
 21
164.069443
  0
LINE
  8
0
 10
158.064606
 20
143.069458
 11
146.064606
 21
143.069458
  0
LINE
  8
0
 10
155.466537
 20
149.069458
 11
148.662689
 21
149.069458
  0
LINE
  8
0
 10
155.106567
 20
148.069458
 11
149.022659
 21
148.069458
  0
LINE
  8
0
 10
158.064606
 20
153.069458
 11
146.064606
 21
153.069458
  0
LINE
  8
0
 10
155.236191
 20
158.069458
 11
148.893036
 21
158.069458
  0
LINE
  8
0
 10
155.064606
 20
159.069458
 11
149.064606
 21
159.069458
  0
LINE
  8
0
 10
158.064606
 20
163.069458
 11
146.064606
 21
163.069458
  0
LINE
  8
0
 10
146.064606
 20
163.067688
 11
146.064606
 21
162.069443
  0
LINE
  8
0
 10
146.064606
 20
156.069443
 11
146.064606
 21
153.992416
  0
LINE
  8
0
 10
146.064606
 20
153.069443
 11
146.064606
 21
150.569443
  0
LINE
  8
0
 10
146.064606
 20
143.069443
 11
146.064606
 21
139.069443
  0
LINE
  8
0
 10
146.064606
 20
138.069443
 11
146.064606
 21
134.069443
  0
LINE
  8
0
 10
146.064606
 20
133.069443
 11
146.064606
 21
129.069443
  0
LINE
  8
0
 10
158.064606
 20
133.069443
 11
158.064606
 21
129.069443
  0
LINE
  8
0
 10
158.064606
 20
138.069443
 11
158.064606
 21
134.069443
  0
LINE
  8
0
 10
158.064606
 20
143.069443
 11
158.064606
 21
138.935715
  0
LINE
  8
0
 10
158.064606
 20
144.569443
 11
158.064606
 21
144.069443
  0
LINE
  8
0
 10
158.064606
 20
153.069443
 11
158.064606
 21
150.569443
  0
LINE
  8
0
 10
158.064606
 20
156.069443
 11
158.064606
 21
154.061172
  0
LINE
  8
0
 10
158.064606
 20
163.069443
 11
158.064606
 21
162.069443
  0
LINE
  8
0
 10
146.064606
 20
144.569443
 11
146.064606
 21
144.069443
  0
LINE
  8
0
 10
144.564590
 20
105.069458
 11
145.064606
 21
105.069458
  0
LINE
  8
0
 10
159.564606
 20
105.069458
 11
159.564606
 21
175.069458
  0
LINE
  8
0
 10
144.564606
 20
175.069458
 11
159.564606
 21
175.069458
  0
LINE
  8
0
 10
159.064606
 20
105.069458
 11
159.564590
 21
105.069458
  0
ARC
  8
0
 10
158.064606
 20
159.069443
 40
3.000000
 50
90.000000
 51
180.000000
  0
CIRCLE
  8
0
 10
152.064606
 20
93.569458
 40
4.000000
  0
CIRCLE
  8
0
 10
152.064606
 20
93.569458
 40
7.250000
  0
ARC
  8
0
 10
146.064606
 20
147.569443
 40
3.000000
 50
270.000000
 51
9.594073
  0
ARC
  8
0
 10
158.064606
 20
159.069443
 40
3.000003
 50
199.471207
 51
270.000000
  0
ARC
  8
0
 10
146.064606
 20
159.069443
 40
3.000000
 50
0.000000
 51
90.000000
  0
ARC
  8
0
 10
146.064606
 20
147.569443
 40
2.999993
 50
30.000076
 51
90.000000
  0
ARC
  8
0
 10
158.064606
 20
147.569443
 40
3.000000
 50
90.000000
 51
150.000076
  0
ARC
  8
0
 10
158.064606
 20
147.569443
 40
2.999999
 50
170.405930
 51
270.000000
  0
ARC
  8
0
 10
146.064606
 20
159.069443
 40
3.000000
 50
270.000000
 51
340.528809
  0
TEXT
  8
0
 10
150.386169
 20
119.369446
 40
3.000000
  1
P
 50
0.000000
 41
1.052632
 51
0.000000
  7
STANDARD
  0
POINT
  8
0
 10
159.564606
 20
40.605049
  0
POINT
  8
0
 10
144.564606
 20
40.605049
  0
LINE
  8
0
 10
144.764603
 20
57.305061
 11
144.764603
 21
40.605064
  0
LINE
  8
0
 10
159.364609
 20
57.305061
 11
159.364609
 21
40.605064
  0
LINE
  8
0
 10
160.464600
 20
49.605064
 11
143.664612
 21
49.605064
  0
LINE
  8
0
 10
152.064606
 20
58.005058
 11
152.064606
 21
39.695946
  0
LINE
  8
0
 10
144.814606
 20
57.355076
 11
144.764603
 21
57.305077
  0
LINE
  8
0
 10
159.314606
 20
57.355083
 11
159.364609
 21
57.305084
  0
LINE
  8
0
 10
159.564606
 20
40.605049
 11
144.564606
 21
40.605049
  0
LINE
  8
0
 10
159.564606
 20
19.605049
 11
144.564606
 21
19.605049
  0
LINE
  8
0
 10
159.564606
 20
40.605064
 11
159.564606
 21
19.605064
  0
LINE
  8
0
 10
162.064606
 20
49.605064
 11
142.064606
 21
49.605064
  0
LINE
  8
0
 10
157.264603
 20
49.605064
 11
157.264603
 21
54.855064
  0
LINE
  8
0
 10
146.864609
 20
49.605064
 11
146.864609
 21
54.855064
  0
LINE
  8
0
 10
146.864594
 20
54.855057
 11
144.814606
 21
56.905048
  0
LINE
  8
0
 10
157.264603
 20
54.855049
 11
146.864609
 21
54.855049
  0
LINE
  8
0
 10
158.964615
 20
72.505058
 11
145.164612
 21
72.505058
  0
LINE
  8
0
 10
145.164612
 20
70.505058
 11
145.164612
 21
72.505058
  0
LINE
  8
0
 10
158.964600
 20
70.505058
 11
158.964600
 21
72.505058
  0
LINE
  8
0
 10
158.964615
 20
70.505058
 11
145.164612
 21
70.505058
  0
LINE
  8
0
 10
158.964615
 20
69.705055
 11
145.164612
 21
69.705055
  0
LINE
  8
0
 10
157.064606
 20
69.705070
 11
157.064606
 21
70.505058
  0
LINE
  8
0
 10
147.064606
 20
69.705055
 11
147.064606
 21
70.505058
  0
LINE
  8
0
 10
145.164612
 20
67.705070
 11
145.164612
 21
69.705070
  0
LINE
  8
0
 10
158.964600
 20
67.705055
 11
158.964600
 21
69.705055
  0
LINE
  8
0
 10
159.314606
 20
67.705055
 11
144.814606
 21
67.705055
  0
LINE
  8
0
 10
159.314606
 20
56.905052
 11
159.314606
 21
67.705055
  0
LINE
  8
0
 10
144.814606
 20
56.905052
 11
144.814606
 21
67.705070
  0
LINE
  8
0
 10
159.314606
 20
64.705055
 11
144.814606
 21
64.705055
  0
LINE
  8
0
 10
159.314606
 20
56.905052
 11
144.814606
 21
56.905052
  0
LINE
  8
0
 10
159.314651
 20
56.905029
 11
157.264648
 21
54.855026
  0
LINE
  8
0
 10
152.064606
 20
18.105049
 11
152.064606
 21
74.705055
  0
ARC
  8
0
 10
152.064606
 20
49.605064
 40
5.199997
 50
180.000046
 51
0.000000
  0
POINT
  8
0
 10
48.797569
 20
105.069466
  0
POINT
  8
0
 10
68.797569
 20
105.069466
  0
LINE
  8
0
 10
59.297573
 20
174.869476
 11
59.297569
 21
110.069466
  0
LINE
  8
0
 10
57.797573
 20
174.869476
 11
57.797569
 21
110.069466
  0
LINE
  8
0
 10
50.797569
 20
110.069466
 11
64.797569
 21
110.069466
  0
LINE
  8
0
 10
57.797569
 20
85.319473
 11
57.797569
 21
111.069466
  0
LINE
  8
0
 10
50.797569
 20
108.569466
 11
64.797585
 21
108.569466
  0
LINE
  8
0
 10
64.797569
 20
100.819466
 11
64.797569
 21
110.069466
  0
LINE
  8
0
 10
50.797569
 20
93.569473
 11
50.797569
 21
110.069466
  0
LINE
  8
0
 10
45.624718
 20
93.569466
 11
82.897575
 21
93.569466
  0
LINE
  8
0
 10
80.697563
 20
100.469460
 11
80.697563
 21
86.669472
  0
LINE
  8
0
 10
78.697571
 20
86.669464
 11
80.697571
 21
86.669464
  0
LINE
  8
0
 10
78.697571
 20
100.469460
 11
80.697571
 21
100.469460
  0
LINE
  8
0
 10
78.697571
 20
100.469460
 11
78.697571
 21
86.669472
  0
LINE
  8
0
 10
77.897568
 20
100.469460
 11
77.897568
 21
86.669472
  0
LINE
  8
0
 10
77.897568
 20
98.569466
 11
78.697571
 21
98.569466
  0
LINE
  8
0
 10
77.897575
 20
88.569466
 11
78.697571
 21
88.569466
  0
LINE
  8
0
 10
75.897575
 20
86.669464
 11
77.897575
 21
86.669464
  0
LINE
  8
0
 10
75.897568
 20
100.469460
 11
77.897568
 21
100.469460
  0
LINE
  8
0
 10
75.897568
 20
100.819466
 11
75.897568
 21
86.319473
  0
LINE
  8
0
 10
64.797569
 20
100.819466
 11
75.897568
 21
100.819466
  0
LINE
  8
0
 10
58.047569
 20
86.319466
 11
75.897575
 21
86.319466
  0
LINE
  8
0
 10
72.897575
 20
100.819466
 11
72.897575
 21
86.319473
  0
LINE
  8
0
 10
65.097572
 20
100.819466
 11
65.097572
 21
86.319466
  0
LINE
  8
0
 10
55.797573
 20
174.869476
 11
55.797569
 21
110.069466
  0
LINE
  8
0
 10
62.797573
 20
174.869476
 11
62.797569
 21
110.069466
  0
LINE
  8
0
 10
65.497559
 20
174.869476
 11
48.797558
 21
174.869476
  0
LINE
  8
0
 10
65.797569
 20
110.069466
 11
48.797569
 21
110.069466
  0
LINE
  8
0
 10
65.797577
 20
174.569458
 11
65.797569
 21
110.069466
  0
LINE
  8
0
 10
65.797531
 20
174.569458
 11
65.497528
 21
174.869446
  0
LINE
  8
0
 10
52.297573
 20
174.869476
 11
52.297569
 21
110.069466
  0
ARC
  8
0
 10
58.047569
 20
93.569473
 40
7.250000
 50
180.000000
 51
270.000000
  0
POINT
  8
0
 10
-88.027664
 20
-81.105965
  0
POINT
  8
0
 10
-88.027664
 20
-81.105965
  0
POINT
  8
0
 10
-73.027649
 20
-81.105965
  0
LINE
  8
0
 10
-87.527649
 20
-83.365837
 11
-87.527649
 21
-76.105980
  0
LINE
  8
0
 10
-80.527649
 20
-83.365837
 11
-80.527649
 21
-76.105980
  0
LINE
  8
0
 10
-86.245712
 20
-84.105965
 11
-74.809601
 21
-84.105965
  0
LINE
  8
0
 10
-73.527649
 20
-83.390694
 11
-73.527649
 21
-76.105980
  0
LINE
  8
0
 10
-73.527649
 20
-76.105980
 11
-87.527649
 21
-76.105980
  0
LINE
  8
0
 10
-74.527649
 20
-57.105965
 11
-86.527649
 21
-57.105965
  0
LINE
  8
0
 10
-74.527649
 20
-52.105965
 11
-86.527649
 21
-52.105965
  0
LINE
  8
0
 10
-74.527649
 20
-42.105965
 11
-86.527649
 21
-42.105965
  0
LINE
  8
0
 10
-74.527649
 20
-32.105965
 11
-86.527649
 21
-32.105965
  0
LINE
  8
0
 10
-74.527649
 20
-22.105965
 11
-86.527649
 21
-22.105965
  0
LINE
  8
0
 10
-74.527649
 20
-18.105965
 11
-86.527649
 21
-18.105965
  0
LINE
  8
0
 10
-80.527649
 20
-9.605965
 11
-80.527649
 21
-85.605965
  0
LINE
  8
0
 10
-74.527649
 20
-53.105965
 11
-86.527649
 21
-53.105965
  0
LINE
  8
0
 10
-74.527649
 20
-48.105965
 11
-86.527649
 21
-48.105965
  0
LINE
  8
0
 10
-74.527649
 20
-47.105965
 11
-86.527649
 21
-47.105965
  0
LINE
  8
0
 10
-74.527649
 20
-18.105980
 11
-74.527649
 21
-22.105980
  0
LINE
  8
0
 10
-86.527649
 20
-18.105980
 11
-86.527649
 21
-22.105980
  0
LINE
  8
0
 10
-74.527649
 20
-43.105965
 11
-86.527649
 21
-43.105965
  0
LINE
  8
0
 10
-77.125717
 20
-37.105965
 11
-83.929565
 21
-37.105965
  0
LINE
  8
0
 10
-77.485687
 20
-38.105965
 11
-83.569595
 21
-38.105965
  0
LINE
  8
0
 10
-74.527649
 20
-33.105965
 11
-86.527649
 21
-33.105965
  0
LINE
  8
0
 10
-77.356064
 20
-28.105965
 11
-83.699219
 21
-28.105965
  0
LINE
  8
0
 10
-77.527649
 20
-27.105965
 11
-83.527649
 21
-27.105965
  0
LINE
  8
0
 10
-74.527649
 20
-23.105965
 11
-86.527649
 21
-23.105965
  0
LINE
  8
0
 10
-86.527649
 20
-23.107735
 11
-86.527649
 21
-24.105980
  0
LINE
  8
0
 10
-86.527649
 20
-30.105980
 11
-86.527649
 21
-32.183006
  0
LINE
  8
0
 10
-86.527649
 20
-33.105980
 11
-86.527649
 21
-35.605980
  0
LINE
  8
0
 10
-86.527649
 20
-43.105980
 11
-86.527649
 21
-47.105980
  0
LINE
  8
0
 10
-86.527649
 20
-48.105980
 11
-86.527649
 21
-52.105980
  0
LINE
  8
0
 10
-86.527649
 20
-53.105980
 11
-86.527649
 21
-57.105980
  0
LINE
  8
0
 10
-74.527649
 20
-53.105980
 11
-74.527649
 21
-57.105980
  0
LINE
  8
0
 10
-74.527649
 20
-48.105980
 11
-74.527649
 21
-52.105980
  0
LINE
  8
0
 10
-74.527649
 20
-43.105980
 11
-74.527649
 21
-47.239708
  0
LINE
  8
0
 10
-74.527649
 20
-41.605980
 11
-74.527649
 21
-42.105980
  0
LINE
  8
0
 10
-74.527649
 20
-33.105980
 11
-74.527649
 21
-35.605980
  0
LINE
  8
0
 10
-74.527649
 20
-30.105980
 11
-74.527649
 21
-32.114250
  0
LINE
  8
0
 10
-74.527649
 20
-23.105980
 11
-74.527649
 21
-24.105980
  0
LINE
  8
0
 10
-86.527649
 20
-41.605980
 11
-86.527649
 21
-42.105980
  0
LINE
  8
0
 10
-88.027664
 20
-81.105965
 11
-87.527649
 21
-81.105965
  0
LINE
  8
0
 10
-73.027649
 20
-81.105965
 11
-73.027649
 21
-11.105965
  0
LINE
  8
0
 10
-88.027649
 20
-11.105965
 11
-73.027649
 21
-11.105965
  0
LINE
  8
0
 10
-73.527649
 20
-81.105965
 11
-73.027664
 21
-81.105965
  0
LINE
  8
0
 10
-86.245712
 20
-84.105972
 11
-87.527664
 21
-83.365837
  0
LINE
  8
0
 10
-74.809616
 20
-84.105965
 11
-73.527649
 21
-83.365822
  0
ARC
  8
0
 10
-74.527649
 20
-27.105980
 40
3.000000
 50
90.000000
 51
180.000000
  0
ARC
  8
0
 10
-77.027649
 20
-75.460396
 40
8.645584
 50
246.119461
 51
293.880524
  0
ARC
  8
0
 10
-84.027649
 20
-75.460396
 40
8.645584
 50
246.119461
 51
293.880524
  0
ARC
  8
0
 10
-86.527649
 20
-38.605980
 40
3.000000
 50
270.000000
 51
9.594145
  0
ARC
  8
0
 10
-74.527649
 20
-27.105980
 40
3.000004
 50
199.471268
 51
270.000000
  0
ARC
  8
0
 10
-86.527649
 20
-27.105980
 40
3.000000
 50
0.000000
 51
90.000000
  0
ARC
  8
0
 10
-86.527649
 20
-38.605980
 40
3.000002
 50
30.000067
 51
90.000000
  0
ARC
  8
0
 10
-74.527649
 20
-38.605980
 40
3.000000
 50
90.000000
 51
150.000000
  0
ARC
  8
0
 10
-74.527649
 20
-38.605980
 40
2.999999
 50
170.405930
 51
270.000000
  0
ARC
  8
0
 10
-86.527649
 20
-27.105980
 40
3.000000
 50
270.000000
 51
340.528809
  0
TEXT
  8
0
 10
-82.206085
 20
-66.805977
 40
3.000000
  1
P
 50
0.000000
 41
1.052632
 51
0.000000
  7
STANDARD
  0
POINT
  8
0
 10
-88.027649
 20
-136.105988
  0
POINT
  8
0
 10
-88.027649
 20
-136.105988
  0
POINT
  8
0
 10
-73.027649
 20
-136.105988
  0
LINE
  8
0
 10
-73.527649
 20
-119.105972
 11
-87.527649
 21
-119.105972
  0
LINE
  8
0
 10
-87.827652
 20
-119.405975
 11
-87.827652
 21
-136.105972
  0
LINE
  8
0
 10
-73.227646
 20
-119.405975
 11
-73.227646
 21
-136.105972
  0
LINE
  8
0
 10
-72.127655
 20
-127.105972
 11
-88.927643
 21
-127.105972
  0
LINE
  8
0
 10
-80.527649
 20
-117.605972
 11
-80.527649
 21
-158.605988
  0
LINE
  8
0
 10
-87.527649
 20
-119.105972
 11
-87.827652
 21
-119.405975
  0
LINE
  8
0
 10
-73.527641
 20
-119.105988
 11
-73.227654
 21
-119.405975
  0
LINE
  8
0
 10
-73.027649
 20
-136.105988
 11
-88.027649
 21
-136.105988
  0
LINE
  8
0
 10
-73.027649
 20
-157.105988
 11
-88.027649
 21
-157.105988
  0
LINE
  8
0
 10
-73.027649
 20
-136.105972
 11
-73.027649
 21
-157.105972
  0
LINE
  8
0
 10
-87.527649
 20
-123.064514
 11
-87.527649
 21
-131.147430
  0
LINE
  8
0
 10
-73.527649
 20
-123.064514
 11
-73.527649
 21
-131.147430
  0
LINE
  8
0
 10
-87.527664
 20
-123.064522
 11
-80.527649
 21
-119.023071
  0
LINE
  8
0
 10
-80.527657
 20
-135.188889
 11
-73.527649
 21
-131.147430
  0
LINE
  8
0
 10
-87.527649
 20
-131.147430
 11
-80.527649
 21
-135.188873
  0
LINE
  8
0
 10
-80.527649
 20
-119.023071
 11
-73.527649
 21
-123.064529
  0
CIRCLE
  8
0
 10
-80.527649
 20
-127.105972
 40
3.500000
  0
CIRCLE
  8
0
 10
-80.527649
 20
-127.105972
 40
7.000000
  0
POINT
  8
0
 10
-188.794708
 20
-81.105965
  0
POINT
  8
0
 10
-168.794693
 20
-81.105965
  0
LINE
  8
0
 10
-175.753265
 20
-76.105972
 11
-175.753265
 21
-83.462097
  0
LINE
  8
0
 10
-186.679474
 20
-84.105972
 11
-172.909943
 21
-84.105972
  0
LINE
  8
0
 10
-171.794724
 20
-83.462097
 11
-171.794724
 21
-76.105972
  0
LINE
  8
0
 10
-187.794708
 20
-83.462097
 11
-187.794708
 21
-76.105972
  0
LINE
  8
0
 10
-172.909912
 20
-84.105965
 11
-171.794678
 21
-83.462090
  0
LINE
  8
0
 10
-186.679504
 20
-84.105972
 11
-187.794739
 21
-83.462097
  0
LINE
  8
0
 10
-183.836166
 20
-76.105972
 11
-183.836166
 21
-83.462097
  0
LINE
  8
0
 10
-189.094727
 20
-11.105988
 11
-188.794724
 21
-11.405983
  0
LINE
  8
0
 10
-172.094711
 20
-11.305969
 11
-188.794708
 21
-11.305962
  0
LINE
  8
0
 10
-171.794724
 20
-76.105972
 11
-188.794708
 21
-76.105972
  0
LINE
  8
0
 10
-171.794693
 20
-11.605972
 11
-171.794724
 21
-76.105972
  0
LINE
  8
0
 10
-171.794708
 20
-11.605988
 11
-172.094711
 21
-11.305984
  0
LINE
  8
0
 10
-185.294678
 20
-11.305962
 11
-185.294708
 21
-76.105972
  0
LINE
  8
0
 10
-181.794678
 20
-11.305962
 11
-181.794708
 21
-76.105972
  0
LINE
  8
0
 10
-179.794678
 20
-11.305962
 11
-179.794708
 21
-76.105972
  0
LINE
  8
0
 10
-178.294678
 20
-11.305969
 11
-178.294708
 21
-76.105972
  0
LINE
  8
0
 10
-174.794678
 20
-11.305969
 11
-174.794708
 21
-76.105972
  0
LINE
  8
0
 10
-179.794708
 20
-76.105972
 11
-179.794708
 21
-85.605972
  0
ARC
  8
0
 10
-173.794510
 20
-80.804703
 40
3.301274
 50
233.606430
 51
299.999969
  0
ARC
  8
0
 10
-179.794708
 20
-71.100540
 40
13.005440
 50
251.895477
 51
288.104462
  0
ARC
  8
0
 10
-185.794907
 20
-80.804703
 40
3.301280
 50
239.999786
 51
306.393585
  0
POINT
  8
0
 10
162.851898
 20
-81.105980
  0
POINT
  8
0
 10
177.851898
 20
-81.105980
  0
LINE
  8
0
 10
170.351913
 20
-82.605980
 11
170.351913
 21
-9.605980
  0
LINE
  8
0
 10
162.851913
 20
-11.105980
 11
177.851913
 21
-11.105980
  0
LINE
  8
0
 10
162.851898
 20
-81.105980
 11
177.851898
 21
-81.105980
  0
LINE
  8
0
 10
177.851913
 20
-81.105980
 11
177.851913
 21
-11.105980
  0
LINE
  8
0
 10
164.351913
 20
-70.105980
 11
176.351913
 21
-70.105980
  0
LINE
  8
0
 10
164.351913
 20
-51.105980
 11
176.351913
 21
-51.105980
  0
LINE
  8
0
 10
164.351913
 20
-33.105980
 11
176.351913
 21
-33.105980
  0
CIRCLE
  8
0
 10
170.351913
 20
-33.105980
 40
4.864000
  0
CIRCLE
  8
0
 10
170.351913
 20
-51.105980
 40
4.863999
  0
CIRCLE
  8
0
 10
170.351913
 20
-51.105980
 40
4.278000
  0
CIRCLE
  8
0
 10
170.351913
 20
-33.105980
 40
4.278000
  0
CIRCLE
  8
0
 10
170.351913
 20
-70.105980
 40
4.863999
  0
CIRCLE
  8
0
 10
170.351913
 20
-70.105980
 40
4.278000
  0
TEXT
  8
0
 10
168.673477
 20
-59.805981
 40
3.000000
  1
R
 50
0.000000
 41
1.052632
 51
0.000000
  7
STANDARD
  0
TEXT
  8
0
 10
167.173477
 20
-42.805981
 40
3.000000
  1
PR
 50
0.000000
 41
1.052632
 51
0.000000
  7
STANDARD
  0
TEXT
  8
0
 10
168.673477
 20
-78.805977
 40
3.000000
  1
P
 50
0.000000
 41
1.052632
 51
0.000000
  7
STANDARD
  0
POINT
  8
0
 10
162.851913
 20
-132.805969
  0
POINT
  8
0
 10
177.851913
 20
-132.805969
  0
LINE
  8
0
 10
177.851913
 20
-132.805969
 11
177.851913
 21
-153.805969
  0
LINE
  8
0
 10
177.851913
 20
-153.805984
 11
162.851913
 21
-153.805984
  0
LINE
  8
0
 10
163.051926
 20
-115.805969
 11
177.651917
 21
-115.805969
  0
LINE
  8
0
 10
162.851913
 20
-132.805969
 11
177.851913
 21
-132.805969
  0
LINE
  8
0
 10
163.051926
 20
-115.805969
 11
163.051926
 21
-132.805969
  0
LINE
  8
0
 10
177.651917
 20
-115.805969
 11
177.651917
 21
-132.805969
  0
POINT
  8
0
 10
93.084846
 20
-81.105972
  0
POINT
  8
0
 10
76.084869
 20
-81.105972
  0
LINE
  8
0
 10
93.084846
 20
-12.105972
 11
76.084839
 21
-12.105972
  0
LINE
  8
0
 10
93.084846
 20
-12.105972
 11
93.084846
 21
-81.105972
  0
LINE
  8
0
 10
93.084846
 20
-81.105972
 11
76.084869
 21
-81.105972
  0
ENDSEC
  0
EOF
