  0
SECTION
  2
HEADER
  0
ENDSEC
  0
SECTION
  2
TABLES
  0
TABLE
  2
LTYPE
 70
     4
  0
LTYPE
  2
CONTINUOUS
 70
    64
  3
Solid line
 72
    65
 73
     0
 40
0.000000
  0
LTYPE
  2
DASHED
 70
    64
  3
__ __ __ __ __ __ __ __ __ __ __ __ __ __ __
 72
    65
 73
     2
 40
3.500000
 49
2.000000
 49
-1.500000
  0
LTYPE
  2
CENTER
 70
    64
  3
____ _ ____ _ ____ _ ____ _ ____ _ ____ _ ____
 72
    65
 73
     4
 40
17.500000
 49
13.000000
 49
-1.500000
 49
1.500000
 49
-1.500000
  0
LTYPE
  2
PHANTOM
 70
    64
  3
_____ _ _ _____ _ _ _____ _ _ _____ _ _ ____  
 72
    65
 73
     6
 40
15.500000
 49
8.000000
 49
-1.500000
 49
1.500000
 49
-1.500000
 49
1.500000
 49
-1.500000
  0
LTYPE
  2
DASHED1
 70
    64
  3
__ __ __ __ __ __ __ __ __ __ __ __ __ __ __
 72
    65
 73
     2
 40
1.500000
 49
1.000000
 49
-0.500000
  0
LTYPE
  2
DASHED2
 70
    64
  3
__ __ __ __ __ __ __ __ __ __ __ __ __ __ __
 72
    65
 73
     2
 40
3.500000
 49
2.500000
 49
-1.000000
  0
LTYPE
  2
DASHED3
 70
    64
  3
__ __ __ __ __ __ __ __ __ __ __ __ __ __ __
 72
    65
 73
     2
 40
6.000000
 49
4.000000
 49
-2.000000
  0
LTYPE
  2
DASHED4
 70
    64
  3
__ __ __ __ __ __ __ __ __ __ __ __ __ __ __
 72
    65
 73
     2
 40
12.000000
 49
10.000000
 49
-2.000000
  0
LTYPE
  2
DASHED5
 70
    64
  3
__ __ __ __ __ __ __ __ __ __ __ __ __ __ __
 72
    65
 73
     2
 40
17.000000
 49
15.000000
 49
-2.000000
  0
LTYPE
  2
DASHED6
 70
    64
  3
__ __ __ __ __ __ __ __ __ __ __ __ __ __ __
 72
    65
 73
     2
 40
29.000000
 49
27.000000
 49
-2.000000
  0
LTYPE
  2
PHANTOM1
 70
    64
  3
_____ _ _ _____ _ _ _____ _ _ _____ _ _ ____  
 72
    65
 73
     6
 40
31.000000
 49
25.000000
 49
-1.500000
 49
1.000000
 49
-1.000000
 49
1.000000
 49
-1.500000
  0
LTYPE
  2
PHANTOM2
 70
    64
  3
_____ _ _ _____ _ _ _____ _ _ _____ _ _ ____  
 72
    65
 73
     6
 40
36.000000
 49
27.000000
 49
-1.500000
 49
2.500000
 49
-1.000000
 49
2.500000
 49
-1.500000
  0
LTYPE
  2
PHANTOM3
 70
    64
  3
_____ _ _ _____ _ _ _____ _ _ _____ _ _ ____  
 72
    65
 73
     6
 40
78.000000
 49
64.000000
 49
-2.000000
 49
4.000000
 49
-2.000000
 49
4.000000
 49
-2.000000
  0
LTYPE
  2
CENTER1
 70
    64
  3
____ _ ____ _ ____ _ ____ _ ____ _ ____ _ ____
 72
    65
 73
     4
 40
19.000000
 49
14.000000
 49
-1.000000
 49
3.000000
 49
-1.000000
  0
LTYPE
  2
CENTER2
 70
    64
  3
____ _ ____ _ ____ _ ____ _ ____ _ ____ _ ____
 72
    65
 73
     4
 40
28.500000
 49
25.000000
 49
-1.000000
 49
1.500000
 49
-1.000000
  0
LTYPE
  2
CENTER3
 70
    64
  3
____ _ ____ _ ____ _ ____ _ ____ _ ____ _ ____
 72
    65
 73
     4
 40
31.500000
 49
27.000000
 49
-1.000000
 49
2.500000
 49
-1.000000
  0
LTYPE
  2
CENTER4
 70
    64
  3
____ _ ____ _ ____ _ ____ _ ____ _ ____ _ ____
 72
    65
 73
     4
 40
50.000000
 49
45.000000
 49
-1.000000
 49
3.000000
 49
-1.000000
  0
LTYPE
  2
CENTER5
 70
    64
  3
____ _ ____ _ ____ _ ____ _ ____ _ ____ _ ____
 72
    65
 73
     4
 40
100.000000
 49
92.000000
 49
-2.000000
 49
4.000000
 49
-2.000000
  0
LTYPE
  2
SBK1
 70
    64
  3
______ _ _ _ ______ _ _ _ ______ _ _ _ _____  
 72
    65
 73
     8
 40
60.500000
 49
45.000000
 49
-2.000000
 49
2.500000
 49
-2.000000
 49
2.500000
 49
-2.000000
 49
2.500000
 49
-2.000000
  0
LTYPE
  2
SBK2
 70
    64
  3
______ _ _ _ ______ _ _ _ ______ _ _ _ _____  
 72
    65
 73
     8
 40
84.000000
 49
64.000000
 49
-2.000000
 49
4.000000
 49
-2.000000
 49
4.000000
 49
-2.000000
 49
4.000000
 49
-2.000000
  0
LTYPE
  2
STCH
 70
    64
  3
__ __ __ __ __ __ __ __ __ __ __ __ __ __ __
 72
    65
 73
     2
 40
3.000000
 49
1.000000
 49
-2.000000
  0
LTYPE
  2
MTCH
 70
    64
  3
_____ _ _ _____ _ _ _____ _ _ _____ _ _ ____  
 72
    65
 73
     6
 40
80.000000
 49
66.000000
 49
-2.000000
 49
4.000000
 49
-2.000000
 49
4.000000
 49
-2.000000
  0
ENDTAB
  0
TABLE
  2
LAYER
 70
     1
  0
LAYER
  2
0
 70
     0
 62
     7
  6
CONTINUOUS
  0
ENDTAB
  0
TABLE
  2
STYLE
 70
     1
  0
STYLE
  2
STANDARD
 70
     0
 40
0.000000
 41
1.000000
 50
0.000000
 71
     0
 42
0.200000
  3
txt
  4
BIGFONT
  0
ENDTAB
  0
TABLE
  2
VIEW
 70
     0
  0
ENDTAB
  0
ENDSEC
  0
SECTION
  2
BLOCKS
  0
ENDSEC
  0
SECTION
  2
ENTITIES
  0
LINE
  8
0
 10
-297.000000
 20
210.000000
 11
297.000000
 21
210.000000
  0
LINE
  8
0
 10
-297.000000
 20
-210.000000
 11
297.000000
 21
-210.000000
  0
LINE
  8
0
 10
297.000000
 20
210.000000
 11
297.000000
 21
-210.000000
  0
LINE
  8
0
 10
-297.000000
 20
210.000000
 11
-297.000000
 21
-210.000000
  0
LINE
  8
0
 10
-281.250000
 20
195.500000
 11
282.099976
 21
195.500000
  0
LINE
  8
0
 10
-281.250000
 20
195.500000
 11
-281.250000
 21
-195.000000
  0
LINE
  8
0
 10
282.099976
 20
195.500000
 11
282.099976
 21
-195.000000
  0
LINE
  8
0
 10
-281.250000
 20
-195.000000
 11
282.099976
 21
-195.000000
  0
LINE
  8
0
 10
162.099976
 20
-175.000000
 11
162.099976
 21
-195.000000
  0
LINE
  8
0
 10
162.099976
 20
-175.000000
 11
282.099976
 21
-175.000000
  0
LINE
  8
0
 10
162.099976
 20
175.500000
 11
282.099976
 21
175.500000
  0
LINE
  8
0
 10
-281.250000
 20
175.500000
 11
-161.250000
 21
175.500000
  0
LINE
  8
0
 10
162.099976
 20
195.500000
 11
162.099976
 21
175.500000
  0
LINE
  8
0
 10
-161.250000
 20
195.500000
 11
-161.250000
 21
175.500000
  0
LINE
  8
0
 10
-281.250000
 20
0.250000
 11
282.099976
 21
0.250000
  0
LINE
  8
0
 10
0.424988
 20
-195.000000
 11
0.424988
 21
195.500000
  0
LINE
  8
0
 10
-281.250000
 20
-185.000000
 11
162.099976
 21
-185.000000
  0
LINE
  8
0
 10
-281.250000
 20
10.250000
 11
282.099976
 21
10.250000
  0
LINE
  8
0
  6
PHANTOM
 10
-234.761627
 20
165.250763
 11
-234.761627
 21
95.250755
  0
LINE
  8
0
  6
PHANTOM
 10
-213.761627
 20
165.250763
 11
-213.761627
 21
95.250755
  0
LINE
  8
0
  6
PHANTOM
 10
-213.761627
 20
95.250755
 11
-234.761627
 21
95.250755
  0
LINE
  8
0
  6
PHANTOM
 10
-213.761627
 20
165.250763
 11
-234.761627
 21
165.250763
  0
LINE
  8
0
  6
PHANTOM
 10
64.703796
 20
165.250763
 11
64.703796
 21
95.250755
  0
LINE
  8
0
  6
PHANTOM
 10
85.703796
 20
165.250763
 11
85.703796
 21
95.250755
  0
LINE
  8
0
  6
PHANTOM
 10
85.703796
 20
95.250755
 11
64.703796
 21
95.250755
  0
LINE
  8
0
  6
PHANTOM
 10
85.703796
 20
165.250763
 11
64.703796
 21
165.250763
  0
LINE
  8
0
  6
PHANTOM
 10
-229.080322
 20
-16.845779
 11
-229.080322
 21
-86.845779
  0
LINE
  8
0
  6
PHANTOM
 10
-208.080322
 20
-16.845779
 11
-208.080322
 21
-86.845779
  0
LINE
  8
0
  6
PHANTOM
 10
-208.080322
 20
-16.845779
 11
-229.080322
 21
-16.845779
  0
LINE
  8
0
  6
PHANTOM
 10
-208.080322
 20
-86.845779
 11
-229.080322
 21
-86.845779
  0
LINE
  8
0
  6
PHANTOM
 10
64.689171
 20
-16.845779
 11
64.689171
 21
-87.845779
  0
LINE
  8
0
  6
PHANTOM
 10
85.689163
 20
-16.845779
 11
85.689163
 21
-87.845779
  0
LINE
  8
0
  6
PHANTOM
 10
85.689178
 20
-86.845779
 11
64.689186
 21
-86.845779
  0
LINE
  8
0
  6
PHANTOM
 10
85.689163
 20
-16.845779
 11
64.689171
 21
-16.845779
  0
ARC
  8
0
 10
102.189171
 20
-20.952881
 40
0.500000
 50
0.000000
 51
45.000000
  0
ARC
  8
0
 10
102.189171
 20
-41.038662
 40
0.500001
 50
315.000000
 51
0.000000
  0
TEXT
  8
0
 10
174.200241
 20
180.830002
 40
6.300000
  1
DATE: SEP ,1992
 50
0.000000
 41
1.052632
 51
0.000000
  7
STANDARD
  0
TEXT
  8
0
 10
167.564667
 20
-192.100006
 40
9.000000
  1
KOGANEI CORP.
 50
0.000000
 41
1.052632
 51
0.000000
  7
STANDARD
  0
TEXT
  8
0
 10
-240.285309
 20
178.399994
 40
9.000000
  1
X80M
 50
0.000000
 41
1.052632
 51
0.000000
  7
STANDARD
  0
TEXT
  8
0
 10
-208.620682
 20
0.579999
 40
6.300000
  1
MODEL : FMWR090-4KE2-J4S
 50
0.000000
 41
0.941980
 51
0.000000
  7
STANDARD
  0
TEXT
  8
0
 10
73.054314
 20
0.579999
 40
6.300000
  1
MODEL : FMWR090-4KE2-J6S
 50
0.000000
 41
0.941980
 51
0.000000
  7
STANDARD
  0
TEXT
  8
0
 10
-208.620682
 20
-194.669998
 40
6.300000
  1
MODEL : FMWR090-4KE2-J4U
 50
0.000000
 41
0.941980
 51
0.000000
  7
STANDARD
  0
TEXT
  8
0
 10
5.012764
 20
-194.669998
 40
6.300000
  1
MODEL : FMWR090-4KE2-M5M
 50
0.000000
 41
1.052632
 51
0.000000
  7
STANDARD
  0
POINT
  8
0
 10
-108.994576
 20
95.250755
  0
POINT
  8
0
 10
-88.594566
 20
95.250748
  0
LINE
  8
0
 10
-93.694550
 20
166.750748
 11
-93.694572
 21
85.750748
  0
LINE
  8
0
 10
-89.794579
 20
87.250748
 11
-97.594582
 21
87.250755
  0
LINE
  8
0
 10
-89.794579
 20
88.450745
 11
-97.594582
 21
88.450752
  0
LINE
  8
0
 10
-98.694572
 20
95.250755
 11
-98.694572
 21
89.897331
  0
LINE
  8
0
 10
-88.694557
 20
95.250748
 11
-88.694557
 21
89.897308
  0
LINE
  8
0
 10
-88.694557
 20
89.897308
 11
-98.694572
 21
89.897316
  0
LINE
  8
0
 10
-97.594582
 20
88.450752
 11
-97.594582
 21
87.250755
  0
LINE
  8
0
 10
-89.794579
 20
88.450752
 11
-89.794579
 21
87.250755
  0
LINE
  8
0
 10
-103.894547
 20
166.750763
 11
-103.894569
 21
85.750755
  0
LINE
  8
0
 10
-99.994576
 20
87.250755
 11
-107.794579
 21
87.250755
  0
LINE
  8
0
 10
-99.994576
 20
88.450752
 11
-107.794579
 21
88.450752
  0
LINE
  8
0
 10
-96.194572
 20
89.897316
 11
-96.194572
 21
88.450752
  0
LINE
  8
0
 10
-91.194572
 20
89.897308
 11
-91.194572
 21
88.450745
  0
LINE
  8
0
 10
-108.894585
 20
95.250755
 11
-108.894585
 21
89.897331
  0
LINE
  8
0
 10
-98.894569
 20
95.250755
 11
-98.894569
 21
89.897316
  0
LINE
  8
0
 10
-98.894569
 20
89.897316
 11
-108.894569
 21
89.897316
  0
LINE
  8
0
 10
-107.794579
 20
88.450752
 11
-107.794579
 21
87.250755
  0
LINE
  8
0
 10
-99.994576
 20
88.450760
 11
-99.994576
 21
87.250763
  0
LINE
  8
0
 10
-88.594543
 20
165.250748
 11
-88.594566
 21
95.250748
  0
LINE
  8
0
 10
-88.594543
 20
165.250748
 11
-108.994560
 21
165.250763
  0
LINE
  8
0
 10
-88.594566
 20
95.250748
 11
-98.794563
 21
95.250755
  0
LINE
  8
0
 10
-98.794579
 20
95.250755
 11
-108.994576
 21
95.250755
  0
LINE
  8
0
 10
-98.794563
 20
99.650749
 11
-98.794563
 21
95.250755
  0
LINE
  8
0
 10
-108.317207
 20
140.850769
 11
-99.471901
 21
140.850754
  0
LINE
  8
0
 10
-108.317207
 20
161.350769
 11
-99.471901
 21
161.350769
  0
LINE
  8
0
 10
-108.317207
 20
161.350769
 11
-108.317207
 21
140.850769
  0
LINE
  8
0
 10
-99.471901
 20
161.350769
 11
-99.471901
 21
140.850754
  0
LINE
  8
0
 10
-105.394554
 20
155.350769
 11
-102.394554
 21
155.350769
  0
LINE
  8
0
 10
-105.394554
 20
157.350769
 11
-102.394554
 21
157.350769
  0
LINE
  8
0
 10
-105.394554
 20
157.350769
 11
-105.394554
 21
155.350769
  0
LINE
  8
0
 10
-102.394554
 20
157.350769
 11
-102.394554
 21
155.350769
  0
LINE
  8
0
 10
-107.194557
 20
158.650757
 11
-100.594551
 21
158.650757
  0
LINE
  8
0
 10
-107.194557
 20
149.050751
 11
-100.594551
 21
149.050751
  0
LINE
  8
0
 10
-107.194557
 20
158.650757
 11
-107.194557
 21
149.050751
  0
LINE
  8
0
 10
-100.594551
 20
158.650757
 11
-100.594551
 21
149.050751
  0
LINE
  8
0
 10
-106.394554
 20
149.850769
 11
-101.394554
 21
149.850754
  0
LINE
  8
0
 10
-106.394554
 20
153.850769
 11
-101.394554
 21
153.850754
  0
LINE
  8
0
 10
-106.394554
 20
153.850769
 11
-106.394554
 21
149.850769
  0
LINE
  8
0
 10
-101.394554
 20
153.850754
 11
-101.394554
 21
149.850754
  0
LINE
  8
0
 10
-106.494553
 20
137.550751
 11
-101.294556
 21
137.550751
  0
LINE
  8
0
 10
-88.594559
 20
128.350739
 11
-108.994560
 21
128.350739
  0
LINE
  8
0
 10
-108.994568
 20
105.150749
 11
-88.594566
 21
105.150742
  0
LINE
  8
0
 10
-108.594566
 20
99.650749
 11
-88.994568
 21
99.650742
  0
LINE
  8
0
 10
-108.994568
 20
101.150749
 11
-105.594566
 21
101.150749
  0
LINE
  8
0
 10
-105.594566
 20
101.150749
 11
-105.594566
 21
99.650749
  0
LINE
  8
0
 10
-108.094566
 20
100.550743
 11
-106.294563
 21
100.550743
  0
LINE
  8
0
 10
-98.794563
 20
101.150749
 11
-95.394569
 21
101.150742
  0
LINE
  8
0
 10
-97.894569
 20
100.550743
 11
-96.094566
 21
100.550743
  0
LINE
  8
0
 10
-95.394569
 20
101.150742
 11
-95.394569
 21
99.650742
  0
LINE
  8
0
 10
-98.794563
 20
101.150749
 11
-98.794563
 21
99.650749
  0
LINE
  8
0
 10
-98.117195
 20
140.850754
 11
-89.271904
 21
140.850754
  0
LINE
  8
0
 10
-98.117195
 20
161.350769
 11
-89.271904
 21
161.350754
  0
LINE
  8
0
 10
-98.117195
 20
161.350769
 11
-98.117195
 21
140.850754
  0
LINE
  8
0
 10
-89.271904
 20
161.350754
 11
-89.271904
 21
140.850754
  0
LINE
  8
0
 10
-95.194542
 20
155.350754
 11
-92.194542
 21
155.350754
  0
LINE
  8
0
 10
-95.194542
 20
157.350754
 11
-92.194542
 21
157.350754
  0
LINE
  8
0
 10
-95.194542
 20
157.350754
 11
-95.194542
 21
155.350754
  0
LINE
  8
0
 10
-92.194542
 20
157.350754
 11
-92.194542
 21
155.350754
  0
LINE
  8
0
 10
-96.994545
 20
158.650757
 11
-90.394554
 21
158.650757
  0
LINE
  8
0
 10
-96.994545
 20
149.050751
 11
-90.394554
 21
149.050751
  0
LINE
  8
0
 10
-96.994545
 20
158.650757
 11
-96.994545
 21
149.050751
  0
LINE
  8
0
 10
-90.394554
 20
158.650757
 11
-90.394554
 21
149.050751
  0
LINE
  8
0
 10
-96.194542
 20
149.850754
 11
-91.194542
 21
149.850754
  0
LINE
  8
0
 10
-96.194542
 20
153.850754
 11
-91.194542
 21
153.850754
  0
LINE
  8
0
 10
-96.194542
 20
153.850754
 11
-96.194542
 21
149.850754
  0
LINE
  8
0
 10
-91.194542
 20
153.850754
 11
-91.194542
 21
149.850754
  0
LINE
  8
0
 10
-96.294556
 20
137.550751
 11
-91.094559
 21
137.550751
  0
LINE
  8
0
 10
-98.794540
 20
165.250763
 11
-98.794556
 21
128.350739
  0
LINE
  8
0
 10
-106.394569
 20
89.897316
 11
-106.394569
 21
88.450752
  0
LINE
  8
0
 10
-101.394569
 20
89.897316
 11
-101.394569
 21
88.450752
  0
CIRCLE
  8
0
 10
-93.694550
 20
137.550751
 40
0.950000
  0
ARC
  8
0
 10
-96.094566
 20
101.150749
 40
0.600006
 50
270.000000
 51
359.999268
  0
CIRCLE
  8
0
 10
-103.894562
 20
137.550751
 40
0.950000
  0
ARC
  8
0
 10
-106.294563
 20
101.150749
 40
0.599998
 50
270.000000
 51
0.000000
  0
ARC
  8
0
 10
-108.094566
 20
101.150749
 40
0.599998
 50
180.000000
 51
270.000000
  0
ARC
  8
0
 10
-97.894569
 20
101.150749
 40
0.599998
 50
180.000000
 51
270.000000
  0
ARC
  8
0
 10
-88.994568
 20
100.050743
 40
0.400002
 50
270.000000
 51
0.000000
  0
ARC
  8
0
 10
-108.594566
 20
100.050751
 40
0.400002
 50
180.000000
 51
270.000000
  0
POINT
  8
0
 10
-108.994576
 20
46.250771
  0
POINT
  8
0
 10
-88.594582
 20
46.250763
  0
LINE
  8
0
 10
-93.694580
 20
64.750763
 11
-93.694595
 21
23.750765
  0
LINE
  8
0
 10
-89.794579
 20
41.950760
 11
-89.794579
 21
39.950760
  0
LINE
  8
0
 10
-97.594582
 20
41.950764
 11
-97.594582
 21
39.950764
  0
LINE
  8
0
 10
-89.794586
 20
31.550766
 11
-89.794586
 21
29.550766
  0
LINE
  8
0
 10
-97.594589
 20
31.550770
 11
-97.594589
 21
29.550770
  0
LINE
  8
0
 10
-88.594589
 20
25.250763
 11
-98.794586
 21
25.250767
  0
LINE
  8
0
 10
-88.594582
 20
46.250763
 11
-88.594589
 21
25.250763
  0
LINE
  8
0
 10
-88.594582
 20
46.250763
 11
-108.994576
 21
46.250771
  0
LINE
  8
0
 10
-98.794586
 20
25.250767
 11
-108.994583
 21
25.250771
  0
LINE
  8
0
 10
-98.794579
 20
46.250767
 11
-98.794586
 21
25.250767
  0
LINE
  8
0
 10
-98.694580
 20
62.250767
 11
-98.694580
 21
60.250767
  0
LINE
  8
0
 10
-98.894577
 20
62.250767
 11
-98.894577
 21
60.250767
  0
LINE
  8
0
 10
-97.828552
 20
63.250767
 11
-89.560593
 21
63.250763
  0
LINE
  8
0
 10
-108.894577
 20
60.250771
 11
-88.694580
 21
60.250763
  0
LINE
  8
0
 10
-98.694565
 20
62.250767
 11
-88.694580
 21
62.250763
  0
LINE
  8
0
 10
-98.261543
 20
63.000755
 11
-98.694557
 21
62.250751
  0
LINE
  8
0
 10
-89.127563
 20
63.000744
 11
-88.694565
 21
62.250771
  0
LINE
  8
0
 10
-88.694580
 20
62.250763
 11
-88.694588
 21
46.250763
  0
LINE
  8
0
 10
-108.894577
 20
62.250771
 11
-108.894585
 21
46.250771
  0
LINE
  8
0
 10
-108.028549
 20
63.250771
 11
-99.760590
 21
63.250767
  0
LINE
  8
0
 10
-108.894577
 20
62.250771
 11
-98.894577
 21
62.250767
  0
LINE
  8
0
 10
-108.461540
 20
63.000763
 11
-108.894554
 21
62.250763
  0
LINE
  8
0
 10
-99.327545
 20
63.000793
 11
-98.894531
 21
62.250790
  0
LINE
  8
0
 10
-87.794571
 20
30.550766
 11
-109.794586
 21
30.550774
  0
LINE
  8
0
 10
-87.794563
 20
40.950760
 11
-109.794579
 21
40.950768
  0
LINE
  8
0
 10
-103.894577
 20
64.750771
 11
-103.894592
 21
23.750769
  0
LINE
  8
0
 10
-99.994576
 20
41.950764
 11
-99.994576
 21
39.950764
  0
LINE
  8
0
 10
-107.794579
 20
41.950768
 11
-107.794579
 21
39.950768
  0
LINE
  8
0
 10
-99.994583
 20
31.550770
 11
-99.994583
 21
29.550770
  0
LINE
  8
0
 10
-107.794586
 20
31.550774
 11
-107.794586
 21
29.550774
  0
CIRCLE
  8
0
 10
-103.894592
 20
30.550772
 40
2.000000
  0
ARC
  8
0
 10
-103.894592
 20
29.550772
 40
3.900002
 50
179.999939
 51
359.999908
  0
ARC
  8
0
 10
-93.694572
 20
41.950760
 40
3.900002
 50
0.000000
 51
179.999893
  0
ARC
  8
0
 10
-93.694572
 20
39.950760
 40
3.900002
 50
179.999939
 51
359.999939
  0
CIRCLE
  8
0
 10
-93.694572
 20
40.950760
 40
2.000000
  0
ARC
  8
0
 10
-93.694580
 20
31.550768
 40
3.900002
 50
359.999969
 51
179.999908
  0
ARC
  8
0
 10
-93.694580
 20
29.550768
 40
3.899994
 50
179.999939
 51
359.999908
  0
CIRCLE
  8
0
 10
-93.694580
 20
30.550768
 40
2.000000
  0
ARC
  8
0
 10
-97.828537
 20
62.750767
 40
0.500000
 50
90.000000
 51
150.000076
  0
ARC
  8
0
 10
-89.560593
 20
62.750763
 40
0.500001
 50
29.999931
 51
90.000000
  0
ARC
  8
0
 10
-108.028549
 20
62.750771
 40
0.500000
 50
90.000000
 51
150.000076
  0
ARC
  8
0
 10
-99.760590
 20
62.750767
 40
0.500001
 50
29.999931
 51
90.000000
  0
ARC
  8
0
 10
-103.894585
 20
41.950768
 40
3.900002
 50
359.999939
 51
180.000000
  0
ARC
  8
0
 10
-103.894585
 20
39.950768
 40
3.900002
 50
180.000000
 51
359.999878
  0
CIRCLE
  8
0
 10
-103.894585
 20
40.950768
 40
2.000000
  0
ARC
  8
0
 10
-103.894592
 20
31.550772
 40
3.900002
 50
359.999969
 51
179.999908
  0
POINT
  8
0
 10
-193.761627
 20
95.250755
  0
POINT
  8
0
 10
-213.761642
 20
95.250755
  0
LINE
  8
0
 10
-196.761627
 20
161.350708
 11
-197.761658
 21
162.350723
  0
LINE
  8
0
 10
-196.761627
 20
161.350708
 11
-196.761627
 21
140.850754
  0
LINE
  8
0
 10
-219.061646
 20
95.750664
 11
-219.061646
 21
86.235771
  0
LINE
  8
0
 10
-214.161621
 20
87.250755
 11
-223.961624
 21
87.250755
  0
LINE
  8
0
 10
-214.161652
 20
88.450768
 11
-214.161652
 21
87.250771
  0
LINE
  8
0
 10
-223.961655
 20
88.450752
 11
-223.961655
 21
87.250755
  0
LINE
  8
0
 10
-214.161621
 20
88.450752
 11
-223.961624
 21
88.450752
  0
LINE
  8
0
 10
-224.061646
 20
95.250755
 11
-224.061646
 21
89.897331
  0
LINE
  8
0
 10
-214.061646
 20
95.250755
 11
-214.061646
 21
89.897316
  0
LINE
  8
0
 10
-214.061630
 20
89.897316
 11
-224.061630
 21
89.897316
  0
LINE
  8
0
 10
-222.811646
 20
89.897316
 11
-222.811646
 21
88.450752
  0
LINE
  8
0
 10
-215.311646
 20
89.897316
 11
-215.311646
 21
88.450752
  0
LINE
  8
0
 10
-229.461639
 20
95.750664
 11
-229.461639
 21
86.235771
  0
LINE
  8
0
 10
-224.561630
 20
87.250755
 11
-234.361633
 21
87.250763
  0
LINE
  8
0
 10
-224.561646
 20
88.450760
 11
-224.561646
 21
87.250763
  0
LINE
  8
0
 10
-234.361664
 20
88.450760
 11
-234.361664
 21
87.250763
  0
LINE
  8
0
 10
-224.561630
 20
88.450752
 11
-234.361633
 21
88.450760
  0
LINE
  8
0
 10
-234.461639
 20
95.250748
 11
-234.461655
 21
89.897324
  0
LINE
  8
0
 10
-224.461639
 20
95.250755
 11
-224.461639
 21
89.897316
  0
LINE
  8
0
 10
-224.461624
 20
89.897316
 11
-234.461639
 21
89.897324
  0
LINE
  8
0
 10
-233.211655
 20
89.897324
 11
-233.211655
 21
88.450760
  0
LINE
  8
0
 10
-225.711639
 20
89.897316
 11
-225.711639
 21
88.450752
  0
LINE
  8
0
 10
-199.761627
 20
99.650749
 11
-213.761627
 21
99.650749
  0
LINE
  8
0
 10
-199.761627
 20
128.350739
 11
-213.761627
 21
128.350739
  0
LINE
  8
0
 10
-199.761627
 20
105.150749
 11
-213.761627
 21
105.150749
  0
LINE
  8
0
 10
-197.761642
 20
162.350769
 11
-197.761658
 21
139.850739
  0
LINE
  8
0
 10
-197.761627
 20
139.850739
 11
-213.761627
 21
139.850739
  0
LINE
  8
0
 10
-199.761627
 20
162.350739
 11
-199.761627
 21
99.650749
  0
LINE
  8
0
 10
-197.761627
 20
162.350769
 11
-213.761627
 21
162.350769
  0
LINE
  8
0
 10
-197.761627
 20
139.850739
 11
-196.761627
 21
140.850754
  0
POINT
  8
0
 10
190.470840
 20
95.250854
  0
POINT
  8
0
 10
210.870850
 20
95.250854
  0
LINE
  8
0
 10
205.770859
 20
166.750854
 11
205.770859
 21
82.850853
  0
LINE
  8
0
 10
195.570847
 20
166.750854
 11
195.570847
 21
82.850853
  0
LINE
  8
0
 10
210.870850
 20
165.250854
 11
210.870850
 21
95.250854
  0
LINE
  8
0
 10
210.870850
 20
95.250854
 11
190.470840
 21
95.250854
  0
LINE
  8
0
 10
200.670853
 20
165.250854
 11
200.670853
 21
128.350845
  0
LINE
  8
0
 10
210.870850
 20
165.250854
 11
190.470840
 21
165.250854
  0
LINE
  8
0
 10
200.670853
 20
99.650848
 11
200.670853
 21
95.250854
  0
LINE
  8
0
 10
190.470840
 20
139.850861
 11
210.870850
 21
139.850861
  0
LINE
  8
0
 10
190.470840
 20
162.350861
 11
210.870850
 21
162.350861
  0
LINE
  8
0
 10
191.148193
 20
140.850861
 11
199.993500
 21
140.850861
  0
LINE
  8
0
 10
191.148193
 20
161.350861
 11
199.993500
 21
161.350861
  0
LINE
  8
0
 10
191.148193
 20
161.350861
 11
191.148193
 21
140.850861
  0
LINE
  8
0
 10
199.993500
 20
161.350861
 11
199.993500
 21
140.850861
  0
LINE
  8
0
 10
194.070847
 20
155.350861
 11
197.070847
 21
155.350861
  0
LINE
  8
0
 10
194.070847
 20
157.350861
 11
197.070847
 21
157.350861
  0
LINE
  8
0
 10
194.070847
 20
157.350861
 11
194.070847
 21
155.350861
  0
LINE
  8
0
 10
197.070847
 20
157.350861
 11
197.070847
 21
155.350861
  0
LINE
  8
0
 10
192.270844
 20
158.650864
 11
198.870850
 21
158.650864
  0
LINE
  8
0
 10
192.270844
 20
149.050858
 11
198.870850
 21
149.050858
  0
LINE
  8
0
 10
192.270844
 20
158.650864
 11
192.270844
 21
149.050858
  0
LINE
  8
0
 10
198.870850
 20
158.650864
 11
198.870850
 21
149.050858
  0
LINE
  8
0
 10
193.070847
 20
149.850861
 11
198.070847
 21
149.850861
  0
LINE
  8
0
 10
193.070847
 20
153.850861
 11
198.070847
 21
153.850861
  0
LINE
  8
0
 10
193.070847
 20
153.850861
 11
193.070847
 21
149.850861
  0
LINE
  8
0
 10
198.070847
 20
153.850861
 11
198.070847
 21
149.850861
  0
LINE
  8
0
 10
200.770844
 20
128.350845
 11
210.770844
 21
128.350845
  0
LINE
  8
0
 10
192.970856
 20
137.550858
 11
198.170853
 21
137.550858
  0
LINE
  8
0
 10
210.770859
 20
128.350845
 11
190.570847
 21
128.350845
  0
LINE
  8
0
 10
190.470840
 20
105.150848
 11
210.870850
 21
105.150848
  0
LINE
  8
0
 10
190.470840
 20
99.650848
 11
210.870850
 21
99.650848
  0
LINE
  8
0
 10
190.470840
 20
101.150848
 11
193.870850
 21
101.150848
  0
LINE
  8
0
 10
193.870850
 20
101.150848
 11
193.870850
 21
99.650848
  0
LINE
  8
0
 10
191.370850
 20
100.550842
 11
193.170853
 21
100.550842
  0
LINE
  8
0
 10
200.670853
 20
101.150848
 11
204.070847
 21
101.150848
  0
LINE
  8
0
 10
201.570847
 20
100.550842
 11
203.370850
 21
100.550842
  0
LINE
  8
0
 10
204.070847
 20
101.150848
 11
204.070847
 21
99.650848
  0
LINE
  8
0
 10
200.670853
 20
101.150848
 11
200.670853
 21
99.650848
  0
LINE
  8
0
 10
201.348206
 20
140.850861
 11
210.193497
 21
140.850861
  0
LINE
  8
0
 10
201.348206
 20
161.350861
 11
210.193497
 21
161.350861
  0
LINE
  8
0
 10
201.348206
 20
161.350861
 11
201.348206
 21
140.850861
  0
LINE
  8
0
 10
210.193497
 20
161.350861
 11
210.193497
 21
140.850861
  0
LINE
  8
0
 10
204.270859
 20
155.350861
 11
207.270859
 21
155.350861
  0
LINE
  8
0
 10
204.270859
 20
157.350861
 11
207.270859
 21
157.350861
  0
LINE
  8
0
 10
204.270859
 20
157.350861
 11
204.270859
 21
155.350861
  0
LINE
  8
0
 10
207.270859
 20
157.350861
 11
207.270859
 21
155.350861
  0
LINE
  8
0
 10
202.470856
 20
158.650864
 11
209.070847
 21
158.650864
  0
LINE
  8
0
 10
202.470856
 20
149.050858
 11
209.070847
 21
149.050858
  0
LINE
  8
0
 10
202.470856
 20
158.650864
 11
202.470856
 21
149.050858
  0
LINE
  8
0
 10
209.070847
 20
158.650864
 11
209.070847
 21
149.050858
  0
LINE
  8
0
 10
203.270859
 20
149.850861
 11
208.270859
 21
149.850861
  0
LINE
  8
0
 10
203.270859
 20
153.850861
 11
208.270859
 21
153.850861
  0
LINE
  8
0
 10
203.270859
 20
153.850861
 11
203.270859
 21
149.850861
  0
LINE
  8
0
 10
208.270859
 20
153.850861
 11
208.270859
 21
149.850861
  0
LINE
  8
0
 10
203.170853
 20
137.550858
 11
208.370850
 21
137.550858
  0
LINE
  8
0
 10
192.070831
 20
86.997437
 11
192.070831
 21
85.550850
  0
LINE
  8
0
 10
199.070831
 20
86.997437
 11
199.070831
 21
85.550850
  0
LINE
  8
0
 10
200.470825
 20
84.350853
 11
190.670822
 21
84.350853
  0
LINE
  8
0
 10
190.670822
 20
85.550850
 11
190.670822
 21
84.350853
  0
LINE
  8
0
 10
200.470825
 20
85.550850
 11
190.670822
 21
85.550850
  0
LINE
  8
0
 10
200.570847
 20
95.250854
 11
200.570847
 21
86.997421
  0
LINE
  8
0
 10
200.470825
 20
85.550858
 11
200.470825
 21
84.350861
  0
LINE
  8
0
 10
200.570847
 20
86.997437
 11
190.570831
 21
86.997437
  0
LINE
  8
0
 10
202.270844
 20
86.997437
 11
202.270844
 21
85.550850
  0
LINE
  8
0
 10
209.270844
 20
86.997437
 11
209.270844
 21
85.550850
  0
LINE
  8
0
 10
210.670837
 20
84.350853
 11
200.870834
 21
84.350853
  0
LINE
  8
0
 10
200.870834
 20
85.550850
 11
200.870834
 21
84.350853
  0
LINE
  8
0
 10
210.670837
 20
85.550850
 11
200.870834
 21
85.550850
  0
LINE
  8
0
 10
200.770828
 20
95.250854
 11
200.770828
 21
86.997429
  0
LINE
  8
0
 10
210.770844
 20
95.250854
 11
210.770844
 21
86.997421
  0
LINE
  8
0
 10
210.670837
 20
85.550858
 11
210.670837
 21
84.350861
  0
LINE
  8
0
 10
210.770844
 20
86.997437
 11
200.770844
 21
86.997437
  0
LINE
  8
0
 10
190.570847
 20
95.250854
 11
190.570847
 21
86.997437
  0
CIRCLE
  8
0
 10
205.770859
 20
137.550858
 40
1.099999
  0
CIRCLE
  8
0
 10
195.570847
 20
137.550858
 40
1.099999
  0
ARC
  8
0
 10
193.170853
 20
101.150848
 40
0.599998
 50
270.000000
 51
0.000000
  0
ARC
  8
0
 10
191.370850
 20
101.150848
 40
0.600006
 50
180.000000
 51
270.000000
  0
ARC
  8
0
 10
201.570847
 20
101.150848
 40
0.600006
 50
180.000000
 51
270.000000
  0
ARC
  8
0
 10
203.370850
 20
101.150848
 40
0.599998
 50
270.000000
 51
0.000000
  0
POINT
  8
0
 10
190.470856
 20
43.350868
  0
POINT
  8
0
 10
210.870850
 20
43.350872
  0
LINE
  8
0
 10
205.770844
 20
61.850868
 11
205.770844
 21
20.850870
  0
LINE
  8
0
 10
210.870850
 20
22.350872
 11
200.670853
 21
22.350870
  0
LINE
  8
0
 10
210.870850
 20
43.350872
 11
210.870850
 21
22.350872
  0
LINE
  8
0
 10
210.870850
 20
43.350872
 11
190.470856
 21
43.350868
  0
LINE
  8
0
 10
200.670853
 20
22.350870
 11
190.470856
 21
22.350868
  0
LINE
  8
0
 10
200.670853
 20
43.350868
 11
200.670853
 21
22.350870
  0
LINE
  8
0
 10
200.770844
 20
59.350868
 11
200.770844
 21
57.350868
  0
LINE
  8
0
 10
200.570847
 20
59.350868
 11
200.570847
 21
57.350868
  0
LINE
  8
0
 10
201.636871
 20
60.350868
 11
209.904831
 21
60.350872
  0
LINE
  8
0
 10
190.570847
 20
57.350868
 11
210.770859
 21
57.350872
  0
LINE
  8
0
 10
200.770859
 20
59.350868
 11
210.770859
 21
59.350872
  0
LINE
  8
0
 10
201.203888
 20
60.100853
 11
200.770874
 21
59.350853
  0
LINE
  8
0
 10
210.337845
 20
60.100861
 11
210.770874
 21
59.350857
  0
LINE
  8
0
 10
210.770844
 20
59.350872
 11
210.770844
 21
43.350872
  0
LINE
  8
0
 10
190.570847
 20
59.350868
 11
190.570847
 21
43.350868
  0
LINE
  8
0
 10
191.436874
 20
60.350868
 11
199.704834
 21
60.350868
  0
LINE
  8
0
 10
190.570847
 20
59.350868
 11
200.570847
 21
59.350868
  0
LINE
  8
0
 10
191.003891
 20
60.100864
 11
190.570877
 21
59.350861
  0
LINE
  8
0
 10
200.137878
 20
60.100899
 11
200.570892
 21
59.350895
  0
LINE
  8
0
 10
211.670868
 20
27.650875
 11
189.670853
 21
27.650871
  0
LINE
  8
0
 10
211.670868
 20
38.050869
 11
189.670853
 21
38.050865
  0
LINE
  8
0
 10
195.570847
 20
61.850868
 11
195.570847
 21
20.850868
  0
CIRCLE
  8
0
 10
205.770859
 20
27.650875
 40
4.900000
  0
CIRCLE
  8
0
 10
205.770859
 20
38.050869
 40
4.900000
  0
CIRCLE
  8
0
 10
205.770859
 20
38.050869
 40
3.000000
  0
CIRCLE
  8
0
 10
205.770859
 20
27.650875
 40
3.000000
  0
ARC
  8
0
 10
201.636887
 20
59.850868
 40
0.500000
 50
90.000000
 51
150.000076
  0
ARC
  8
0
 10
209.904831
 20
59.850872
 40
0.500001
 50
29.999931
 51
90.000000
  0
ARC
  8
0
 10
191.436874
 20
59.850868
 40
0.500000
 50
90.000000
 51
150.000076
  0
ARC
  8
0
 10
199.704834
 20
59.850868
 40
0.500001
 50
29.999931
 51
90.000000
  0
CIRCLE
  8
0
 10
195.570847
 20
38.050865
 40
3.000000
  0
CIRCLE
  8
0
 10
195.570847
 20
27.650871
 40
3.000000
  0
CIRCLE
  8
0
 10
195.570847
 20
27.650871
 40
4.900000
  0
CIRCLE
  8
0
 10
195.570847
 20
38.050865
 40
4.900000
  0
POINT
  8
0
 10
85.703796
 20
95.250755
  0
POINT
  8
0
 10
105.703812
 20
95.250755
  0
LINE
  8
0
 10
80.403809
 20
95.750664
 11
80.403809
 21
83.335770
  0
LINE
  8
0
 10
70.003799
 20
95.750671
 11
70.003799
 21
83.335777
  0
LINE
  8
0
 10
83.903793
 20
86.997337
 11
83.903793
 21
85.550758
  0
LINE
  8
0
 10
85.303802
 20
84.350754
 11
75.503799
 21
84.350761
  0
LINE
  8
0
 10
75.503784
 20
85.550758
 11
75.503784
 21
84.350761
  0
LINE
  8
0
 10
85.303802
 20
85.550751
 11
75.503799
 21
85.550758
  0
LINE
  8
0
 10
75.403793
 20
95.250763
 11
75.403793
 21
86.997337
  0
LINE
  8
0
 10
85.403809
 20
95.250755
 11
85.403809
 21
86.997322
  0
LINE
  8
0
 10
85.303787
 20
85.550758
 11
85.303787
 21
84.350761
  0
LINE
  8
0
 10
76.903793
 20
86.997345
 11
76.903793
 21
85.550758
  0
LINE
  8
0
 10
73.503799
 20
86.997345
 11
73.503799
 21
85.550758
  0
LINE
  8
0
 10
74.903793
 20
84.350761
 11
65.103790
 21
84.350761
  0
LINE
  8
0
 10
65.103790
 20
85.550751
 11
65.103790
 21
84.350754
  0
LINE
  8
0
 10
74.903793
 20
85.550758
 11
65.103790
 21
85.550758
  0
LINE
  8
0
 10
65.003784
 20
95.250748
 11
65.003784
 21
86.997330
  0
LINE
  8
0
 10
75.003799
 20
95.250763
 11
75.003799
 21
86.997330
  0
LINE
  8
0
 10
74.903793
 20
85.550766
 11
74.903793
 21
84.350769
  0
LINE
  8
0
 10
85.403809
 20
86.997337
 11
75.403793
 21
86.997345
  0
LINE
  8
0
 10
66.503799
 20
86.997345
 11
66.503799
 21
85.550751
  0
LINE
  8
0
 10
99.703812
 20
105.150749
 11
85.703812
 21
105.150749
  0
LINE
  8
0
 10
75.003799
 20
86.997345
 11
65.003799
 21
86.997345
  0
LINE
  8
0
 10
99.703796
 20
99.650749
 11
85.703796
 21
99.650749
  0
LINE
  8
0
 10
101.703812
 20
139.850739
 11
85.703812
 21
139.850739
  0
LINE
  8
0
 10
99.703812
 20
162.350754
 11
99.703796
 21
99.650749
  0
LINE
  8
0
 10
102.703812
 20
161.143646
 11
102.703812
 21
141.057861
  0
LINE
  8
0
 10
101.703827
 20
139.850754
 11
102.557381
 21
140.704315
  0
LINE
  8
0
 10
102.557358
 20
161.497162
 11
101.703804
 21
162.350723
  0
LINE
  8
0
 10
85.703819
 20
162.350769
 11
101.703781
 21
162.350754
  0
LINE
  8
0
 10
101.703812
 20
162.350754
 11
101.703812
 21
139.850754
  0
LINE
  8
0
 10
92.703819
 20
163.558655
 11
92.703796
 21
98.477989
  0
LINE
  8
0
 10
99.703804
 20
128.350739
 11
85.703804
 21
128.350739
  0
ARC
  8
0
 10
102.203812
 20
161.143646
 40
0.500000
 50
0.000000
 51
44.998764
  0
ARC
  8
0
 10
102.203812
 20
141.057861
 40
0.499995
 50
315.000610
 51
0.000000
  0
POINT
  8
0
 10
-82.913269
 20
-86.845688
  0
POINT
  8
0
 10
-103.313278
 20
-86.845688
  0
LINE
  8
0
 10
-88.013275
 20
-15.345688
 11
-88.013275
 21
-110.245682
  0
LINE
  8
0
 10
-83.813324
 20
-91.845665
 11
-83.013313
 21
-90.956764
  0
LINE
  8
0
 10
-87.013275
 20
-91.945694
 11
-89.013275
 21
-91.945694
  0
LINE
  8
0
 10
-87.013275
 20
-99.745697
 11
-89.013275
 21
-99.745697
  0
LINE
  8
0
 10
-84.013275
 20
-91.845688
 11
-84.013275
 21
-93.145691
  0
LINE
  8
0
 10
-92.013275
 20
-91.845688
 11
-92.013275
 21
-93.145691
  0
LINE
  8
0
 10
-84.013275
 20
-93.145691
 11
-84.199020
 21
-93.145691
  0
LINE
  8
0
 10
-91.827530
 20
-93.145691
 11
-92.013275
 21
-93.145691
  0
LINE
  8
0
 10
-83.813278
 20
-91.845688
 11
-92.213257
 21
-91.845688
  0
LINE
  8
0
 10
-93.013275
 20
-90.956802
 11
-83.013275
 21
-90.956802
  0
LINE
  8
0
 10
-92.213272
 20
-91.845680
 11
-93.013268
 21
-90.956795
  0
LINE
  8
0
 10
-92.013275
 20
-100.559998
 11
-92.013275
 21
-101.845642
  0
LINE
  8
0
 10
-84.013275
 20
-100.559998
 11
-84.013275
 21
-101.845688
  0
LINE
  8
0
 10
-92.013260
 20
-101.845688
 11
-91.505264
 21
-101.845688
  0
LINE
  8
0
 10
-83.013275
 20
-86.845688
 11
-83.013275
 21
-100.560013
  0
LINE
  8
0
 10
-93.013275
 20
-86.845688
 11
-93.013275
 21
-100.559998
  0
LINE
  8
0
 10
-93.013275
 20
-100.559998
 11
-83.013275
 21
-100.559998
  0
LINE
  8
0
 10
-87.013275
 20
-108.745682
 11
-89.013275
 21
-108.745682
  0
LINE
  8
0
 10
-87.013275
 20
-100.945679
 11
-89.013275
 21
-100.945679
  0
LINE
  8
0
 10
-84.521286
 20
-101.845688
 11
-84.013260
 21
-101.845688
  0
LINE
  8
0
 10
-98.213272
 20
-15.345688
 11
-98.213272
 21
-110.245682
  0
LINE
  8
0
 10
-82.013275
 20
-95.845688
 11
-104.213272
 21
-95.845688
  0
LINE
  8
0
 10
-94.013283
 20
-91.845657
 11
-93.213280
 21
-90.956772
  0
LINE
  8
0
 10
-99.213272
 20
-99.745682
 11
-97.213272
 21
-99.745682
  0
LINE
  8
0
 10
-99.213272
 20
-91.945679
 11
-97.213272
 21
-91.945679
  0
LINE
  8
0
 10
-94.213272
 20
-91.845688
 11
-94.213272
 21
-93.145691
  0
LINE
  8
0
 10
-102.213272
 20
-91.845688
 11
-102.213272
 21
-93.145691
  0
LINE
  8
0
 10
-94.213287
 20
-93.145691
 11
-94.399017
 21
-93.145691
  0
LINE
  8
0
 10
-102.027527
 20
-93.145691
 11
-102.213272
 21
-93.145691
  0
LINE
  8
0
 10
-94.013290
 20
-91.845688
 11
-102.413269
 21
-91.845688
  0
LINE
  8
0
 10
-103.213272
 20
-90.956802
 11
-93.213272
 21
-90.956802
  0
LINE
  8
0
 10
-102.413277
 20
-91.845688
 11
-103.213280
 21
-90.956802
  0
LINE
  8
0
 10
-102.213272
 20
-100.559998
 11
-102.213272
 21
-101.845642
  0
LINE
  8
0
 10
-94.213272
 20
-100.559998
 11
-94.213272
 21
-101.845688
  0
LINE
  8
0
 10
-102.213272
 20
-101.845688
 11
-101.705261
 21
-101.845688
  0
LINE
  8
0
 10
-104.213272
 20
-104.845688
 11
-82.013275
 21
-104.845688
  0
LINE
  8
0
 10
-93.213272
 20
-86.845688
 11
-93.213272
 21
-100.560013
  0
LINE
  8
0
 10
-103.213272
 20
-86.845688
 11
-103.213272
 21
-100.559998
  0
LINE
  8
0
 10
-103.213272
 20
-100.559998
 11
-93.213272
 21
-100.559998
  0
LINE
  8
0
 10
-97.213272
 20
-108.745682
 11
-99.213272
 21
-108.745682
  0
LINE
  8
0
 10
-97.213272
 20
-100.945679
 11
-99.213272
 21
-100.945679
  0
LINE
  8
0
 10
-94.721298
 20
-101.845688
 11
-94.213272
 21
-101.845688
  0
LINE
  8
0
 10
-82.913269
 20
-16.845688
 11
-82.913269
 21
-86.845688
  0
LINE
  8
0
 10
-82.913269
 20
-86.845688
 11
-93.113266
 21
-86.845688
  0
LINE
  8
0
 10
-93.113266
 20
-16.845688
 11
-93.113266
 21
-53.745697
  0
LINE
  8
0
 10
-82.913269
 20
-16.845688
 11
-103.313271
 21
-16.845688
  0
LINE
  8
0
 10
-93.113281
 20
-86.845688
 11
-103.313278
 21
-86.845688
  0
LINE
  8
0
 10
-93.113266
 20
-82.445694
 11
-93.113266
 21
-86.845688
  0
LINE
  8
0
 10
-103.213272
 20
-42.245682
 11
-82.913269
 21
-42.245682
  0
LINE
  8
0
 10
-103.313278
 20
-19.745682
 11
-82.913269
 21
-19.745682
  0
LINE
  8
0
 10
-102.635925
 20
-41.245682
 11
-93.790619
 21
-41.245682
  0
LINE
  8
0
 10
-102.635925
 20
-20.745682
 11
-93.790619
 21
-20.745682
  0
LINE
  8
0
 10
-102.635925
 20
-20.745682
 11
-102.635925
 21
-41.245682
  0
LINE
  8
0
 10
-93.790619
 20
-20.745682
 11
-93.790619
 21
-41.245682
  0
LINE
  8
0
 10
-99.713272
 20
-26.745697
 11
-96.713272
 21
-26.745697
  0
LINE
  8
0
 10
-99.713272
 20
-24.745697
 11
-96.713272
 21
-24.745697
  0
LINE
  8
0
 10
-99.713272
 20
-24.745697
 11
-99.713272
 21
-26.745697
  0
LINE
  8
0
 10
-96.713272
 20
-24.745697
 11
-96.713272
 21
-26.745697
  0
LINE
  8
0
 10
-101.513275
 20
-23.445694
 11
-94.913269
 21
-23.445694
  0
LINE
  8
0
 10
-101.513275
 20
-33.045685
 11
-94.913269
 21
-33.045685
  0
LINE
  8
0
 10
-101.513275
 20
-23.445694
 11
-101.513275
 21
-33.045685
  0
LINE
  8
0
 10
-94.913269
 20
-23.445694
 11
-94.913269
 21
-33.045685
  0
LINE
  8
0
 10
-100.713272
 20
-32.245682
 11
-95.713272
 21
-32.245682
  0
LINE
  8
0
 10
-100.713272
 20
-28.245682
 11
-95.713272
 21
-28.245682
  0
LINE
  8
0
 10
-100.713272
 20
-28.245682
 11
-100.713272
 21
-32.245682
  0
LINE
  8
0
 10
-95.713272
 20
-28.245682
 11
-95.713272
 21
-32.245682
  0
LINE
  8
0
 10
-93.013275
 20
-53.745697
 11
-83.013275
 21
-53.745697
  0
LINE
  8
0
 10
-100.813263
 20
-44.545685
 11
-95.613266
 21
-44.545685
  0
LINE
  8
0
 10
-83.013260
 20
-53.745697
 11
-103.213272
 21
-53.745697
  0
LINE
  8
0
 10
-103.213272
 20
-76.945694
 11
-83.013260
 21
-76.945694
  0
LINE
  8
0
 10
-103.313278
 20
-82.445694
 11
-82.913269
 21
-82.445694
  0
LINE
  8
0
 10
-92.435913
 20
-41.245682
 11
-83.590622
 21
-41.245682
  0
LINE
  8
0
 10
-92.435913
 20
-20.745682
 11
-83.590622
 21
-20.745682
  0
LINE
  8
0
 10
-92.435913
 20
-20.745682
 11
-92.435913
 21
-41.245682
  0
LINE
  8
0
 10
-83.590622
 20
-20.745682
 11
-83.590622
 21
-41.245682
  0
LINE
  8
0
 10
-89.513260
 20
-26.745697
 11
-86.513260
 21
-26.745697
  0
LINE
  8
0
 10
-89.513260
 20
-24.745697
 11
-86.513260
 21
-24.745697
  0
LINE
  8
0
 10
-89.513260
 20
-24.745697
 11
-89.513260
 21
-26.745697
  0
LINE
  8
0
 10
-86.513260
 20
-24.745697
 11
-86.513260
 21
-26.745697
  0
LINE
  8
0
 10
-91.313263
 20
-23.445694
 11
-84.713272
 21
-23.445694
  0
LINE
  8
0
 10
-91.313263
 20
-33.045685
 11
-84.713272
 21
-33.045685
  0
LINE
  8
0
 10
-91.313263
 20
-23.445694
 11
-91.313263
 21
-33.045685
  0
LINE
  8
0
 10
-84.713272
 20
-23.445694
 11
-84.713272
 21
-33.045685
  0
LINE
  8
0
 10
-90.513260
 20
-32.245682
 11
-85.513260
 21
-32.245682
  0
LINE
  8
0
 10
-90.513260
 20
-28.245682
 11
-85.513260
 21
-28.245682
  0
LINE
  8
0
 10
-90.513260
 20
-28.245682
 11
-90.513260
 21
-32.245682
  0
LINE
  8
0
 10
-85.513260
 20
-28.245682
 11
-85.513260
 21
-32.245682
  0
LINE
  8
0
 10
-90.613266
 20
-44.545685
 11
-85.413269
 21
-44.545685
  0
CIRCLE
  8
0
 10
-88.013260
 20
-44.545685
 40
1.099999
  0
ARC
  8
0
 10
-87.013275
 20
-95.845688
 40
3.900002
 50
270.000122
 51
90.000114
  0
CIRCLE
  8
0
 10
-88.013275
 20
-95.845688
 40
2.000000
  0
ARC
  8
0
 10
-89.013275
 20
-95.845688
 40
3.900002
 50
90.000114
 51
270.000000
  0
ARC
  8
0
 10
-87.013275
 20
-104.845688
 40
3.900002
 50
270.000000
 51
90.000000
  0
CIRCLE
  8
0
 10
-88.013275
 20
-104.845688
 40
2.000000
  0
ARC
  8
0
 10
-89.013275
 20
-104.845688
 40
3.900002
 50
90.000000
 51
270.000000
  0
ARC
  8
0
 10
-99.213272
 20
-95.845688
 40
3.900002
 50
90.000000
 51
270.000000
  0
ARC
  8
0
 10
-98.363266
 20
-95.845688
 40
4.000000
 50
90.000000
 51
102.851646
  0
CIRCLE
  8
0
 10
-98.213272
 20
-95.845688
 40
2.000000
  0
ARC
  8
0
 10
-97.213272
 20
-95.845688
 40
3.900002
 50
270.000122
 51
90.000000
  0
ARC
  8
0
 10
-97.213272
 20
-104.845688
 40
3.900002
 50
270.000000
 51
90.000000
  0
CIRCLE
  8
0
 10
-98.213272
 20
-104.845688
 40
2.000000
  0
ARC
  8
0
 10
-99.213272
 20
-104.845688
 40
3.900002
 50
90.000000
 51
270.000000
  0
CIRCLE
  8
0
 10
-98.213272
 20
-44.545685
 40
1.099999
  0
POINT
  8
0
 10
-103.313278
 20
-148.310059
  0
POINT
  8
0
 10
-82.913269
 20
-148.310059
  0
POINT
  8
0
 10
-103.313278
 20
-148.310059
  0
POINT
  8
0
 10
-103.313278
 20
-148.310059
  0
LINE
  8
0
 10
-82.113251
 20
-153.610077
 11
-93.913269
 21
-153.610062
  0
LINE
  8
0
 10
-88.013283
 20
-170.810059
 11
-88.013268
 21
-129.810059
  0
LINE
  8
0
 10
-84.613266
 20
-148.260071
 11
-84.613266
 21
-148.610062
  0
LINE
  8
0
 10
-91.413269
 20
-148.260071
 11
-91.413269
 21
-148.610062
  0
LINE
  8
0
 10
-84.613266
 20
-148.260071
 11
-91.413284
 21
-148.260071
  0
LINE
  8
0
 10
-84.013260
 20
-147.760071
 11
-92.013260
 21
-147.760071
  0
LINE
  8
0
 10
-84.613274
 20
-148.260040
 11
-84.013275
 21
-147.760056
  0
LINE
  8
0
 10
-92.013283
 20
-147.760071
 11
-91.413277
 21
-148.260086
  0
LINE
  8
0
 10
-84.013275
 20
-147.760071
 11
-84.013275
 21
-140.810074
  0
LINE
  8
0
 10
-92.013275
 20
-147.760071
 11
-92.013275
 21
-140.810074
  0
LINE
  8
0
 10
-84.013260
 20
-140.810059
 11
-92.013260
 21
-140.810059
  0
LINE
  8
0
 10
-91.913269
 20
-140.810074
 11
-91.913269
 21
-140.010071
  0
LINE
  8
0
 10
-84.113266
 20
-140.010071
 11
-91.913269
 21
-140.010071
  0
LINE
  8
0
 10
-84.113266
 20
-140.810074
 11
-84.113266
 21
-140.010071
  0
LINE
  8
0
 10
-85.513275
 20
-140.010071
 11
-85.513275
 21
-139.410065
  0
LINE
  8
0
 10
-83.113266
 20
-139.410065
 11
-92.913269
 21
-139.410065
  0
LINE
  8
0
 10
-90.513275
 20
-140.010071
 11
-90.513275
 21
-139.410065
  0
LINE
  8
0
 10
-92.913269
 20
-139.410065
 11
-92.913269
 21
-138.210068
  0
LINE
  8
0
 10
-83.113266
 20
-138.210083
 11
-92.913269
 21
-138.210068
  0
LINE
  8
0
 10
-83.113266
 20
-139.410065
 11
-83.113266
 21
-138.210083
  0
LINE
  8
0
 10
-91.913284
 20
-151.210052
 11
-91.913284
 21
-150.410065
  0
LINE
  8
0
 10
-84.613281
 20
-158.660065
 11
-84.613289
 21
-164.010056
  0
LINE
  8
0
 10
-91.413284
 20
-158.660065
 11
-91.413292
 21
-164.010056
  0
LINE
  8
0
 10
-83.113281
 20
-149.810059
 11
-92.913284
 21
-149.810059
  0
LINE
  8
0
 10
-84.013275
 20
-158.160049
 11
-84.013275
 21
-151.210052
  0
LINE
  8
0
 10
-84.013275
 20
-151.210052
 11
-92.013275
 21
-151.210052
  0
LINE
  8
0
 10
-84.613266
 20
-158.660049
 11
-91.413269
 21
-158.660049
  0
LINE
  8
0
 10
-84.013275
 20
-158.160049
 11
-92.013275
 21
-158.160049
  0
LINE
  8
0
 10
-92.013290
 20
-158.160065
 11
-91.413300
 21
-158.660065
  0
LINE
  8
0
 10
-84.613289
 20
-158.660034
 11
-84.013290
 21
-158.160034
  0
LINE
  8
0
 10
-84.113266
 20
-150.410049
 11
-91.913269
 21
-150.410049
  0
LINE
  8
0
 10
-84.113281
 20
-151.210052
 11
-84.113281
 21
-150.410065
  0
LINE
  8
0
 10
-92.013275
 20
-158.160049
 11
-92.013275
 21
-151.210052
  0
LINE
  8
0
 10
-92.913284
 20
-149.810059
 11
-92.913284
 21
-148.610062
  0
LINE
  8
0
 10
-83.113281
 20
-149.810059
 11
-83.113281
 21
-148.610062
  0
LINE
  8
0
 10
-83.113281
 20
-148.610062
 11
-92.913284
 21
-148.610062
  0
LINE
  8
0
 10
-91.413269
 20
-149.810059
 11
-91.413269
 21
-150.410049
  0
LINE
  8
0
 10
-84.613266
 20
-149.810059
 11
-84.613266
 21
-150.410049
  0
LINE
  8
0
 10
-82.913277
 20
-169.310059
 11
-93.113274
 21
-169.310059
  0
LINE
  8
0
 10
-82.913269
 20
-148.310059
 11
-82.913277
 21
-169.310059
  0
LINE
  8
0
 10
-82.913269
 20
-148.610062
 11
-83.113281
 21
-148.610062
  0
LINE
  8
0
 10
-82.913269
 20
-148.310059
 11
-84.613266
 21
-148.310059
  0
LINE
  8
0
 10
-93.113266
 20
-148.310059
 11
-94.813278
 21
-148.310059
  0
LINE
  8
0
 10
-93.113274
 20
-169.310059
 11
-103.313271
 21
-169.310059
  0
LINE
  8
0
 10
-93.113266
 20
-148.310059
 11
-93.113274
 21
-169.310059
  0
LINE
  8
0
 10
-103.113281
 20
-148.610062
 11
-103.313278
 21
-148.610062
  0
LINE
  8
0
 10
-93.013268
 20
-132.310059
 11
-93.013268
 21
-134.310059
  0
LINE
  8
0
 10
-93.213264
 20
-132.310059
 11
-93.213264
 21
-134.310059
  0
LINE
  8
0
 10
-92.147240
 20
-131.310059
 11
-83.879280
 21
-131.310059
  0
LINE
  8
0
 10
-103.213264
 20
-134.310059
 11
-83.013252
 21
-134.310059
  0
LINE
  8
0
 10
-93.013252
 20
-132.310059
 11
-83.013252
 21
-132.310059
  0
LINE
  8
0
 10
-92.580223
 20
-131.560089
 11
-93.013237
 21
-132.310089
  0
LINE
  8
0
 10
-83.446259
 20
-131.560089
 11
-83.013237
 21
-132.310089
  0
LINE
  8
0
 10
-83.013268
 20
-132.310059
 11
-83.013275
 21
-148.310059
  0
LINE
  8
0
 10
-103.213264
 20
-132.310059
 11
-103.213272
 21
-148.310059
  0
LINE
  8
0
 10
-102.347237
 20
-131.310059
 11
-94.079277
 21
-131.310059
  0
LINE
  8
0
 10
-103.213264
 20
-132.310059
 11
-93.213264
 21
-132.310059
  0
LINE
  8
0
 10
-102.780205
 20
-131.560074
 11
-103.213219
 21
-132.310074
  0
LINE
  8
0
 10
-93.646225
 20
-131.560028
 11
-93.213211
 21
-132.310028
  0
LINE
  8
0
 10
-94.813278
 20
-148.260071
 11
-94.813278
 21
-148.610062
  0
LINE
  8
0
 10
-101.613281
 20
-148.260071
 11
-101.613281
 21
-148.610062
  0
LINE
  8
0
 10
-94.813263
 20
-148.260071
 11
-101.613281
 21
-148.260071
  0
LINE
  8
0
 10
-94.213272
 20
-147.760071
 11
-102.213272
 21
-147.760071
  0
LINE
  8
0
 10
-94.813293
 20
-148.260040
 11
-94.213295
 21
-147.760040
  0
LINE
  8
0
 10
-102.213280
 20
-147.760071
 11
-101.613274
 21
-148.260086
  0
LINE
  8
0
 10
-94.213272
 20
-147.760071
 11
-94.213272
 21
-140.810074
  0
LINE
  8
0
 10
-102.213272
 20
-147.760071
 11
-102.213272
 21
-140.810074
  0
LINE
  8
0
 10
-94.213272
 20
-140.810059
 11
-102.213272
 21
-140.810059
  0
LINE
  8
0
 10
-102.113281
 20
-140.810074
 11
-102.113281
 21
-140.010071
  0
LINE
  8
0
 10
-94.313263
 20
-140.010071
 11
-102.113266
 21
-140.010071
  0
LINE
  8
0
 10
-94.313278
 20
-140.810074
 11
-94.313278
 21
-140.010071
  0
LINE
  8
0
 10
-95.713272
 20
-140.010071
 11
-95.713272
 21
-139.410065
  0
LINE
  8
0
 10
-93.313278
 20
-139.410065
 11
-103.113281
 21
-139.410065
  0
LINE
  8
0
 10
-100.713272
 20
-140.010071
 11
-100.713272
 21
-139.410065
  0
LINE
  8
0
 10
-103.113281
 20
-139.410065
 11
-103.113281
 21
-138.210068
  0
LINE
  8
0
 10
-93.313278
 20
-138.210068
 11
-103.113281
 21
-138.210068
  0
LINE
  8
0
 10
-93.313278
 20
-139.410065
 11
-93.313278
 21
-138.210068
  0
LINE
  8
0
 10
-102.113281
 20
-151.210052
 11
-102.113281
 21
-150.410065
  0
LINE
  8
0
 10
-94.813278
 20
-158.660065
 11
-94.813286
 21
-164.010056
  0
LINE
  8
0
 10
-101.613281
 20
-158.660065
 11
-101.613289
 21
-164.010056
  0
LINE
  8
0
 10
-93.313278
 20
-149.810059
 11
-103.113281
 21
-149.810059
  0
LINE
  8
0
 10
-94.213287
 20
-158.160049
 11
-94.213287
 21
-151.210052
  0
LINE
  8
0
 10
-100.713287
 20
-150.410065
 11
-100.713287
 21
-149.810059
  0
LINE
  8
0
 10
-94.213272
 20
-151.210052
 11
-102.213272
 21
-151.210052
  0
LINE
  8
0
 10
-94.813278
 20
-158.660049
 11
-101.613281
 21
-158.660049
  0
LINE
  8
0
 10
-94.213272
 20
-158.160049
 11
-102.213272
 21
-158.160049
  0
LINE
  8
0
 10
-102.213303
 20
-158.160065
 11
-101.613297
 21
-158.660065
  0
LINE
  8
0
 10
-94.813293
 20
-158.660049
 11
-94.213295
 21
-158.160049
  0
LINE
  8
0
 10
-94.313278
 20
-150.410049
 11
-102.113281
 21
-150.410049
  0
LINE
  8
0
 10
-94.313278
 20
-151.210052
 11
-94.313278
 21
-150.410065
  0
LINE
  8
0
 10
-102.213287
 20
-158.160049
 11
-102.213287
 21
-151.210052
  0
LINE
  8
0
 10
-103.113281
 20
-149.810059
 11
-103.113281
 21
-148.610062
  0
LINE
  8
0
 10
-93.313278
 20
-149.810059
 11
-93.313278
 21
-148.610062
  0
LINE
  8
0
 10
-93.313278
 20
-148.610062
 11
-103.113281
 21
-148.610062
  0
LINE
  8
0
 10
-101.613281
 20
-149.810059
 11
-101.613281
 21
-150.410049
  0
LINE
  8
0
 10
-94.813278
 20
-149.810059
 11
-94.813278
 21
-150.410049
  0
LINE
  8
0
 10
-92.313263
 20
-153.610062
 11
-104.113266
 21
-153.610062
  0
LINE
  8
0
 10
-98.213280
 20
-170.810059
 11
-98.213264
 21
-129.810059
  0
LINE
  8
0
 10
-101.613281
 20
-148.310059
 11
-103.313263
 21
-148.310059
  0
LINE
  8
0
 10
-92.913284
 20
-148.610062
 11
-93.313278
 21
-148.610062
  0
LINE
  8
0
 10
-91.413269
 20
-148.310059
 11
-93.113266
 21
-148.310059
  0
ARC
  8
0
 10
-88.013283
 20
-164.010056
 40
3.400002
 50
180.000000
 51
359.999756
  0
ARC
  8
0
 10
-92.147224
 20
-131.810059
 40
0.500000
 50
90.000000
 51
150.000076
  0
ARC
  8
0
 10
-83.879280
 20
-131.810059
 40
0.499994
 50
30.000368
 51
90.000000
  0
ARC
  8
0
 10
-102.347237
 20
-131.810059
 40
0.500000
 50
90.000000
 51
150.000076
  0
ARC
  8
0
 10
-94.079277
 20
-131.810059
 40
0.500001
 50
29.999931
 51
90.000000
  0
ARC
  8
0
 10
-98.213280
 20
-164.010056
 40
3.400002
 50
180.000000
 51
0.000000
  0
POINT
  8
0
 10
-208.080322
 20
-86.845779
  0
POINT
  8
0
 10
-188.080307
 20
-86.845779
  0
LINE
  8
0
 10
-208.380310
 20
-90.956894
 11
-218.380310
 21
-90.956894
  0
LINE
  8
0
 10
-200.580322
 20
-98.345779
 11
-199.180313
 21
-98.345779
  0
LINE
  8
0
 10
-199.180298
 20
-91.945786
 11
-197.980301
 21
-91.945786
  0
LINE
  8
0
 10
-217.380310
 20
-90.956886
 11
-217.380310
 21
-96.745773
  0
LINE
  8
0
 10
-209.380310
 20
-90.956894
 11
-209.380310
 21
-92.945786
  0
LINE
  8
0
 10
-214.280304
 20
-99.845779
 11
-200.580322
 21
-99.845779
  0
LINE
  8
0
 10
-207.680313
 20
-91.845779
 11
-200.580307
 21
-91.845779
  0
LINE
  8
0
 10
-209.380310
 20
-92.945786
 11
-207.680313
 21
-92.945786
  0
LINE
  8
0
 10
-207.680313
 20
-91.845779
 11
-207.680313
 21
-99.845779
  0
LINE
  8
0
 10
-200.580322
 20
-91.845779
 11
-200.580322
 21
-99.845779
  0
LINE
  8
0
 10
-197.980316
 20
-91.945778
 11
-197.980316
 21
-99.745781
  0
LINE
  8
0
 10
-199.180313
 20
-91.945778
 11
-199.180313
 21
-99.745781
  0
LINE
  8
0
 10
-200.580322
 20
-93.345779
 11
-199.180298
 21
-93.345779
  0
LINE
  8
0
 10
-199.180298
 20
-99.745781
 11
-197.980316
 21
-99.745781
  0
LINE
  8
0
 10
-208.380310
 20
-86.845779
 11
-208.380310
 21
-90.956894
  0
LINE
  8
0
 10
-218.380310
 20
-86.845772
 11
-218.380310
 21
-90.956886
  0
LINE
  8
0
 10
-227.780319
 20
-100.560059
 11
-227.780319
 21
-105.745781
  0
LINE
  8
0
 10
-219.780319
 20
-100.560059
 11
-219.780319
 21
-101.945778
  0
LINE
  8
0
 10
-224.680313
 20
-108.845779
 11
-210.980316
 21
-108.845779
  0
LINE
  8
0
 10
-218.080322
 20
-100.845779
 11
-210.980316
 21
-100.845779
  0
LINE
  8
0
 10
-219.780334
 20
-101.945786
 11
-218.080338
 21
-101.945786
  0
LINE
  8
0
 10
-218.080322
 20
-100.845772
 11
-218.080322
 21
-108.845779
  0
LINE
  8
0
 10
-210.980316
 20
-100.845772
 11
-210.980316
 21
-108.845772
  0
LINE
  8
0
 10
-208.380325
 20
-100.945786
 11
-208.380325
 21
-108.745773
  0
LINE
  8
0
 10
-209.580322
 20
-100.945786
 11
-209.580322
 21
-108.745773
  0
LINE
  8
0
 10
-210.980331
 20
-102.345779
 11
-209.580322
 21
-102.345779
  0
LINE
  8
0
 10
-210.980331
 20
-107.345779
 11
-209.580307
 21
-107.345779
  0
LINE
  8
0
 10
-209.580322
 20
-100.945786
 11
-208.380310
 21
-100.945786
  0
LINE
  8
0
 10
-209.580307
 20
-108.745781
 11
-208.380310
 21
-108.745781
  0
LINE
  8
0
 10
-218.780319
 20
-86.845772
 11
-218.780319
 21
-100.560059
  0
LINE
  8
0
 10
-228.780319
 20
-86.845787
 11
-228.780319
 21
-100.560051
  0
LINE
  8
0
 10
-228.780304
 20
-100.560059
 11
-218.780304
 21
-100.560066
  0
LINE
  8
0
 10
-192.080292
 20
-42.245792
 11
-208.080307
 21
-42.245789
  0
LINE
  8
0
 10
-194.080307
 20
-19.745796
 11
-194.080322
 21
-82.445793
  0
LINE
  8
0
 10
-191.080307
 20
-20.952904
 11
-191.080307
 21
-41.038670
  0
LINE
  8
0
 10
-192.080292
 20
-42.245796
 11
-191.226746
 21
-41.392242
  0
LINE
  8
0
 10
-191.226776
 20
-20.599365
 11
-192.080338
 21
-19.745811
  0
LINE
  8
0
 10
-208.080292
 20
-19.745773
 11
-192.080292
 21
-19.745781
  0
LINE
  8
0
 10
-192.080307
 20
-19.745796
 11
-192.080307
 21
-42.245777
  0
LINE
  8
0
 10
-194.080307
 20
-53.745792
 11
-208.080307
 21
-53.745789
  0
LINE
  8
0
 10
-194.080307
 20
-76.945786
 11
-208.080307
 21
-76.945786
  0
LINE
  8
0
 10
-194.080322
 20
-82.445786
 11
-208.080322
 21
-82.445786
  0
ARC
  8
0
 10
-191.580292
 20
-20.952904
 40
0.500000
 50
0.000000
 51
45.000618
  0
ARC
  8
0
 10
-214.280304
 20
-96.745773
 40
3.100006
 50
180.000137
 51
270.000000
  0
ARC
  8
0
 10
-224.680313
 20
-105.745781
 40
3.099991
 50
180.000000
 51
270.000275
  0
ARC
  8
0
 10
-191.580292
 20
-41.038677
 40
0.499995
 50
314.999390
 51
0.000000
  0
POINT
  8
0
 10
190.456223
 20
-87.845688
  0
POINT
  8
0
 10
210.856232
 20
-87.845695
  0
LINE
  8
0
 10
205.756256
 20
-15.345695
 11
205.756241
 21
-91.345695
  0
LINE
  8
0
 10
210.756241
 20
-87.845695
 11
210.756241
 21
-89.845695
  0
LINE
  8
0
 10
195.556244
 20
-15.345688
 11
195.556229
 21
-91.345688
  0
LINE
  8
0
 10
190.556229
 20
-87.845688
 11
190.556229
 21
-89.845688
  0
LINE
  8
0
 10
210.856247
 20
-16.845695
 11
210.856232
 21
-87.845695
  0
LINE
  8
0
 10
210.856247
 20
-16.845695
 11
190.456253
 21
-16.845688
  0
LINE
  8
0
 10
210.856232
 20
-86.545708
 11
200.656235
 21
-86.545700
  0
LINE
  8
0
 10
210.856232
 20
-86.845695
 11
200.656235
 21
-86.845688
  0
LINE
  8
0
 10
200.656250
 20
-16.845688
 11
200.656250
 21
-53.745701
  0
LINE
  8
0
 10
200.656219
 20
-86.545700
 11
190.456223
 21
-86.545700
  0
LINE
  8
0
 10
200.656219
 20
-86.845688
 11
190.456223
 21
-86.845688
  0
LINE
  8
0
 10
200.656235
 20
-82.445694
 11
200.656235
 21
-86.845688
  0
LINE
  8
0
 10
190.456238
 20
-19.745682
 11
210.856247
 21
-19.745689
  0
LINE
  8
0
 10
191.133591
 20
-41.245682
 11
199.978897
 21
-41.245686
  0
LINE
  8
0
 10
191.133591
 20
-20.745682
 11
199.978897
 21
-20.745682
  0
LINE
  8
0
 10
191.133591
 20
-20.745682
 11
191.133591
 21
-41.245682
  0
LINE
  8
0
 10
199.978897
 20
-20.745682
 11
199.978897
 21
-41.245686
  0
LINE
  8
0
 10
194.056244
 20
-26.745682
 11
197.056244
 21
-26.745682
  0
LINE
  8
0
 10
194.056244
 20
-24.745682
 11
197.056244
 21
-24.745682
  0
LINE
  8
0
 10
194.056244
 20
-24.745682
 11
194.056244
 21
-26.745682
  0
LINE
  8
0
 10
197.056244
 20
-24.745682
 11
197.056244
 21
-26.745682
  0
LINE
  8
0
 10
192.256241
 20
-23.445679
 11
198.856247
 21
-23.445679
  0
LINE
  8
0
 10
192.256241
 20
-33.045685
 11
198.856247
 21
-33.045689
  0
LINE
  8
0
 10
192.256241
 20
-23.445679
 11
192.256241
 21
-33.045685
  0
LINE
  8
0
 10
198.856247
 20
-23.445679
 11
198.856247
 21
-33.045689
  0
LINE
  8
0
 10
193.056244
 20
-32.245682
 11
198.056244
 21
-32.245686
  0
LINE
  8
0
 10
193.056244
 20
-28.245682
 11
198.056244
 21
-28.245686
  0
LINE
  8
0
 10
193.056244
 20
-28.245682
 11
193.056244
 21
-32.245682
  0
LINE
  8
0
 10
198.056244
 20
-28.245686
 11
198.056244
 21
-32.245686
  0
LINE
  8
0
 10
200.756241
 20
-53.745701
 11
210.756241
 21
-53.745701
  0
LINE
  8
0
 10
192.956253
 20
-44.545685
 11
198.156250
 21
-44.545689
  0
LINE
  8
0
 10
210.856247
 20
-53.745701
 11
190.456238
 21
-53.745697
  0
LINE
  8
0
 10
190.456223
 20
-76.945694
 11
210.856232
 21
-76.945702
  0
LINE
  8
0
 10
190.456223
 20
-82.445694
 11
210.856232
 21
-82.445702
  0
LINE
  8
0
 10
190.456238
 20
-42.245682
 11
210.856247
 21
-42.245686
  0
LINE
  8
0
 10
201.333603
 20
-41.245686
 11
210.178894
 21
-41.245686
  0
LINE
  8
0
 10
201.333603
 20
-20.745682
 11
210.178894
 21
-20.745689
  0
LINE
  8
0
 10
201.333603
 20
-20.745682
 11
201.333603
 21
-41.245686
  0
LINE
  8
0
 10
210.178894
 20
-20.745689
 11
210.178894
 21
-41.245686
  0
LINE
  8
0
 10
204.256256
 20
-26.745686
 11
207.256256
 21
-26.745686
  0
LINE
  8
0
 10
204.256256
 20
-24.745686
 11
207.256256
 21
-24.745686
  0
LINE
  8
0
 10
204.256256
 20
-24.745686
 11
204.256256
 21
-26.745686
  0
LINE
  8
0
 10
207.256256
 20
-24.745686
 11
207.256256
 21
-26.745686
  0
LINE
  8
0
 10
202.456253
 20
-23.445679
 11
209.056244
 21
-23.445686
  0
LINE
  8
0
 10
202.456253
 20
-33.045689
 11
209.056244
 21
-33.045689
  0
LINE
  8
0
 10
202.456253
 20
-23.445679
 11
202.456253
 21
-33.045689
  0
LINE
  8
0
 10
209.056244
 20
-23.445686
 11
209.056244
 21
-33.045689
  0
LINE
  8
0
 10
203.256256
 20
-32.245686
 11
208.256256
 21
-32.245686
  0
LINE
  8
0
 10
203.256256
 20
-28.245686
 11
208.256256
 21
-28.245686
  0
LINE
  8
0
 10
203.256256
 20
-28.245686
 11
203.256256
 21
-32.245686
  0
LINE
  8
0
 10
208.256256
 20
-28.245686
 11
208.256256
 21
-32.245686
  0
LINE
  8
0
 10
203.156250
 20
-44.545689
 11
208.356247
 21
-44.545689
  0
LINE
  8
0
 10
210.856232
 20
-87.845695
 11
190.456223
 21
-87.845688
  0
LINE
  8
0
 10
210.756241
 20
-89.845695
 11
190.556229
 21
-89.845688
  0
LINE
  8
0
 10
190.456223
 20
-80.945694
 11
193.856232
 21
-80.945694
  0
LINE
  8
0
 10
193.856232
 20
-80.945694
 11
193.856232
 21
-82.445694
  0
LINE
  8
0
 10
191.356232
 20
-81.545700
 11
193.156235
 21
-81.545700
  0
LINE
  8
0
 10
200.656235
 20
-80.945694
 11
204.056229
 21
-80.945694
  0
LINE
  8
0
 10
201.556229
 20
-81.545700
 11
203.356232
 21
-81.545700
  0
LINE
  8
0
 10
204.056229
 20
-80.945694
 11
204.056229
 21
-82.445694
  0
LINE
  8
0
 10
200.656235
 20
-80.945694
 11
200.656235
 21
-82.445694
  0
LINE
  8
0
 10
200.656235
 20
-87.845688
 11
200.656235
 21
-89.845688
  0
ARC
  8
0
 10
193.156235
 20
-80.945694
 40
0.599998
 50
270.000000
 51
0.000000
  0
ARC
  8
0
 10
203.356232
 20
-80.945694
 40
0.600006
 50
270.000000
 51
0.000000
  0
CIRCLE
  8
0
 10
195.556244
 20
-44.545685
 40
1.099999
  0
CIRCLE
  8
0
 10
205.756256
 20
-44.545689
 40
1.099999
  0
ARC
  8
0
 10
191.356232
 20
-80.945694
 40
0.599991
 50
180.000000
 51
270.000000
  0
ARC
  8
0
 10
201.556229
 20
-80.945694
 40
0.599991
 50
180.000000
 51
270.000000
  0
POINT
  8
0
 10
210.856247
 20
-133.845673
  0
POINT
  8
0
 10
190.456253
 20
-133.845673
  0
LINE
  8
0
 10
205.756241
 20
-115.345673
 11
205.756241
 21
-156.345673
  0
LINE
  8
0
 10
210.856247
 20
-154.845673
 11
200.656250
 21
-154.845673
  0
LINE
  8
0
 10
210.856247
 20
-133.845673
 11
210.856247
 21
-154.845673
  0
LINE
  8
0
 10
210.856247
 20
-133.845673
 11
190.456253
 21
-133.845673
  0
LINE
  8
0
 10
200.656250
 20
-154.845673
 11
190.456253
 21
-154.845673
  0
LINE
  8
0
 10
200.656250
 20
-133.845673
 11
200.656250
 21
-154.845673
  0
LINE
  8
0
 10
200.756241
 20
-117.845673
 11
200.756241
 21
-119.845673
  0
LINE
  8
0
 10
200.556244
 20
-117.845673
 11
200.556244
 21
-119.845673
  0
LINE
  8
0
 10
201.622269
 20
-116.845673
 11
209.890228
 21
-116.845673
  0
LINE
  8
0
 10
190.556244
 20
-119.845673
 11
210.756256
 21
-119.845673
  0
LINE
  8
0
 10
200.756256
 20
-117.845673
 11
210.756256
 21
-117.845673
  0
LINE
  8
0
 10
201.189285
 20
-117.095688
 11
200.756271
 21
-117.845688
  0
LINE
  8
0
 10
210.323242
 20
-117.095680
 11
210.756271
 21
-117.845680
  0
LINE
  8
0
 10
210.756241
 20
-117.845673
 11
210.756241
 21
-133.845673
  0
LINE
  8
0
 10
190.556244
 20
-117.845673
 11
190.556244
 21
-133.845673
  0
LINE
  8
0
 10
191.422272
 20
-116.845673
 11
199.690231
 21
-116.845673
  0
LINE
  8
0
 10
190.556244
 20
-117.845673
 11
200.556244
 21
-117.845673
  0
LINE
  8
0
 10
190.989273
 20
-117.095673
 11
190.556274
 21
-117.845680
  0
LINE
  8
0
 10
200.123291
 20
-117.095634
 11
200.556305
 21
-117.845642
  0
LINE
  8
0
 10
211.656265
 20
-149.545670
 11
189.656250
 21
-149.545670
  0
LINE
  8
0
 10
211.656265
 20
-139.145676
 11
189.656250
 21
-139.145676
  0
LINE
  8
0
 10
195.556244
 20
-115.345673
 11
195.556244
 21
-156.345673
  0
CIRCLE
  8
0
 10
195.556244
 20
-149.545670
 40
2.500000
  0
CIRCLE
  8
0
 10
195.556244
 20
-139.145676
 40
5.000000
  0
CIRCLE
  8
0
 10
195.556244
 20
-149.545670
 40
5.000000
  0
CIRCLE
  8
0
 10
205.756256
 20
-149.545670
 40
2.500000
  0
CIRCLE
  8
0
 10
205.756256
 20
-139.145676
 40
2.500000
  0
CIRCLE
  8
0
 10
205.756256
 20
-139.145676
 40
5.000000
  0
CIRCLE
  8
0
 10
205.756256
 20
-149.545670
 40
5.000000
  0
ARC
  8
0
 10
201.622284
 20
-117.345673
 40
0.500000
 50
90.000000
 51
150.000076
  0
ARC
  8
0
 10
209.890228
 20
-117.345673
 40
0.500001
 50
29.999931
 51
90.000000
  0
ARC
  8
0
 10
191.422272
 20
-117.345673
 40
0.500000
 50
90.000000
 51
150.000076
  0
ARC
  8
0
 10
199.690231
 20
-117.345673
 40
0.500001
 50
29.999931
 51
90.000000
  0
CIRCLE
  8
0
 10
195.556244
 20
-139.145676
 40
5.000000
  0
CIRCLE
  8
0
 10
195.556244
 20
-149.545670
 40
5.000000
  0
CIRCLE
  8
0
 10
195.556244
 20
-139.145676
 40
2.500000
  0
POINT
  8
0
 10
105.689178
 20
-87.845772
  0
POINT
  8
0
 10
85.689171
 20
-87.845772
  0
LINE
  8
0
 10
74.989182
 20
-89.845772
 11
64.989182
 21
-89.845772
  0
LINE
  8
0
 10
102.689163
 20
-20.952873
 11
102.689163
 21
-41.038658
  0
LINE
  8
0
 10
80.389175
 20
-86.345863
 11
80.389175
 21
-91.345772
  0
LINE
  8
0
 10
75.389160
 20
-87.845772
 11
75.389160
 21
-89.845772
  0
LINE
  8
0
 10
85.389175
 20
-87.845772
 11
85.389175
 21
-89.845772
  0
LINE
  8
0
 10
69.989166
 20
-86.345863
 11
69.989166
 21
-91.345772
  0
LINE
  8
0
 10
64.989166
 20
-87.845787
 11
64.989166
 21
-89.845787
  0
LINE
  8
0
 10
74.989166
 20
-87.845772
 11
74.989166
 21
-89.845772
  0
LINE
  8
0
 10
85.689178
 20
-87.845772
 11
64.689178
 21
-87.845772
  0
LINE
  8
0
 10
85.389191
 20
-89.845772
 11
75.389175
 21
-89.845772
  0
LINE
  8
0
 10
99.689163
 20
-82.445778
 11
85.689163
 21
-82.445778
  0
LINE
  8
0
 10
101.689163
 20
-42.245781
 11
85.689163
 21
-42.245781
  0
LINE
  8
0
 10
99.689163
 20
-19.745766
 11
99.689163
 21
-82.445778
  0
LINE
  8
0
 10
101.689171
 20
-42.245789
 11
102.542725
 21
-41.392235
  0
LINE
  8
0
 10
102.542702
 20
-20.599350
 11
101.689148
 21
-19.745796
  0
LINE
  8
0
 10
85.689163
 20
-19.745766
 11
101.689163
 21
-19.745766
  0
LINE
  8
0
 10
101.689163
 20
-19.745766
 11
101.689163
 21
-42.245766
  0
LINE
  8
0
 10
99.689163
 20
-53.745781
 11
85.689163
 21
-53.745781
  0
LINE
  8
0
 10
99.689178
 20
-76.945778
 11
85.689178
 21
-76.945778
  0
ENDSEC
  0
EOF
