  0
SECTION
  2
HEADER
  0
ENDSEC
  0
SECTION
  2
TABLES
  0
TABLE
  2
LTYPE
 70
     4
  0
LTYPE
  2
CONTINUOUS
 70
    64
  3
Solid line
 72
    65
 73
     0
 40
0.000000
  0
LTYPE
  2
DASHED
 70
    64
  3
__ __ __ __ __ __ __ __ __ __ __ __ __ __ __
 72
    65
 73
     2
 40
3.500000
 49
2.000000
 49
-1.500000
  0
LTYPE
  2
CENTER
 70
    64
  3
____ _ ____ _ ____ _ ____ _ ____ _ ____ _ ____
 72
    65
 73
     4
 40
17.500000
 49
13.000000
 49
-1.500000
 49
1.500000
 49
-1.500000
  0
LTYPE
  2
PHANTOM
 70
    64
  3
_____ _ _ _____ _ _ _____ _ _ _____ _ _ ____  
 72
    65
 73
     6
 40
15.500000
 49
8.000000
 49
-1.500000
 49
1.500000
 49
-1.500000
 49
1.500000
 49
-1.500000
  0
LTYPE
  2
DASHED1
 70
    64
  3
__ __ __ __ __ __ __ __ __ __ __ __ __ __ __
 72
    65
 73
     2
 40
1.500000
 49
1.000000
 49
-0.500000
  0
LTYPE
  2
DASHED2
 70
    64
  3
__ __ __ __ __ __ __ __ __ __ __ __ __ __ __
 72
    65
 73
     2
 40
3.500000
 49
2.500000
 49
-1.000000
  0
LTYPE
  2
DASHED3
 70
    64
  3
__ __ __ __ __ __ __ __ __ __ __ __ __ __ __
 72
    65
 73
     2
 40
6.000000
 49
4.000000
 49
-2.000000
  0
LTYPE
  2
DASHED4
 70
    64
  3
__ __ __ __ __ __ __ __ __ __ __ __ __ __ __
 72
    65
 73
     2
 40
12.000000
 49
10.000000
 49
-2.000000
  0
LTYPE
  2
DASHED5
 70
    64
  3
__ __ __ __ __ __ __ __ __ __ __ __ __ __ __
 72
    65
 73
     2
 40
17.000000
 49
15.000000
 49
-2.000000
  0
LTYPE
  2
DASHED6
 70
    64
  3
__ __ __ __ __ __ __ __ __ __ __ __ __ __ __
 72
    65
 73
     2
 40
29.000000
 49
27.000000
 49
-2.000000
  0
LTYPE
  2
PHANTOM1
 70
    64
  3
_____ _ _ _____ _ _ _____ _ _ _____ _ _ ____  
 72
    65
 73
     6
 40
31.000000
 49
25.000000
 49
-1.500000
 49
1.000000
 49
-1.000000
 49
1.000000
 49
-1.500000
  0
LTYPE
  2
PHANTOM2
 70
    64
  3
_____ _ _ _____ _ _ _____ _ _ _____ _ _ ____  
 72
    65
 73
     6
 40
36.000000
 49
27.000000
 49
-1.500000
 49
2.500000
 49
-1.000000
 49
2.500000
 49
-1.500000
  0
LTYPE
  2
PHANTOM3
 70
    64
  3
_____ _ _ _____ _ _ _____ _ _ _____ _ _ ____  
 72
    65
 73
     6
 40
78.000000
 49
64.000000
 49
-2.000000
 49
4.000000
 49
-2.000000
 49
4.000000
 49
-2.000000
  0
LTYPE
  2
CENTER1
 70
    64
  3
____ _ ____ _ ____ _ ____ _ ____ _ ____ _ ____
 72
    65
 73
     4
 40
19.000000
 49
14.000000
 49
-1.000000
 49
3.000000
 49
-1.000000
  0
LTYPE
  2
CENTER2
 70
    64
  3
____ _ ____ _ ____ _ ____ _ ____ _ ____ _ ____
 72
    65
 73
     4
 40
28.500000
 49
25.000000
 49
-1.000000
 49
1.500000
 49
-1.000000
  0
LTYPE
  2
CENTER3
 70
    64
  3
____ _ ____ _ ____ _ ____ _ ____ _ ____ _ ____
 72
    65
 73
     4
 40
31.500000
 49
27.000000
 49
-1.000000
 49
2.500000
 49
-1.000000
  0
LTYPE
  2
CENTER4
 70
    64
  3
____ _ ____ _ ____ _ ____ _ ____ _ ____ _ ____
 72
    65
 73
     4
 40
50.000000
 49
45.000000
 49
-1.000000
 49
3.000000
 49
-1.000000
  0
LTYPE
  2
CENTER5
 70
    64
  3
____ _ ____ _ ____ _ ____ _ ____ _ ____ _ ____
 72
    65
 73
     4
 40
100.000000
 49
92.000000
 49
-2.000000
 49
4.000000
 49
-2.000000
  0
LTYPE
  2
SBK1
 70
    64
  3
______ _ _ _ ______ _ _ _ ______ _ _ _ _____  
 72
    65
 73
     8
 40
60.500000
 49
45.000000
 49
-2.000000
 49
2.500000
 49
-2.000000
 49
2.500000
 49
-2.000000
 49
2.500000
 49
-2.000000
  0
LTYPE
  2
SBK2
 70
    64
  3
______ _ _ _ ______ _ _ _ ______ _ _ _ _____  
 72
    65
 73
     8
 40
84.000000
 49
64.000000
 49
-2.000000
 49
4.000000
 49
-2.000000
 49
4.000000
 49
-2.000000
 49
4.000000
 49
-2.000000
  0
LTYPE
  2
STCH
 70
    64
  3
__ __ __ __ __ __ __ __ __ __ __ __ __ __ __
 72
    65
 73
     2
 40
3.000000
 49
1.000000
 49
-2.000000
  0
LTYPE
  2
MTCH
 70
    64
  3
_____ _ _ _____ _ _ _____ _ _ _____ _ _ ____  
 72
    65
 73
     6
 40
80.000000
 49
66.000000
 49
-2.000000
 49
4.000000
 49
-2.000000
 49
4.000000
 49
-2.000000
  0
ENDTAB
  0
TABLE
  2
LAYER
 70
     1
  0
LAYER
  2
0
 70
     0
 62
     7
  6
CONTINUOUS
  0
ENDTAB
  0
TABLE
  2
STYLE
 70
     1
  0
STYLE
  2
STANDARD
 70
     0
 40
0.000000
 41
1.000000
 50
0.000000
 71
     0
 42
0.200000
  3
txt
  4
BIGFONT
  0
ENDTAB
  0
TABLE
  2
VIEW
 70
     0
  0
ENDTAB
  0
ENDSEC
  0
SECTION
  2
BLOCKS
  0
ENDSEC
  0
SECTION
  2
ENTITIES
  0
LINE
  8
0
 10
-297.000000
 20
210.000000
 11
297.000000
 21
210.000000
  0
LINE
  8
0
 10
-297.000000
 20
-210.000000
 11
297.000000
 21
-210.000000
  0
LINE
  8
0
 10
297.000000
 20
210.000000
 11
297.000000
 21
-210.000000
  0
LINE
  8
0
 10
-297.000000
 20
210.000000
 11
-297.000000
 21
-210.000000
  0
LINE
  8
0
 10
-281.250000
 20
195.500000
 11
282.099976
 21
195.500000
  0
LINE
  8
0
 10
-281.250000
 20
195.500000
 11
-281.250000
 21
-195.000000
  0
LINE
  8
0
 10
282.099976
 20
195.500000
 11
282.099976
 21
-195.000000
  0
LINE
  8
0
 10
-281.250000
 20
-195.000000
 11
282.099976
 21
-195.000000
  0
LINE
  8
0
 10
162.099976
 20
-175.000000
 11
162.099976
 21
-195.000000
  0
LINE
  8
0
 10
162.099976
 20
-175.000000
 11
282.099976
 21
-175.000000
  0
LINE
  8
0
 10
162.099976
 20
175.500000
 11
282.099976
 21
175.500000
  0
LINE
  8
0
 10
-281.250000
 20
175.500000
 11
-161.250000
 21
175.500000
  0
LINE
  8
0
 10
162.099976
 20
195.500000
 11
162.099976
 21
175.500000
  0
LINE
  8
0
 10
-161.250000
 20
195.500000
 11
-161.250000
 21
175.500000
  0
LINE
  8
0
 10
-281.250000
 20
0.250000
 11
282.099976
 21
0.250000
  0
LINE
  8
0
 10
0.424988
 20
-195.000000
 11
0.424988
 21
195.500000
  0
LINE
  8
0
 10
-281.250000
 20
-185.000000
 11
162.099976
 21
-185.000000
  0
LINE
  8
0
 10
-281.250000
 20
10.250000
 11
282.099976
 21
10.250000
  0
LINE
  8
0
  6
PHANTOM
 10
-214.384399
 20
164.781937
 11
-214.384399
 21
94.781937
  0
LINE
  8
0
  6
PHANTOM
 10
-193.384399
 20
94.781937
 11
-214.384399
 21
94.781937
  0
LINE
  8
0
  6
PHANTOM
 10
-193.384399
 20
164.781937
 11
-214.384399
 21
164.781937
  0
LINE
  8
0
  6
PHANTOM
 10
-193.384399
 20
164.781937
 11
-193.384399
 21
94.781937
  0
LINE
  8
0
  6
PHANTOM
 10
43.447449
 20
164.781937
 11
43.447449
 21
94.781937
  0
LINE
  8
0
  6
PHANTOM
 10
64.447449
 20
164.781937
 11
64.447449
 21
94.781937
  0
LINE
  8
0
  6
PHANTOM
 10
64.447449
 20
94.781937
 11
43.447449
 21
94.781937
  0
LINE
  8
0
  6
PHANTOM
 10
64.447449
 20
164.781937
 11
43.447449
 21
164.781937
  0
LINE
  8
0
  6
PHANTOM
 10
-219.186554
 20
-15.677197
 11
-219.186554
 21
-85.677200
  0
LINE
  8
0
  6
PHANTOM
 10
-198.186554
 20
-15.677200
 11
-198.186554
 21
-85.677200
  0
LINE
  8
0
  6
PHANTOM
 10
-198.186554
 20
-85.677200
 11
-219.186554
 21
-85.677200
  0
LINE
  8
0
  6
PHANTOM
 10
-198.186539
 20
-15.677200
 11
-219.186554
 21
-15.677200
  0
LINE
  8
0
  6
PHANTOM
 10
49.674538
 20
-15.677200
 11
49.674538
 21
-86.677200
  0
LINE
  8
0
  6
PHANTOM
 10
70.674538
 20
-15.677200
 11
70.674538
 21
-86.677200
  0
LINE
  8
0
  6
PHANTOM
 10
70.674538
 20
-85.677200
 11
49.674553
 21
-85.677200
  0
LINE
  8
0
  6
PHANTOM
 10
70.674538
 20
-15.677200
 11
49.674538
 21
-15.677200
  0
TEXT
  8
0
 10
174.200241
 20
180.830002
 40
6.300000
  1
DATE: SEP ,1992
 50
0.000000
 41
1.052632
 51
0.000000
  7
STANDARD
  0
TEXT
  8
0
 10
167.564667
 20
-192.100006
 40
9.000000
  1
KOGANEI CORP.
 50
0.000000
 41
1.052632
 51
0.000000
  7
STANDARD
  0
TEXT
  8
0
 10
-240.285309
 20
178.399994
 40
9.000000
  1
X80M
 50
0.000000
 41
1.052632
 51
0.000000
  7
STANDARD
  0
TEXT
  8
0
 10
-210.362228
 20
0.580000
 40
6.300000
  1
MODEL : FMWR090-BP-J4S
 50
0.000000
 41
1.052632
 51
0.000000
  7
STANDARD
  0
TEXT
  8
0
 10
71.312767
 20
0.580000
 40
6.300000
  1
MODEL : FMWR090-BP-J6S
 50
0.000000
 41
1.052632
 51
0.000000
  7
STANDARD
  0
TEXT
  8
0
 10
-210.362228
 20
-194.669998
 40
6.300000
  1
MODEL : FMWR090-BP-J4U
 50
0.000000
 41
1.052632
 51
0.000000
  7
STANDARD
  0
TEXT
  8
0
 10
11.312763
 20
-194.669998
 40
6.300000
  1
MODEL : FMWR090-BP-M5M
 50
0.000000
 41
1.052632
 51
0.000000
  7
STANDARD
  0
POINT
  8
0
 10
-77.417343
 20
94.781921
  0
POINT
  8
0
 10
-87.617355
 20
94.781921
  0
LINE
  8
0
 10
-82.517349
 20
166.569473
 11
-82.517349
 21
85.600014
  0
LINE
  8
0
 10
-78.617355
 20
86.781921
 11
-86.417358
 21
86.781921
  0
LINE
  8
0
 10
-78.617355
 20
87.981918
 11
-86.417358
 21
87.981918
  0
LINE
  8
0
 10
-85.017349
 20
89.428482
 11
-85.017349
 21
87.981918
  0
LINE
  8
0
 10
-87.517349
 20
94.781921
 11
-87.517349
 21
89.428497
  0
LINE
  8
0
 10
-77.517334
 20
94.781921
 11
-77.517334
 21
89.428482
  0
LINE
  8
0
 10
-77.517334
 20
89.428482
 11
-87.517349
 21
89.428482
  0
LINE
  8
0
 10
-86.417358
 20
87.981918
 11
-86.417358
 21
86.781921
  0
LINE
  8
0
 10
-78.617355
 20
87.981926
 11
-78.617355
 21
86.781929
  0
LINE
  8
0
 10
-77.417343
 20
164.781921
 11
-77.417343
 21
94.781921
  0
LINE
  8
0
 10
-77.417343
 20
164.781921
 11
-87.617348
 21
164.781921
  0
LINE
  8
0
 10
-77.417343
 20
94.781921
 11
-87.617355
 21
94.781921
  0
LINE
  8
0
 10
-87.617355
 20
99.281921
 11
-77.417343
 21
99.281921
  0
LINE
  8
0
 10
-87.617355
 20
161.781921
 11
-77.417343
 21
161.781921
  0
LINE
  8
0
 10
-80.017349
 20
89.428482
 11
-80.017349
 21
87.981918
  0
POINT
  8
0
 10
-77.324631
 20
52.539021
  0
POINT
  8
0
 10
-87.524628
 20
52.539021
  0
LINE
  8
0
 10
-77.324631
 20
52.539021
 11
-87.524628
 21
52.539021
  0
LINE
  8
0
 10
-77.324631
 20
31.539021
 11
-87.524628
 21
31.539021
  0
LINE
  8
0
 10
-77.324631
 20
52.539021
 11
-77.324631
 21
31.539021
  0
LINE
  8
0
 10
-76.524628
 20
36.839024
 11
-88.324631
 21
36.839024
  0
LINE
  8
0
 10
-76.524628
 20
47.239017
 11
-88.324631
 21
47.239017
  0
LINE
  8
0
 10
-78.524628
 20
48.239017
 11
-78.524628
 21
46.239017
  0
LINE
  8
0
 10
-86.324631
 20
48.239017
 11
-86.324631
 21
46.239017
  0
LINE
  8
0
 10
-78.524628
 20
37.839024
 11
-78.524628
 21
35.839024
  0
LINE
  8
0
 10
-86.324631
 20
37.839024
 11
-86.324631
 21
35.839024
  0
LINE
  8
0
 10
-87.474640
 20
54.139027
 11
-77.374634
 21
54.139027
  0
LINE
  8
0
 10
-77.424637
 20
54.139027
 11
-77.424637
 21
52.539021
  0
LINE
  8
0
 10
-87.424637
 20
54.139027
 11
-87.424637
 21
52.539021
  0
LINE
  8
0
 10
-82.424637
 20
55.639027
 11
-82.424637
 21
30.039021
  0
ARC
  8
0
 10
-82.424637
 20
35.839024
 40
3.900002
 50
179.999939
 51
359.999939
  0
CIRCLE
  8
0
 10
-82.424637
 20
36.839024
 40
2.000000
  0
ARC
  8
0
 10
-82.424637
 20
48.239017
 40
3.899994
 50
0.000000
 51
179.999939
  0
ARC
  8
0
 10
-82.424637
 20
46.239017
 40
3.900002
 50
180.000000
 51
359.999939
  0
CIRCLE
  8
0
 10
-82.424637
 20
47.239017
 40
2.000000
  0
ARC
  8
0
 10
-82.424637
 20
37.839024
 40
3.899994
 50
0.000000
 51
179.999939
  0
POINT
  8
0
 10
-193.384399
 20
94.781937
  0
POINT
  8
0
 10
-173.384384
 20
94.781937
  0
LINE
  8
0
 10
-191.784393
 20
99.281937
 11
-193.384384
 21
99.281937
  0
LINE
  8
0
 10
-198.684402
 20
95.281845
 11
-198.684402
 21
85.766953
  0
LINE
  8
0
 10
-193.784378
 20
86.781937
 11
-203.584381
 21
86.781937
  0
LINE
  8
0
 10
-193.784409
 20
87.981949
 11
-193.784409
 21
86.781952
  0
LINE
  8
0
 10
-203.584412
 20
87.981934
 11
-203.584412
 21
86.781937
  0
LINE
  8
0
 10
-193.784378
 20
87.981934
 11
-203.584381
 21
87.981934
  0
LINE
  8
0
 10
-201.184402
 20
89.428497
 11
-201.184402
 21
87.981934
  0
LINE
  8
0
 10
-196.184402
 20
89.428497
 11
-196.184402
 21
87.981934
  0
LINE
  8
0
 10
-203.684402
 20
94.781937
 11
-203.684402
 21
89.428513
  0
LINE
  8
0
 10
-193.684402
 20
94.781937
 11
-193.684402
 21
89.428497
  0
LINE
  8
0
 10
-193.684387
 20
89.428497
 11
-203.684387
 21
89.428497
  0
LINE
  8
0
 10
-209.084396
 20
95.281853
 11
-209.084396
 21
85.766960
  0
LINE
  8
0
 10
-204.184387
 20
86.781937
 11
-213.984390
 21
86.781944
  0
LINE
  8
0
 10
-204.184402
 20
87.981941
 11
-204.184402
 21
86.781944
  0
LINE
  8
0
 10
-213.984421
 20
87.981941
 11
-213.984421
 21
86.781944
  0
LINE
  8
0
 10
-204.184387
 20
87.981934
 11
-213.984390
 21
87.981941
  0
LINE
  8
0
 10
-211.584396
 20
89.428505
 11
-211.584396
 21
87.981941
  0
LINE
  8
0
 10
-206.584396
 20
89.428497
 11
-206.584396
 21
87.981934
  0
LINE
  8
0
 10
-214.084412
 20
94.781929
 11
-214.084412
 21
89.428505
  0
LINE
  8
0
 10
-204.084396
 20
94.781937
 11
-204.084396
 21
89.428497
  0
LINE
  8
0
 10
-204.084381
 20
89.428497
 11
-214.084396
 21
89.428505
  0
LINE
  8
0
 10
-191.784393
 20
161.781937
 11
-191.784409
 21
99.281937
  0
LINE
  8
0
 10
-191.784393
 20
161.781937
 11
-193.384399
 21
161.781937
  0
POINT
  8
0
 10
185.414490
 20
94.781937
  0
POINT
  8
0
 10
175.214493
 20
94.781937
  0
LINE
  8
0
 10
180.314499
 20
166.569504
 11
180.314499
 21
81.593140
  0
LINE
  8
0
 10
185.414505
 20
164.781937
 11
185.414505
 21
94.781937
  0
LINE
  8
0
 10
185.414505
 20
164.781937
 11
175.214493
 21
164.781937
  0
LINE
  8
0
 10
185.414490
 20
94.781937
 11
175.214493
 21
94.781937
  0
LINE
  8
0
 10
175.214493
 20
99.281937
 11
185.414505
 21
99.281937
  0
LINE
  8
0
 10
175.214493
 20
161.781937
 11
185.414505
 21
161.781937
  0
LINE
  8
0
 10
183.814484
 20
86.381927
 11
183.814484
 21
85.081932
  0
LINE
  8
0
 10
185.214478
 20
83.881935
 11
175.414474
 21
83.881935
  0
LINE
  8
0
 10
175.414474
 20
85.081932
 11
175.414474
 21
83.881935
  0
LINE
  8
0
 10
185.214478
 20
85.081932
 11
175.414474
 21
85.081932
  0
LINE
  8
0
 10
175.314484
 20
94.781937
 11
175.314484
 21
86.381927
  0
LINE
  8
0
 10
185.314499
 20
94.781937
 11
185.314499
 21
86.381927
  0
LINE
  8
0
 10
185.214478
 20
85.081940
 11
185.214478
 21
83.881943
  0
LINE
  8
0
 10
185.314499
 20
86.381927
 11
175.314484
 21
86.381927
  0
LINE
  8
0
 10
176.814484
 20
86.381927
 11
176.814484
 21
85.081932
  0
POINT
  8
0
 10
185.414505
 20
50.281921
  0
POINT
  8
0
 10
175.214508
 20
50.281921
  0
LINE
  8
0
 10
185.414505
 20
50.281921
 11
175.214508
 21
50.281921
  0
LINE
  8
0
 10
185.414505
 20
29.281921
 11
175.214508
 21
29.281921
  0
LINE
  8
0
 10
185.414505
 20
50.281921
 11
185.414505
 21
29.281921
  0
LINE
  8
0
 10
186.214508
 20
34.581924
 11
174.414505
 21
34.581924
  0
LINE
  8
0
 10
186.214508
 20
44.981918
 11
174.414505
 21
44.981918
  0
LINE
  8
0
 10
184.214508
 20
45.981918
 11
184.214508
 21
43.981918
  0
LINE
  8
0
 10
176.414505
 20
45.981918
 11
176.414505
 21
43.981918
  0
LINE
  8
0
 10
184.214508
 20
35.581924
 11
184.214508
 21
33.581924
  0
LINE
  8
0
 10
176.414505
 20
35.581924
 11
176.414505
 21
33.581924
  0
LINE
  8
0
 10
175.264496
 20
51.881927
 11
185.364502
 21
51.881927
  0
LINE
  8
0
 10
185.314499
 20
51.881927
 11
185.314499
 21
50.281921
  0
LINE
  8
0
 10
175.314499
 20
51.881927
 11
175.314499
 21
50.281921
  0
LINE
  8
0
 10
180.314499
 20
53.381927
 11
180.314499
 21
27.781921
  0
CIRCLE
  8
0
 10
180.314499
 20
34.581924
 40
2.000000
  0
ARC
  8
0
 10
180.314499
 20
33.581924
 40
3.899994
 50
180.000000
 51
359.999939
  0
ARC
  8
0
 10
180.314499
 20
45.981918
 40
3.899994
 50
0.000000
 51
179.999939
  0
ARC
  8
0
 10
180.314499
 20
43.981918
 40
3.899994
 50
180.000000
 51
359.999939
  0
CIRCLE
  8
0
 10
180.314499
 20
44.981918
 40
2.000000
  0
ARC
  8
0
 10
180.314499
 20
35.581924
 40
3.899994
 50
0.000000
 51
179.999939
  0
POINT
  8
0
 10
64.447449
 20
94.781937
  0
POINT
  8
0
 10
84.447464
 20
94.781937
  0
LINE
  8
0
 10
45.247437
 20
86.528519
 11
45.247437
 21
85.081924
  0
LINE
  8
0
 10
59.147446
 20
95.281845
 11
59.147442
 21
82.866943
  0
LINE
  8
0
 10
48.747452
 20
95.281845
 11
48.747452
 21
82.866943
  0
LINE
  8
0
 10
53.747452
 20
86.528519
 11
43.747437
 21
86.528519
  0
LINE
  8
0
 10
53.647430
 20
85.081940
 11
53.647430
 21
83.881943
  0
LINE
  8
0
 10
66.047455
 20
161.781937
 11
66.047440
 21
99.281937
  0
LINE
  8
0
 10
66.047455
 20
161.781937
 11
64.447464
 21
161.781937
  0
LINE
  8
0
 10
66.047455
 20
99.281937
 11
64.447464
 21
99.281937
  0
LINE
  8
0
 10
62.647430
 20
86.528519
 11
62.647430
 21
85.081932
  0
LINE
  8
0
 10
64.047440
 20
83.881927
 11
54.247437
 21
83.881927
  0
LINE
  8
0
 10
54.247421
 20
85.081924
 11
54.247421
 21
83.881927
  0
LINE
  8
0
 10
64.047440
 20
85.081924
 11
54.247437
 21
85.081924
  0
LINE
  8
0
 10
54.147430
 20
94.781937
 11
54.147430
 21
86.528503
  0
LINE
  8
0
 10
64.147446
 20
94.781937
 11
64.147446
 21
86.528511
  0
LINE
  8
0
 10
64.047424
 20
85.081947
 11
64.047424
 21
83.881950
  0
LINE
  8
0
 10
64.147446
 20
86.528519
 11
54.147446
 21
86.528519
  0
LINE
  8
0
 10
55.647430
 20
86.528519
 11
55.647430
 21
85.081924
  0
LINE
  8
0
 10
52.247437
 20
86.528519
 11
52.247437
 21
85.081924
  0
LINE
  8
0
 10
53.647430
 20
83.881927
 11
43.847427
 21
83.881927
  0
LINE
  8
0
 10
43.847427
 20
85.081924
 11
43.847427
 21
83.881927
  0
LINE
  8
0
 10
53.647430
 20
85.081924
 11
43.847427
 21
85.081924
  0
LINE
  8
0
 10
43.747421
 20
94.781944
 11
43.747421
 21
86.528503
  0
LINE
  8
0
 10
53.747437
 20
94.781937
 11
53.747437
 21
86.528503
  0
POINT
  8
0
 10
-87.219521
 20
-85.677116
  0
POINT
  8
0
 10
-97.419518
 20
-85.677116
  0
LINE
  8
0
 10
-92.319511
 20
-13.889549
 11
-92.319511
 21
-109.174309
  0
LINE
  8
0
 10
-86.419502
 20
-94.677116
 11
-98.219505
 21
-94.677116
  0
LINE
  8
0
 10
-88.119522
 20
-90.677086
 11
-87.319519
 21
-89.788200
  0
LINE
  8
0
 10
-91.319511
 20
-90.777122
 11
-93.319511
 21
-90.777122
  0
LINE
  8
0
 10
-91.319511
 20
-98.577126
 11
-93.319511
 21
-98.577126
  0
LINE
  8
0
 10
-88.319511
 20
-90.677116
 11
-88.319511
 21
-91.977119
  0
LINE
  8
0
 10
-96.319511
 20
-90.677116
 11
-96.319511
 21
-91.977119
  0
LINE
  8
0
 10
-88.319511
 20
-91.977119
 11
-88.505257
 21
-91.977119
  0
LINE
  8
0
 10
-96.133766
 20
-91.977119
 11
-96.319511
 21
-91.977119
  0
LINE
  8
0
 10
-88.119514
 20
-90.677116
 11
-96.519493
 21
-90.677116
  0
LINE
  8
0
 10
-97.319496
 20
-89.788231
 11
-87.319511
 21
-89.788231
  0
LINE
  8
0
 10
-96.519516
 20
-90.677116
 11
-97.319511
 21
-89.788231
  0
LINE
  8
0
 10
-96.319511
 20
-99.391426
 11
-96.319511
 21
-100.677071
  0
LINE
  8
0
 10
-88.319511
 20
-99.391426
 11
-88.319511
 21
-100.677116
  0
LINE
  8
0
 10
-96.319496
 20
-100.677116
 11
-95.811485
 21
-100.677116
  0
LINE
  8
0
 10
-98.219505
 20
-103.677116
 11
-86.419502
 21
-103.677116
  0
LINE
  8
0
 10
-87.319511
 20
-85.677116
 11
-87.319511
 21
-99.391441
  0
LINE
  8
0
 10
-97.319496
 20
-85.677116
 11
-97.319496
 21
-99.391426
  0
LINE
  8
0
 10
-97.319496
 20
-99.391426
 11
-87.319511
 21
-99.391426
  0
LINE
  8
0
 10
-91.319511
 20
-107.577110
 11
-93.319511
 21
-107.577110
  0
LINE
  8
0
 10
-91.319511
 20
-99.777107
 11
-93.319511
 21
-99.777107
  0
LINE
  8
0
 10
-88.827522
 20
-100.677116
 11
-88.319496
 21
-100.677116
  0
LINE
  8
0
 10
-87.219505
 20
-15.677116
 11
-87.219505
 21
-85.677116
  0
LINE
  8
0
 10
-87.219505
 20
-15.677116
 11
-97.419510
 21
-15.677116
  0
LINE
  8
0
 10
-87.219521
 20
-85.677116
 11
-97.419518
 21
-85.677116
  0
LINE
  8
0
 10
-97.419518
 20
-81.177116
 11
-87.219505
 21
-81.177116
  0
LINE
  8
0
 10
-97.419518
 20
-18.677116
 11
-87.219505
 21
-18.677116
  0
ARC
  8
0
 10
-93.319511
 20
-103.677116
 40
3.900002
 50
90.000000
 51
269.999878
  0
CIRCLE
  8
0
 10
-92.319511
 20
-103.677116
 40
2.000000
  0
ARC
  8
0
 10
-91.319511
 20
-94.677116
 40
3.900002
 50
270.000122
 51
90.000114
  0
CIRCLE
  8
0
 10
-92.319496
 20
-94.677116
 40
2.000000
  0
ARC
  8
0
 10
-93.319511
 20
-94.677116
 40
3.900002
 50
90.000114
 51
270.000122
  0
ARC
  8
0
 10
-91.319511
 20
-103.677116
 40
3.900002
 50
270.000000
 51
90.000000
  0
POINT
  8
0
 10
-97.419518
 20
-151.141510
  0
POINT
  8
0
 10
-87.219505
 20
-151.141510
  0
LINE
  8
0
 10
-87.219505
 20
-151.141510
 11
-88.919518
 21
-151.141510
  0
LINE
  8
0
 10
-87.219505
 20
-172.141510
 11
-97.419502
 21
-172.141510
  0
LINE
  8
0
 10
-87.219505
 20
-151.441513
 11
-87.419518
 21
-151.441513
  0
LINE
  8
0
 10
-87.219505
 20
-151.141510
 11
-87.219505
 21
-172.141510
  0
LINE
  8
0
 10
-97.319511
 20
-149.541504
 11
-96.319511
 21
-149.541504
  0
LINE
  8
0
 10
-87.319511
 20
-149.541504
 11
-87.319511
 21
-151.141510
  0
LINE
  8
0
 10
-97.319511
 20
-149.541504
 11
-97.319511
 21
-151.141510
  0
LINE
  8
0
 10
-92.319511
 20
-174.141510
 11
-92.319511
 21
-139.541519
  0
LINE
  8
0
 10
-88.919518
 20
-151.091522
 11
-88.919518
 21
-151.441513
  0
LINE
  8
0
 10
-95.719521
 20
-151.091522
 11
-95.719521
 21
-151.441513
  0
LINE
  8
0
 10
-88.319511
 20
-150.591522
 11
-96.319511
 21
-150.591522
  0
LINE
  8
0
 10
-88.919525
 20
-151.091492
 11
-88.319534
 21
-150.591492
  0
LINE
  8
0
 10
-96.319504
 20
-150.591522
 11
-95.719498
 21
-151.091537
  0
LINE
  8
0
 10
-88.319511
 20
-150.591522
 11
-88.319511
 21
-143.641525
  0
LINE
  8
0
 10
-96.319511
 20
-150.591522
 11
-96.319511
 21
-143.641525
  0
LINE
  8
0
 10
-88.319511
 20
-143.641510
 11
-96.319511
 21
-143.641510
  0
LINE
  8
0
 10
-96.219521
 20
-143.641525
 11
-96.219521
 21
-142.841522
  0
LINE
  8
0
 10
-88.419502
 20
-142.841522
 11
-96.219505
 21
-142.841522
  0
LINE
  8
0
 10
-88.419518
 20
-143.641525
 11
-88.419518
 21
-142.841522
  0
LINE
  8
0
 10
-89.819511
 20
-142.841522
 11
-89.819511
 21
-142.241516
  0
LINE
  8
0
 10
-87.419518
 20
-142.241516
 11
-97.219521
 21
-142.241516
  0
LINE
  8
0
 10
-94.819511
 20
-142.841522
 11
-94.819511
 21
-142.241516
  0
LINE
  8
0
 10
-97.219521
 20
-142.241516
 11
-97.219521
 21
-141.041519
  0
LINE
  8
0
 10
-87.419518
 20
-141.041519
 11
-97.219521
 21
-141.041519
  0
LINE
  8
0
 10
-87.419518
 20
-142.241516
 11
-87.419518
 21
-141.041519
  0
LINE
  8
0
 10
-96.219521
 20
-154.041504
 11
-96.219521
 21
-153.241516
  0
LINE
  8
0
 10
-88.919518
 20
-161.491516
 11
-88.919518
 21
-166.841507
  0
LINE
  8
0
 10
-95.719521
 20
-161.491516
 11
-95.719521
 21
-166.841507
  0
LINE
  8
0
 10
-87.419518
 20
-152.641510
 11
-97.219521
 21
-152.641510
  0
LINE
  8
0
 10
-88.319527
 20
-160.991501
 11
-88.319527
 21
-154.041504
  0
LINE
  8
0
 10
-88.319511
 20
-154.041504
 11
-96.319511
 21
-154.041504
  0
LINE
  8
0
 10
-88.919518
 20
-161.491501
 11
-95.719521
 21
-161.491501
  0
LINE
  8
0
 10
-88.319511
 20
-160.991501
 11
-96.319511
 21
-160.991501
  0
LINE
  8
0
 10
-96.319519
 20
-160.991516
 11
-95.719528
 21
-161.491516
  0
LINE
  8
0
 10
-88.919533
 20
-161.491501
 11
-88.319534
 21
-160.991501
  0
LINE
  8
0
 10
-88.419518
 20
-153.241501
 11
-96.219521
 21
-153.241501
  0
LINE
  8
0
 10
-88.419518
 20
-154.041504
 11
-88.419518
 21
-153.241516
  0
LINE
  8
0
 10
-96.319527
 20
-160.991501
 11
-96.319527
 21
-154.041504
  0
LINE
  8
0
 10
-97.219521
 20
-152.641510
 11
-97.219521
 21
-151.441513
  0
LINE
  8
0
 10
-87.419518
 20
-152.641510
 11
-87.419518
 21
-151.441513
  0
LINE
  8
0
 10
-87.419518
 20
-151.441513
 11
-97.219521
 21
-151.441513
  0
LINE
  8
0
 10
-95.719521
 20
-152.641510
 11
-95.719521
 21
-153.241501
  0
LINE
  8
0
 10
-88.919518
 20
-152.641510
 11
-88.919518
 21
-153.241501
  0
LINE
  8
0
 10
-95.719521
 20
-151.141510
 11
-97.419502
 21
-151.141510
  0
LINE
  8
0
 10
-97.219521
 20
-151.441513
 11
-97.419502
 21
-151.441513
  0
LINE
  8
0
 10
-88.319511
 20
-149.541504
 11
-87.319511
 21
-149.541504
  0
ARC
  8
0
 10
-92.319511
 20
-166.841507
 40
3.400002
 50
180.000000
 51
0.000000
  0
POINT
  8
0
 10
-198.186554
 20
-85.677200
  0
POINT
  8
0
 10
-178.186554
 20
-85.677200
  0
LINE
  8
0
 10
-198.486557
 20
-89.788315
 11
-208.486557
 21
-89.788307
  0
LINE
  8
0
 10
-190.686569
 20
-97.177200
 11
-189.286545
 21
-97.177200
  0
LINE
  8
0
 10
-189.286545
 20
-90.777206
 11
-188.086548
 21
-90.777206
  0
LINE
  8
0
 10
-207.486557
 20
-89.788307
 11
-207.486557
 21
-95.577194
  0
LINE
  8
0
 10
-199.486557
 20
-89.788315
 11
-199.486557
 21
-91.777206
  0
LINE
  8
0
 10
-204.386551
 20
-98.677200
 11
-190.686554
 21
-98.677200
  0
LINE
  8
0
 10
-197.786560
 20
-90.677200
 11
-190.686554
 21
-90.677200
  0
LINE
  8
0
 10
-199.486557
 20
-91.777206
 11
-197.786560
 21
-91.777206
  0
LINE
  8
0
 10
-197.786560
 20
-90.677200
 11
-197.786560
 21
-98.677200
  0
LINE
  8
0
 10
-190.686569
 20
-90.677200
 11
-190.686569
 21
-98.677200
  0
LINE
  8
0
 10
-188.086563
 20
-90.777199
 11
-188.086563
 21
-98.577202
  0
LINE
  8
0
 10
-189.286560
 20
-90.777191
 11
-189.286560
 21
-98.577194
  0
LINE
  8
0
 10
-190.686569
 20
-92.177200
 11
-189.286545
 21
-92.177200
  0
LINE
  8
0
 10
-189.286545
 20
-98.577202
 11
-188.086548
 21
-98.577202
  0
LINE
  8
0
 10
-198.486542
 20
-85.677200
 11
-198.486557
 21
-89.788315
  0
LINE
  8
0
 10
-208.486542
 20
-85.677193
 11
-208.486557
 21
-89.788307
  0
LINE
  8
0
 10
-217.886566
 20
-99.391479
 11
-217.886566
 21
-104.577202
  0
LINE
  8
0
 10
-209.886566
 20
-99.391479
 11
-209.886566
 21
-100.777199
  0
LINE
  8
0
 10
-214.786560
 20
-107.677193
 11
-201.086548
 21
-107.677200
  0
LINE
  8
0
 10
-208.186554
 20
-99.677200
 11
-201.086548
 21
-99.677200
  0
LINE
  8
0
 10
-209.886566
 20
-100.777199
 11
-208.186569
 21
-100.777199
  0
LINE
  8
0
 10
-208.186569
 20
-99.677193
 11
-208.186569
 21
-107.677193
  0
LINE
  8
0
 10
-201.086563
 20
-99.677193
 11
-201.086563
 21
-107.677193
  0
LINE
  8
0
 10
-198.486572
 20
-99.777206
 11
-198.486572
 21
-107.577194
  0
LINE
  8
0
 10
-199.686569
 20
-99.777206
 11
-199.686569
 21
-107.577194
  0
LINE
  8
0
 10
-201.086563
 20
-101.177200
 11
-199.686554
 21
-101.177200
  0
LINE
  8
0
 10
-201.086563
 20
-106.177200
 11
-199.686539
 21
-106.177200
  0
LINE
  8
0
 10
-199.686554
 20
-99.777206
 11
-198.486542
 21
-99.777206
  0
LINE
  8
0
 10
-199.686539
 20
-107.577202
 11
-198.486542
 21
-107.577202
  0
LINE
  8
0
 10
-208.886566
 20
-85.677193
 11
-208.886566
 21
-99.391479
  0
LINE
  8
0
 10
-218.886566
 20
-85.677200
 11
-218.886566
 21
-99.391464
  0
LINE
  8
0
 10
-218.886551
 20
-99.391479
 11
-208.886551
 21
-99.391479
  0
LINE
  8
0
 10
-196.586533
 20
-18.677200
 11
-198.186523
 21
-18.677200
  0
LINE
  8
0
 10
-196.586533
 20
-18.677200
 11
-196.586548
 21
-81.177200
  0
LINE
  8
0
 10
-196.586533
 20
-81.177200
 11
-198.186539
 21
-81.177200
  0
ARC
  8
0
 10
-204.386551
 20
-95.577202
 40
3.099991
 50
180.000000
 51
270.000000
  0
ARC
  8
0
 10
-214.786545
 20
-104.577202
 40
3.100006
 50
180.000000
 51
270.000000
  0
POINT
  8
0
 10
181.641556
 20
-85.677101
  0
POINT
  8
0
 10
171.441559
 20
-85.677101
  0
LINE
  8
0
 10
176.541565
 20
-12.889534
 11
176.541565
 21
-89.177101
  0
LINE
  8
0
 10
171.541565
 20
-85.677101
 11
171.541565
 21
-87.677101
  0
LINE
  8
0
 10
181.541580
 20
-85.677101
 11
181.541580
 21
-87.677101
  0
LINE
  8
0
 10
181.641571
 20
-14.677101
 11
181.641571
 21
-85.677101
  0
LINE
  8
0
 10
181.641571
 20
-14.677101
 11
171.441559
 21
-14.677101
  0
LINE
  8
0
 10
181.641556
 20
-84.677101
 11
171.441559
 21
-84.677101
  0
LINE
  8
0
 10
171.441559
 20
-80.177101
 11
181.641571
 21
-80.177101
  0
LINE
  8
0
 10
171.441559
 20
-17.677101
 11
181.641571
 21
-17.677101
  0
LINE
  8
0
 10
181.641556
 20
-85.677101
 11
171.441559
 21
-85.677101
  0
LINE
  8
0
 10
181.541580
 20
-87.677101
 11
171.541565
 21
-87.677101
  0
POINT
  8
0
 10
181.641586
 20
-130.277100
  0
POINT
  8
0
 10
171.441589
 20
-130.277100
  0
LINE
  8
0
 10
181.641586
 20
-130.277100
 11
171.441589
 21
-130.277100
  0
LINE
  8
0
 10
181.641586
 20
-151.277100
 11
171.441589
 21
-151.277100
  0
LINE
  8
0
 10
181.641586
 20
-130.277100
 11
181.641586
 21
-151.277100
  0
LINE
  8
0
 10
182.441589
 20
-145.977097
 11
170.641586
 21
-145.977097
  0
LINE
  8
0
 10
182.441589
 20
-135.577103
 11
170.641586
 21
-135.577103
  0
LINE
  8
0
 10
171.491577
 20
-128.677094
 11
181.591583
 21
-128.677094
  0
LINE
  8
0
 10
181.541580
 20
-128.677094
 11
181.541580
 21
-130.277100
  0
LINE
  8
0
 10
171.541580
 20
-128.677094
 11
171.541580
 21
-130.277100
  0
LINE
  8
0
 10
176.541580
 20
-127.177094
 11
176.541580
 21
-152.777100
  0
CIRCLE
  8
0
 10
176.541580
 20
-145.977097
 40
2.500000
  0
CIRCLE
  8
0
 10
176.541580
 20
-135.577103
 40
5.000000
  0
CIRCLE
  8
0
 10
176.541580
 20
-145.977097
 40
5.000000
  0
CIRCLE
  8
0
 10
176.541580
 20
-135.577103
 40
2.500000
  0
POINT
  8
0
 10
70.674538
 20
-85.677200
  0
POINT
  8
0
 10
90.674545
 20
-85.677200
  0
LINE
  8
0
 10
59.974556
 20
-88.677200
 11
49.974556
 21
-88.677200
  0
LINE
  8
0
 10
65.374550
 20
-85.177292
 11
65.374550
 21
-90.177200
  0
LINE
  8
0
 10
60.374535
 20
-86.677200
 11
60.374535
 21
-88.677200
  0
LINE
  8
0
 10
70.374550
 20
-86.677200
 11
70.374550
 21
-88.677200
  0
LINE
  8
0
 10
54.974541
 20
-85.177292
 11
54.974541
 21
-90.177200
  0
LINE
  8
0
 10
49.974541
 20
-86.677216
 11
49.974541
 21
-88.677216
  0
LINE
  8
0
 10
59.974541
 20
-86.677200
 11
59.974541
 21
-88.677200
  0
LINE
  8
0
 10
70.674553
 20
-86.677200
 11
49.674553
 21
-86.677200
  0
LINE
  8
0
 10
72.274559
 20
-81.177200
 11
70.674553
 21
-81.177200
  0
LINE
  8
0
 10
70.374565
 20
-88.677200
 11
60.374550
 21
-88.677200
  0
LINE
  8
0
 10
72.274544
 20
-18.677200
 11
72.274544
 21
-81.177200
  0
LINE
  8
0
 10
72.274529
 20
-18.677200
 11
70.674538
 21
-18.677200
  0
ENDSEC
  0
EOF
