  0
SECTION
  2
HEADER
  0
ENDSEC
  0
SECTION
  2
TABLES
  0
TABLE
  2
LTYPE
 70
     4
  0
LTYPE
  2
CONTINUOUS
 70
    64
  3
Solid line
 72
    65
 73
     0
 40
0.000000
  0
LTYPE
  2
DASHED
 70
    64
  3
__ __ __ __ __ __ __ __ __ __ __ __ __ __ __
 72
    65
 73
     2
 40
3.500000
 49
2.000000
 49
-1.500000
  0
LTYPE
  2
CENTER
 70
    64
  3
____ _ ____ _ ____ _ ____ _ ____ _ ____ _ ____
 72
    65
 73
     4
 40
17.500000
 49
13.000000
 49
-1.500000
 49
1.500000
 49
-1.500000
  0
LTYPE
  2
PHANTOM
 70
    64
  3
_____ _ _ _____ _ _ _____ _ _ _____ _ _ ____  
 72
    65
 73
     6
 40
15.500000
 49
8.000000
 49
-1.500000
 49
1.500000
 49
-1.500000
 49
1.500000
 49
-1.500000
  0
LTYPE
  2
DASHED1
 70
    64
  3
__ __ __ __ __ __ __ __ __ __ __ __ __ __ __
 72
    65
 73
     2
 40
1.500000
 49
1.000000
 49
-0.500000
  0
LTYPE
  2
DASHED2
 70
    64
  3
__ __ __ __ __ __ __ __ __ __ __ __ __ __ __
 72
    65
 73
     2
 40
3.500000
 49
2.500000
 49
-1.000000
  0
LTYPE
  2
DASHED3
 70
    64
  3
__ __ __ __ __ __ __ __ __ __ __ __ __ __ __
 72
    65
 73
     2
 40
6.000000
 49
4.000000
 49
-2.000000
  0
LTYPE
  2
DASHED4
 70
    64
  3
__ __ __ __ __ __ __ __ __ __ __ __ __ __ __
 72
    65
 73
     2
 40
12.000000
 49
10.000000
 49
-2.000000
  0
LTYPE
  2
DASHED5
 70
    64
  3
__ __ __ __ __ __ __ __ __ __ __ __ __ __ __
 72
    65
 73
     2
 40
17.000000
 49
15.000000
 49
-2.000000
  0
LTYPE
  2
DASHED6
 70
    64
  3
__ __ __ __ __ __ __ __ __ __ __ __ __ __ __
 72
    65
 73
     2
 40
29.000000
 49
27.000000
 49
-2.000000
  0
LTYPE
  2
PHANTOM1
 70
    64
  3
_____ _ _ _____ _ _ _____ _ _ _____ _ _ ____  
 72
    65
 73
     6
 40
31.000000
 49
25.000000
 49
-1.500000
 49
1.000000
 49
-1.000000
 49
1.000000
 49
-1.500000
  0
LTYPE
  2
PHANTOM2
 70
    64
  3
_____ _ _ _____ _ _ _____ _ _ _____ _ _ ____  
 72
    65
 73
     6
 40
36.000000
 49
27.000000
 49
-1.500000
 49
2.500000
 49
-1.000000
 49
2.500000
 49
-1.500000
  0
LTYPE
  2
PHANTOM3
 70
    64
  3
_____ _ _ _____ _ _ _____ _ _ _____ _ _ ____  
 72
    65
 73
     6
 40
78.000000
 49
64.000000
 49
-2.000000
 49
4.000000
 49
-2.000000
 49
4.000000
 49
-2.000000
  0
LTYPE
  2
CENTER1
 70
    64
  3
____ _ ____ _ ____ _ ____ _ ____ _ ____ _ ____
 72
    65
 73
     4
 40
19.000000
 49
14.000000
 49
-1.000000
 49
3.000000
 49
-1.000000
  0
LTYPE
  2
CENTER2
 70
    64
  3
____ _ ____ _ ____ _ ____ _ ____ _ ____ _ ____
 72
    65
 73
     4
 40
28.500000
 49
25.000000
 49
-1.000000
 49
1.500000
 49
-1.000000
  0
LTYPE
  2
CENTER3
 70
    64
  3
____ _ ____ _ ____ _ ____ _ ____ _ ____ _ ____
 72
    65
 73
     4
 40
31.500000
 49
27.000000
 49
-1.000000
 49
2.500000
 49
-1.000000
  0
LTYPE
  2
CENTER4
 70
    64
  3
____ _ ____ _ ____ _ ____ _ ____ _ ____ _ ____
 72
    65
 73
     4
 40
50.000000
 49
45.000000
 49
-1.000000
 49
3.000000
 49
-1.000000
  0
LTYPE
  2
CENTER5
 70
    64
  3
____ _ ____ _ ____ _ ____ _ ____ _ ____ _ ____
 72
    65
 73
     4
 40
100.000000
 49
92.000000
 49
-2.000000
 49
4.000000
 49
-2.000000
  0
LTYPE
  2
SBK1
 70
    64
  3
______ _ _ _ ______ _ _ _ ______ _ _ _ _____  
 72
    65
 73
     8
 40
60.500000
 49
45.000000
 49
-2.000000
 49
2.500000
 49
-2.000000
 49
2.500000
 49
-2.000000
 49
2.500000
 49
-2.000000
  0
LTYPE
  2
SBK2
 70
    64
  3
______ _ _ _ ______ _ _ _ ______ _ _ _ _____  
 72
    65
 73
     8
 40
84.000000
 49
64.000000
 49
-2.000000
 49
4.000000
 49
-2.000000
 49
4.000000
 49
-2.000000
 49
4.000000
 49
-2.000000
  0
LTYPE
  2
STCH
 70
    64
  3
__ __ __ __ __ __ __ __ __ __ __ __ __ __ __
 72
    65
 73
     2
 40
3.000000
 49
1.000000
 49
-2.000000
  0
LTYPE
  2
MTCH
 70
    64
  3
_____ _ _ _____ _ _ _____ _ _ _____ _ _ ____  
 72
    65
 73
     6
 40
80.000000
 49
66.000000
 49
-2.000000
 49
4.000000
 49
-2.000000
 49
4.000000
 49
-2.000000
  0
ENDTAB
  0
TABLE
  2
LAYER
 70
     1
  0
LAYER
  2
0
 70
     0
 62
     7
  6
CONTINUOUS
  0
ENDTAB
  0
TABLE
  2
STYLE
 70
     1
  0
STYLE
  2
STANDARD
 70
     0
 40
0.000000
 41
1.000000
 50
0.000000
 71
     0
 42
0.200000
  3
txt
  4
BIGFONT
  0
ENDTAB
  0
TABLE
  2
VIEW
 70
     0
  0
ENDTAB
  0
ENDSEC
  0
SECTION
  2
BLOCKS
  0
ENDSEC
  0
SECTION
  2
ENTITIES
  0
LINE
  8
0
 10
-420.500000
 20
297.000000
 11
420.500000
 21
297.000000
  0
LINE
  8
0
 10
-420.500000
 20
-297.000000
 11
420.500000
 21
-297.000000
  0
LINE
  8
0
 10
420.500000
 20
297.000000
 11
420.500000
 21
-297.000000
  0
LINE
  8
0
 10
-420.500000
 20
297.000000
 11
-420.500000
 21
-297.000000
  0
LINE
  8
0
 10
399.799988
 20
276.250000
 11
399.799988
 21
-276.750000
  0
LINE
  8
0
 10
-399.250000
 20
276.250000
 11
-399.250000
 21
-276.750000
  0
LINE
  8
0
 10
-399.250000
 20
276.250000
 11
399.799988
 21
276.250000
  0
LINE
  8
0
 10
-399.250000
 20
-276.750000
 11
399.799988
 21
-276.750000
  0
LINE
  8
0
 10
239.799988
 20
-251.750000
 11
399.799988
 21
-251.750000
  0
LINE
  8
0
 10
239.799988
 20
251.250000
 11
399.799988
 21
251.250000
  0
LINE
  8
0
 10
-399.250000
 20
251.250000
 11
-239.250000
 21
251.250000
  0
LINE
  8
0
 10
239.799988
 20
-251.750000
 11
239.799988
 21
-276.750000
  0
LINE
  8
0
 10
239.799988
 20
251.250000
 11
239.799988
 21
276.250000
  0
LINE
  8
0
 10
-239.250000
 20
276.250000
 11
-239.250000
 21
251.250000
  0
LINE
  8
0
 10
-399.250000
 20
-0.250000
 11
399.799988
 21
-0.250000
  0
LINE
  8
0
 10
0.274994
 20
-276.750000
 11
0.274994
 21
276.250000
  0
LINE
  8
0
 10
-399.250000
 20
-261.750000
 11
239.799988
 21
-261.750000
  0
LINE
  8
0
 10
-399.250000
 20
14.750000
 11
399.799988
 21
14.750000
  0
TEXT
  8
0
 10
-345.785156
 20
253.500000
 40
12.500000
  1
X88M
 50
0.000000
 41
1.052632
 51
0.000000
  7
STANDARD
  0
TEXT
  8
0
 10
242.014816
 20
-274.500000
 40
12.500000
  1
KOGANEI CORP.
 50
0.000000
 41
1.052632
 51
0.000000
  7
STANDARD
  0
TEXT
  8
0
 10
251.264664
 20
256.649994
 40
9.000000
  1
DATE: SEP ,1992
 50
0.000000
 41
1.052632
 51
0.000000
  7
STANDARD
  0
TEXT
  8
0
 10
-254.523209
 20
0.150000
 40
9.000000
  1
MODEL : X88M
 50
0.000000
 41
1.052632
 51
0.000000
  7
STANDARD
  0
TEXT
  8
0
 10
131.501770
 20
0.150000
 40
9.000000
  1
MODEL : X88M-ED
 50
0.000000
 41
1.052632
 51
0.000000
  7
STANDARD
  0
TEXT
  8
0
 10
-268.023224
 20
-276.350006
 40
9.000000
  1
MODEL : X88M-DN
 50
0.000000
 41
1.052632
 51
0.000000
  7
STANDARD
  0
POINT
  8
0
 10
-119.119278
 20
138.528992
  0
POINT
  8
0
 10
-104.119278
 20
138.528992
  0
LINE
  8
0
 10
-134.119293
 20
148.528992
 11
-124.119293
 21
148.528992
  0
LINE
  8
0
 10
-134.119263
 20
226.528992
 11
-124.119263
 21
226.528992
  0
LINE
  8
0
 10
-122.119278
 20
138.607544
 11
-122.119278
 21
146.528992
  0
LINE
  8
0
 10
-122.119278
 20
228.528992
 11
-122.119278
 21
236.450439
  0
LINE
  8
0
 10
-128.119293
 20
141.378998
 11
-126.119293
 21
141.378998
  0
LINE
  8
0
 10
-128.119293
 20
145.679001
 11
-126.119293
 21
145.679001
  0
LINE
  8
0
 10
-132.119293
 20
143.528992
 11
-122.119293
 21
143.528992
  0
LINE
  8
0
 10
-127.119278
 20
140.528992
 11
-127.119278
 21
146.528992
  0
LINE
  8
0
 10
-128.119263
 20
229.378983
 11
-126.119263
 21
229.378983
  0
LINE
  8
0
 10
-128.119263
 20
233.678986
 11
-126.119263
 21
233.678986
  0
LINE
  8
0
 10
-132.119263
 20
231.528992
 11
-122.119263
 21
231.528992
  0
LINE
  8
0
 10
-127.119278
 20
228.528992
 11
-127.119278
 21
234.528992
  0
LINE
  8
0
 10
-119.119278
 20
236.528992
 11
-134.119278
 21
236.528992
  0
LINE
  8
0
 10
-119.119278
 20
138.528992
 11
-134.119278
 21
138.528992
  0
LINE
  8
0
 10
-119.119278
 20
236.528992
 11
-119.119278
 21
138.528992
  0
LINE
  8
0
 10
-134.119278
 20
236.528992
 11
-134.119278
 21
138.528992
  0
ARC
  8
0
 10
-124.119293
 20
146.528992
 40
2.000000
 50
0.000000
 51
90.000000
  0
ARC
  8
0
 10
-124.119263
 20
228.528992
 40
2.000000
 50
270.000000
 51
0.000000
  0
ARC
  8
0
 10
-128.119293
 20
143.528992
 40
2.149994
 50
90.000000
 51
270.000000
  0
ARC
  8
0
 10
-126.119293
 20
143.528992
 40
2.149994
 50
270.000000
 51
90.000000
  0
ARC
  8
0
 10
-128.119263
 20
231.528992
 40
2.149994
 50
90.000000
 51
270.000000
  0
ARC
  8
0
 10
-126.119263
 20
231.528992
 40
2.149994
 50
270.000000
 51
90.000000
  0
POINT
  8
0
 10
-119.119278
 20
71.832619
  0
POINT
  8
0
 10
-104.119278
 20
71.832619
  0
LINE
  8
0
 10
-134.119278
 20
63.832619
 11
-122.119278
 21
63.832619
  0
LINE
  8
0
 10
-122.119278
 20
63.832619
 11
-122.119278
 21
72.754059
  0
LINE
  8
0
 10
-134.119278
 20
43.832619
 11
-119.119278
 21
43.832619
  0
LINE
  8
0
 10
-119.119278
 20
72.832619
 11
-119.119278
 21
43.832619
  0
LINE
  8
0
 10
-134.119278
 20
72.439827
 11
-134.119278
 21
43.832619
  0
LINE
  8
0
 10
-134.119278
 20
72.439827
 11
-119.119278
 21
72.832619
  0
LINE
  8
0
 10
-122.119278
 20
71.253548
 11
-119.080017
 21
71.333130
  0
POINT
  8
0
 10
-259.619202
 20
138.529007
  0
POINT
  8
0
 10
-279.619202
 20
138.529007
  0
LINE
  8
0
 10
-279.619202
 20
236.528992
 11
-279.619202
 21
138.529007
  0
LINE
  8
0
 10
-308.619202
 20
236.528992
 11
-308.619202
 21
138.529007
  0
LINE
  8
0
 10
-308.619202
 20
138.529007
 11
-279.619202
 21
138.529007
  0
LINE
  8
0
 10
-308.619171
 20
236.528992
 11
-279.619202
 21
236.528992
  0
LINE
  8
0
 10
-288.619202
 20
148.529007
 11
-279.619202
 21
148.529007
  0
LINE
  8
0
 10
-288.619202
 20
236.528976
 11
-288.619202
 21
226.528976
  0
LINE
  8
0
 10
-288.619171
 20
226.528992
 11
-279.619202
 21
226.528992
  0
LINE
  8
0
 10
-288.619202
 20
148.528992
 11
-288.619202
 21
138.528992
  0
LINE
  8
0
 10
-310.100525
 20
143.529007
 11
-303.619202
 21
143.529007
  0
LINE
  8
0
 10
-310.100494
 20
231.528992
 11
-303.619171
 21
231.528992
  0
LINE
  8
0
 10
-287.619202
 20
172.028992
 11
-287.619202
 21
159.028992
  0
LINE
  8
0
 10
-294.119202
 20
165.529007
 11
-281.119202
 21
165.529007
  0
CIRCLE
  8
0
 10
-287.619202
 20
165.528992
 40
4.863999
  0
CIRCLE
  8
0
 10
-287.619202
 20
165.528992
 40
4.283000
  0
TEXT
  8
0
 10
-299.219208
 20
167.850235
 40
4.000000
  1
P
 50
-90.000000
 41
1.052632
 51
0.000000
  7
STANDARD
  0
TEXT
  8
0
 10
-287.219208
 20
186.850235
 40
4.000000
  1
R
 50
-90.000000
 41
1.052632
 51
0.000000
  7
STANDARD
  0
POINT
  8
0
 10
285.405396
 20
138.921707
  0
POINT
  8
0
 10
270.405396
 20
138.921722
  0
LINE
  8
0
 10
270.405457
 20
236.921722
 11
270.405396
 21
138.921722
  0
LINE
  8
0
 10
255.405441
 20
236.528992
 11
270.405457
 21
236.921783
  0
LINE
  8
0
 10
255.405380
 20
139.314514
 11
270.405396
 21
138.921722
  0
LINE
  8
0
 10
255.405457
 20
236.528946
 11
255.405396
 21
139.314514
  0
LINE
  8
0
 10
255.405441
 20
226.921738
 11
265.405457
 21
226.921722
  0
LINE
  8
0
 10
255.405396
 20
148.921722
 11
265.405396
 21
148.921722
  0
LINE
  8
0
 10
267.405457
 20
236.843170
 11
267.405457
 21
228.921722
  0
LINE
  8
0
 10
267.405396
 20
146.921722
 11
267.405396
 21
139.000275
  0
LINE
  8
0
 10
267.405396
 20
140.500824
 11
270.405365
 21
140.422256
  0
LINE
  8
0
 10
267.405426
 20
235.342712
 11
270.405426
 21
235.421265
  0
LINE
  8
0
 10
261.405457
 20
234.071732
 11
263.405457
 21
234.071732
  0
LINE
  8
0
 10
261.405457
 20
229.771713
 11
263.405457
 21
229.771713
  0
LINE
  8
0
 10
257.405457
 20
231.921738
 11
267.405457
 21
231.921722
  0
LINE
  8
0
 10
262.405457
 20
234.921738
 11
262.405457
 21
228.921738
  0
LINE
  8
0
 10
261.405396
 20
146.071732
 11
263.405396
 21
146.071732
  0
LINE
  8
0
 10
261.405396
 20
141.771729
 11
263.405396
 21
141.771729
  0
LINE
  8
0
 10
257.405396
 20
143.921722
 11
267.405396
 21
143.921722
  0
LINE
  8
0
 10
262.405396
 20
146.921722
 11
262.405396
 21
140.921722
  0
LINE
  8
0
 10
250.405441
 20
215.921753
 11
257.405426
 21
215.921738
  0
LINE
  8
0
 10
251.905441
 20
228.421738
 11
255.405441
 21
228.421738
  0
LINE
  8
0
 10
251.905426
 20
203.421738
 11
255.405426
 21
203.421738
  0
LINE
  8
0
 10
251.405441
 20
227.921738
 11
251.405426
 21
203.921738
  0
LINE
  8
0
 10
251.405441
 20
227.102554
 11
253.405441
 21
227.102554
  0
LINE
  8
0
 10
251.405441
 20
226.352554
 11
253.405441
 21
226.352554
  0
LINE
  8
0
 10
253.405441
 20
227.102554
 11
253.405441
 21
226.352554
  0
ARC
  8
0
 10
251.905441
 20
227.921738
 40
0.500000
 50
90.000000
 51
180.000000
  0
ARC
  8
0
 10
251.905426
 20
203.921738
 40
0.500000
 50
180.000000
 51
270.000000
  0
ARC
  8
0
 10
265.405457
 20
228.921722
 40
2.000000
 50
270.000000
 51
0.000000
  0
ARC
  8
0
 10
265.405396
 20
146.921722
 40
2.000000
 50
0.000000
 51
90.000000
  0
ARC
  8
0
 10
261.405457
 20
231.921738
 40
2.150009
 50
90.000000
 51
270.000000
  0
ARC
  8
0
 10
263.405457
 20
231.921738
 40
2.150009
 50
270.000000
 51
90.000000
  0
ARC
  8
0
 10
261.405396
 20
143.921722
 40
2.150009
 50
90.000000
 51
270.000000
  0
ARC
  8
0
 10
263.405396
 20
143.921722
 40
2.149994
 50
270.000000
 51
90.000000
  0
POINT
  8
0
 10
285.405334
 20
69.832550
  0
POINT
  8
0
 10
270.405334
 20
69.832550
  0
LINE
  8
0
 10
255.405334
 20
41.832550
 11
255.405334
 21
70.439758
  0
LINE
  8
0
 10
255.405319
 20
61.832550
 11
267.405304
 21
61.832550
  0
LINE
  8
0
 10
267.405304
 20
61.832550
 11
267.405304
 21
70.753990
  0
LINE
  8
0
 10
267.405304
 20
69.253464
 11
270.405334
 21
69.332031
  0
LINE
  8
0
 10
270.405334
 20
41.832550
 11
270.405334
 21
70.832550
  0
LINE
  8
0
 10
250.405334
 20
54.832550
 11
257.405334
 21
54.832550
  0
LINE
  8
0
 10
251.905334
 20
67.332550
 11
255.405334
 21
67.332550
  0
LINE
  8
0
 10
251.905334
 20
42.332550
 11
255.405334
 21
42.332550
  0
LINE
  8
0
 10
251.405334
 20
42.832550
 11
251.405334
 21
66.832550
  0
LINE
  8
0
 10
262.905334
 20
41.832550
 11
262.905334
 21
70.832542
  0
LINE
  8
0
 10
255.405334
 20
41.832550
 11
270.405334
 21
41.832550
  0
LINE
  8
0
 10
255.415634
 20
70.440025
 11
270.405334
 21
70.832550
  0
ARC
  8
0
 10
251.905334
 20
66.832550
 40
0.500000
 50
90.000000
 51
180.000000
  0
ARC
  8
0
 10
251.905334
 20
42.832550
 40
0.500000
 50
180.000000
 51
270.000000
  0
POINT
  8
0
 10
129.905502
 20
138.529022
  0
POINT
  8
0
 10
109.905502
 20
138.529022
  0
LINE
  8
0
 10
109.905502
 20
236.528992
 11
109.905502
 21
138.529022
  0
LINE
  8
0
 10
80.905518
 20
236.528992
 11
80.905518
 21
221.528992
  0
LINE
  8
0
 10
80.905502
 20
138.529022
 11
109.905502
 21
138.529022
  0
LINE
  8
0
 10
80.905533
 20
236.528992
 11
109.905502
 21
236.528992
  0
LINE
  8
0
 10
100.905510
 20
148.529022
 11
109.905510
 21
148.529022
  0
LINE
  8
0
 10
100.905518
 20
236.528992
 11
100.905518
 21
226.528992
  0
LINE
  8
0
 10
100.905525
 20
226.528992
 11
109.905518
 21
226.528992
  0
LINE
  8
0
 10
100.905518
 20
148.529007
 11
100.905518
 21
138.529007
  0
LINE
  8
0
 10
81.405518
 20
221.528992
 11
81.405518
 21
153.529022
  0
LINE
  8
0
 10
80.905525
 20
221.528992
 11
81.405525
 21
221.528992
  0
LINE
  8
0
 10
80.905510
 20
153.529022
 11
81.405510
 21
153.529022
  0
LINE
  8
0
 10
80.905518
 20
153.529022
 11
80.905518
 21
138.529022
  0
LINE
  8
0
 10
83.905518
 20
145.779022
 11
83.905518
 21
141.279022
  0
LINE
  8
0
 10
79.424194
 20
143.529022
 11
85.905502
 21
143.529022
  0
LINE
  8
0
 10
80.905502
 20
141.279022
 11
83.905502
 21
141.279022
  0
LINE
  8
0
 10
80.905510
 20
145.779022
 11
83.905510
 21
145.779022
  0
LINE
  8
0
 10
80.905533
 20
233.778992
 11
83.905533
 21
233.778992
  0
LINE
  8
0
 10
83.905518
 20
233.778992
 11
83.905518
 21
229.278992
  0
LINE
  8
0
 10
79.424210
 20
231.528992
 11
85.905533
 21
231.528992
  0
LINE
  8
0
 10
80.905525
 20
229.278992
 11
83.905525
 21
229.278992
  0
LINE
  8
0
 10
101.905518
 20
172.029007
 11
101.905518
 21
159.029007
  0
LINE
  8
0
 10
95.405510
 20
165.529022
 11
108.405518
 21
165.529022
  0
LINE
  8
0
 10
79.905525
 20
215.528992
 11
107.905518
 21
215.528992
  0
LINE
  8
0
 10
93.905518
 20
229.528992
 11
93.905518
 21
201.528992
  0
LINE
  8
0
 10
85.905518
 20
184.529007
 11
101.905518
 21
184.529007
  0
LINE
  8
0
 10
93.905518
 20
192.529007
 11
93.905518
 21
176.529007
  0
LINE
  8
0
 10
87.017242
 20
205.098206
 11
99.494728
 21
226.709839
  0
LINE
  8
0
 10
88.316315
 20
204.348236
 11
100.793800
 21
225.959839
  0
CIRCLE
  8
0
 10
101.905518
 20
165.529007
 40
4.863999
  0
CIRCLE
  8
0
 10
101.905518
 20
165.529007
 40
4.283000
  0
CIRCLE
  8
0
 10
93.905518
 20
184.529007
 40
6.578500
  0
CIRCLE
  8
0
 10
93.905518
 20
184.529007
 40
5.722500
  0
CIRCLE
  8
0
 10
93.905525
 20
215.528992
 40
12.500000
  0
TEXT
  8
0
 10
90.305511
 20
167.850250
 40
4.000000
  1
P
 50
-90.000000
 41
1.052632
 51
0.000000
  7
STANDARD
  0
TEXT
  8
0
 10
102.305519
 20
186.850250
 40
4.000000
  1
R
 50
-90.000000
 41
1.052632
 51
0.000000
  7
STANDARD
  0
POINT
  8
0
 10
-112.919281
 20
-120.595383
  0
POINT
  8
0
 10
-97.919281
 20
-120.595383
  0
LINE
  8
0
 10
-112.919281
 20
-22.595367
 11
-112.919281
 21
-120.595375
  0
LINE
  8
0
 10
-127.919289
 20
-22.988106
 11
-112.919289
 21
-22.595314
  0
LINE
  8
0
 10
-127.919281
 20
-120.202591
 11
-112.919281
 21
-120.595383
  0
LINE
  8
0
 10
-127.919281
 20
-32.595367
 11
-117.919281
 21
-32.595367
  0
LINE
  8
0
 10
-127.919281
 20
-110.595375
 11
-117.919281
 21
-110.595375
  0
LINE
  8
0
 10
-115.919281
 20
-22.673920
 11
-115.919281
 21
-30.595367
  0
LINE
  8
0
 10
-115.919281
 20
-112.595375
 11
-115.919281
 21
-120.516823
  0
LINE
  8
0
 10
-115.919258
 20
-119.016289
 11
-112.919281
 21
-119.094841
  0
LINE
  8
0
 10
-115.919296
 20
-24.174431
 11
-112.919296
 21
-24.095879
  0
LINE
  8
0
 10
-120.919281
 20
-23.595367
 11
-120.919281
 21
-31.595367
  0
LINE
  8
0
 10
-120.919281
 20
-111.595375
 11
-120.919281
 21
-119.595375
  0
LINE
  8
0
 10
-124.919281
 20
-115.595375
 11
-116.919281
 21
-115.595375
  0
LINE
  8
0
 10
-124.919281
 20
-27.595367
 11
-116.919281
 21
-27.595367
  0
LINE
  8
0
 10
-127.819275
 20
-20.095367
 11
-114.019272
 21
-20.095367
  0
LINE
  8
0
 10
-127.819275
 20
-123.095375
 11
-114.019272
 21
-123.095375
  0
LINE
  8
0
 10
-114.019272
 20
-20.095367
 11
-114.019272
 21
-22.624176
  0
LINE
  8
0
 10
-127.819275
 20
-20.095367
 11
-127.819275
 21
-22.985535
  0
LINE
  8
0
 10
-127.819275
 20
-120.205208
 11
-127.819275
 21
-123.095375
  0
LINE
  8
0
 10
-114.019272
 20
-120.566582
 11
-114.019272
 21
-123.095375
  0
LINE
  8
0
 10
-123.919281
 20
-128.595367
 11
-117.919281
 21
-128.595367
  0
LINE
  8
0
 10
-123.919281
 20
-126.995369
 11
-117.919281
 21
-126.995369
  0
LINE
  8
0
 10
-117.919281
 20
-123.095375
 11
-117.919281
 21
-128.595367
  0
LINE
  8
0
 10
-123.919281
 20
-123.095375
 11
-123.919281
 21
-128.595367
  0
LINE
  8
0
 10
-127.919281
 20
-22.988113
 11
-127.919281
 21
-120.202591
  0
ARC
  8
0
 10
-117.919281
 20
-30.595367
 40
2.000000
 50
270.000000
 51
0.000000
  0
ARC
  8
0
 10
-117.919281
 20
-112.595375
 40
2.000000
 50
0.000000
 51
90.000000
  0
POINT
  8
0
 10
-112.919281
 20
-186.291748
  0
POINT
  8
0
 10
-97.919281
 20
-186.291748
  0
LINE
  8
0
 10
-112.919281
 20
-214.291748
 11
-112.919281
 21
-185.291748
  0
LINE
  8
0
 10
-127.919296
 20
-194.291748
 11
-115.919296
 21
-194.291748
  0
LINE
  8
0
 10
-115.919296
 20
-194.291748
 11
-115.919296
 21
-185.370316
  0
LINE
  8
0
 10
-126.919296
 20
-214.291748
 11
-126.919296
 21
-194.291748
  0
LINE
  8
0
 10
-115.919289
 20
-186.870819
 11
-112.919289
 21
-186.792267
  0
LINE
  8
0
 10
-127.919281
 20
-214.291748
 11
-123.919281
 21
-214.291748
  0
LINE
  8
0
 10
-120.919296
 20
-188.508301
 11
-120.919296
 21
-195.749695
  0
LINE
  8
0
 10
-127.819275
 20
-215.791748
 11
-127.819275
 21
-227.291748
  0
LINE
  8
0
 10
-114.019272
 20
-215.791748
 11
-114.019272
 21
-227.291748
  0
LINE
  8
0
 10
-126.219284
 20
-215.891754
 11
-126.219284
 21
-227.291748
  0
LINE
  8
0
 10
-115.619278
 20
-215.891754
 11
-115.619278
 21
-227.291748
  0
LINE
  8
0
 10
-115.619278
 20
-215.891754
 11
-117.919281
 21
-215.891754
  0
LINE
  8
0
 10
-114.019272
 20
-223.791748
 11
-117.419281
 21
-223.791748
  0
LINE
  8
0
 10
-114.019272
 20
-227.291748
 11
-117.419281
 21
-227.291748
  0
LINE
  8
0
 10
-124.419281
 20
-227.291748
 11
-127.819275
 21
-227.291748
  0
LINE
  8
0
 10
-124.419281
 20
-223.791748
 11
-127.819275
 21
-223.791748
  0
LINE
  8
0
 10
-124.419281
 20
-218.891754
 11
-124.419281
 21
-227.291748
  0
LINE
  8
0
 10
-117.419281
 20
-218.891754
 11
-117.419281
 21
-227.291748
  0
LINE
  8
0
 10
-117.119278
 20
-217.291748
 11
-117.919281
 21
-217.291748
  0
LINE
  8
0
 10
-117.419281
 20
-222.091751
 11
-124.419281
 21
-222.091751
  0
LINE
  8
0
 10
-120.919281
 20
-217.559967
 11
-120.919281
 21
-224.585815
  0
LINE
  8
0
 10
-123.919281
 20
-212.291748
 11
-117.919281
 21
-212.291748
  0
LINE
  8
0
 10
-123.919281
 20
-212.291748
 11
-123.919281
 21
-218.891754
  0
LINE
  8
0
 10
-117.919281
 20
-212.291748
 11
-117.919281
 21
-218.891754
  0
LINE
  8
0
 10
-117.419281
 20
-218.891754
 11
-124.419281
 21
-218.891754
  0
LINE
  8
0
 10
-123.919281
 20
-217.291748
 11
-124.719284
 21
-217.291748
  0
LINE
  8
0
 10
-123.919281
 20
-215.891754
 11
-126.219284
 21
-215.891754
  0
LINE
  8
0
 10
-117.919281
 20
-214.291748
 11
-112.919281
 21
-214.291748
  0
LINE
  8
0
 10
-127.919281
 20
-214.291748
 11
-127.919281
 21
-185.684540
  0
LINE
  8
0
 10
-127.919281
 20
-185.684540
 11
-112.919281
 21
-185.291748
  0
ARC
  8
0
 10
-126.319275
 20
-215.791748
 40
1.500000
 50
90.000000
 51
180.000000
  0
ARC
  8
0
 10
-115.519272
 20
-215.791748
 40
1.500000
 50
0.000000
 51
90.000000
  0
ARC
  8
0
 10
-124.719284
 20
-218.791748
 40
1.500000
 50
90.000000
 51
180.000000
  0
ARC
  8
0
 10
-117.119278
 20
-218.791748
 40
1.500000
 50
0.000000
 51
90.000000
  0
POINT
  8
0
 10
-253.619202
 20
-120.595337
  0
POINT
  8
0
 10
-273.619202
 20
-120.595337
  0
LINE
  8
0
 10
-273.619202
 20
-22.595360
 11
-273.619202
 21
-120.595337
  0
LINE
  8
0
 10
-302.619202
 20
-20.095360
 11
-302.619202
 21
-123.095337
  0
LINE
  8
0
 10
-302.619202
 20
-120.595337
 11
-273.619202
 21
-120.595337
  0
LINE
  8
0
 10
-302.619171
 20
-22.595360
 11
-273.619202
 21
-22.595360
  0
LINE
  8
0
 10
-282.619202
 20
-110.595337
 11
-273.619202
 21
-110.595337
  0
LINE
  8
0
 10
-282.619202
 20
-22.595360
 11
-282.619202
 21
-32.595360
  0
LINE
  8
0
 10
-282.619202
 20
-32.595360
 11
-273.619202
 21
-32.595360
  0
LINE
  8
0
 10
-282.619202
 20
-110.595352
 11
-282.619202
 21
-120.595352
  0
LINE
  8
0
 10
-302.119202
 20
-37.595360
 11
-302.119202
 21
-105.595337
  0
LINE
  8
0
 10
-302.619171
 20
-37.595360
 11
-302.119171
 21
-37.595360
  0
LINE
  8
0
 10
-302.619202
 20
-105.595337
 11
-302.119202
 21
-105.595337
  0
LINE
  8
0
 10
-299.619202
 20
-113.345337
 11
-299.619202
 21
-117.845337
  0
LINE
  8
0
 10
-304.100525
 20
-115.595337
 11
-297.619202
 21
-115.595337
  0
LINE
  8
0
 10
-302.619202
 20
-117.845337
 11
-299.619202
 21
-117.845337
  0
LINE
  8
0
 10
-302.619202
 20
-113.345337
 11
-299.619202
 21
-113.345337
  0
LINE
  8
0
 10
-302.619171
 20
-25.345360
 11
-299.619171
 21
-25.345360
  0
LINE
  8
0
 10
-299.619202
 20
-25.345360
 11
-299.619202
 21
-29.845360
  0
LINE
  8
0
 10
-304.100494
 20
-27.595360
 11
-297.619171
 21
-27.595360
  0
LINE
  8
0
 10
-302.619202
 20
-29.845360
 11
-299.619202
 21
-29.845360
  0
LINE
  8
0
 10
-281.619202
 20
-87.095360
 11
-281.619202
 21
-100.095360
  0
LINE
  8
0
 10
-288.119202
 20
-93.595329
 11
-275.119202
 21
-93.595329
  0
LINE
  8
0
 10
-315.619202
 20
-105.095337
 11
-315.619202
 21
-91.345329
  0
LINE
  8
0
 10
-315.619202
 20
-51.845360
 11
-315.619202
 21
-38.095360
  0
LINE
  8
0
 10
-312.119202
 20
-35.095360
 11
-312.119202
 21
-21.595360
  0
LINE
  8
0
 10
-311.619202
 20
-89.145348
 11
-311.619202
 21
-54.045341
  0
LINE
  8
0
 10
-311.819183
 20
-89.345329
 11
-313.619202
 21
-89.345329
  0
LINE
  8
0
 10
-311.819183
 20
-53.845360
 11
-313.619202
 21
-53.845360
  0
LINE
  8
0
 10
-302.619202
 20
-20.095360
 11
-310.619202
 21
-20.095360
  0
LINE
  8
0
 10
-302.619202
 20
-123.095337
 11
-310.619202
 21
-123.095337
  0
LINE
  8
0
 10
-313.619202
 20
-36.595360
 11
-314.119202
 21
-36.595360
  0
LINE
  8
0
 10
-313.619202
 20
-106.595337
 11
-314.119202
 21
-106.595337
  0
LINE
  8
0
 10
-312.119202
 20
-121.595337
 11
-312.119202
 21
-108.095337
  0
LINE
  8
0
 10
-305.619202
 20
-126.995346
 11
-305.619202
 21
-123.095337
  0
LINE
  8
0
 10
-300.619202
 20
-128.595352
 11
-305.719177
 21
-128.595352
  0
LINE
  8
0
 10
-300.619202
 20
-126.995346
 11
-305.619202
 21
-126.995346
  0
LINE
  8
0
 10
-307.219177
 20
-127.095352
 11
-307.219177
 21
-123.095337
  0
LINE
  8
0
 10
-300.619202
 20
-128.595352
 11
-300.619202
 21
-126.995346
  0
LINE
  8
0
 10
-277.101257
 20
-27.595360
 11
-284.079346
 21
-27.595360
  0
LINE
  8
0
 10
-277.247009
 20
-115.595337
 11
-283.955322
 21
-115.595337
  0
CIRCLE
  8
0
 10
-281.619202
 20
-93.595360
 40
4.863999
  0
CIRCLE
  8
0
 10
-281.619202
 20
-93.595360
 40
4.283000
  0
ARC
  8
0
 10
-310.619202
 20
-121.595337
 40
1.500000
 50
180.000000
 51
270.000000
  0
ARC
  8
0
 10
-313.619202
 20
-108.095337
 40
1.500000
 50
0.000000
 51
90.000000
  0
ARC
  8
0
 10
-314.119202
 20
-105.095337
 40
1.500000
 50
180.000000
 51
270.000000
  0
ARC
  8
0
 10
-310.619202
 20
-21.595360
 40
1.500000
 50
90.000000
 51
180.000000
  0
ARC
  8
0
 10
-313.619202
 20
-35.095360
 40
1.500000
 50
270.000000
 51
0.000000
  0
ARC
  8
0
 10
-314.119202
 20
-38.095360
 40
1.500000
 50
90.000000
 51
180.000000
  0
ARC
  8
0
 10
-313.619202
 20
-91.345329
 40
2.000000
 50
90.000000
 51
180.000000
  0
ARC
  8
0
 10
-311.819183
 20
-89.145348
 40
0.200005
 50
270.000000
 51
0.000000
  0
ARC
  8
0
 10
-311.819183
 20
-54.045341
 40
0.200012
 50
0.000000
 51
90.000000
  0
ARC
  8
0
 10
-313.619202
 20
-51.845360
 40
2.000000
 50
180.000000
 51
270.000000
  0
ARC
  8
0
 10
-305.719177
 20
-127.095352
 40
1.500000
 50
180.000000
 51
270.000000
  0
TEXT
  8
0
 10
-293.219208
 20
-91.274109
 40
4.000000
  1
P
 50
-90.000000
 41
1.052632
 51
0.000000
  7
STANDARD
  0
TEXT
  8
0
 10
-281.219208
 20
-72.274109
 40
4.000000
  1
R
 50
-90.000000
 41
1.052632
 51
0.000000
  7
STANDARD
  0
ENDSEC
  0
EOF
