  0
SECTION
  2
HEADER
  0
ENDSEC
  0
SECTION
  2
TABLES
  0
TABLE
  2
LTYPE
 70
     4
  0
LTYPE
  2
CONTINUOUS
 70
    64
  3
Solid line
 72
    65
 73
     0
 40
0.000000
  0
LTYPE
  2
DASHED
 70
    64
  3
__ __ __ __ __ __ __ __ __ __ __ __ __ __ __
 72
    65
 73
     2
 40
3.500000
 49
2.000000
 49
-1.500000
  0
LTYPE
  2
CENTER
 70
    64
  3
____ _ ____ _ ____ _ ____ _ ____ _ ____ _ ____
 72
    65
 73
     4
 40
17.500000
 49
13.000000
 49
-1.500000
 49
1.500000
 49
-1.500000
  0
LTYPE
  2
PHANTOM
 70
    64
  3
_____ _ _ _____ _ _ _____ _ _ _____ _ _ ____  
 72
    65
 73
     6
 40
15.500000
 49
8.000000
 49
-1.500000
 49
1.500000
 49
-1.500000
 49
1.500000
 49
-1.500000
  0
LTYPE
  2
DASHED1
 70
    64
  3
__ __ __ __ __ __ __ __ __ __ __ __ __ __ __
 72
    65
 73
     2
 40
1.500000
 49
1.000000
 49
-0.500000
  0
LTYPE
  2
DASHED2
 70
    64
  3
__ __ __ __ __ __ __ __ __ __ __ __ __ __ __
 72
    65
 73
     2
 40
3.500000
 49
2.500000
 49
-1.000000
  0
LTYPE
  2
DASHED3
 70
    64
  3
__ __ __ __ __ __ __ __ __ __ __ __ __ __ __
 72
    65
 73
     2
 40
6.000000
 49
4.000000
 49
-2.000000
  0
LTYPE
  2
DASHED4
 70
    64
  3
__ __ __ __ __ __ __ __ __ __ __ __ __ __ __
 72
    65
 73
     2
 40
12.000000
 49
10.000000
 49
-2.000000
  0
LTYPE
  2
DASHED5
 70
    64
  3
__ __ __ __ __ __ __ __ __ __ __ __ __ __ __
 72
    65
 73
     2
 40
17.000000
 49
15.000000
 49
-2.000000
  0
LTYPE
  2
DASHED6
 70
    64
  3
__ __ __ __ __ __ __ __ __ __ __ __ __ __ __
 72
    65
 73
     2
 40
29.000000
 49
27.000000
 49
-2.000000
  0
LTYPE
  2
PHANTOM1
 70
    64
  3
_____ _ _ _____ _ _ _____ _ _ _____ _ _ ____  
 72
    65
 73
     6
 40
31.000000
 49
25.000000
 49
-1.500000
 49
1.000000
 49
-1.000000
 49
1.000000
 49
-1.500000
  0
LTYPE
  2
PHANTOM2
 70
    64
  3
_____ _ _ _____ _ _ _____ _ _ _____ _ _ ____  
 72
    65
 73
     6
 40
36.000000
 49
27.000000
 49
-1.500000
 49
2.500000
 49
-1.000000
 49
2.500000
 49
-1.500000
  0
LTYPE
  2
PHANTOM3
 70
    64
  3
_____ _ _ _____ _ _ _____ _ _ _____ _ _ ____  
 72
    65
 73
     6
 40
78.000000
 49
64.000000
 49
-2.000000
 49
4.000000
 49
-2.000000
 49
4.000000
 49
-2.000000
  0
LTYPE
  2
CENTER1
 70
    64
  3
____ _ ____ _ ____ _ ____ _ ____ _ ____ _ ____
 72
    65
 73
     4
 40
19.000000
 49
14.000000
 49
-1.000000
 49
3.000000
 49
-1.000000
  0
LTYPE
  2
CENTER2
 70
    64
  3
____ _ ____ _ ____ _ ____ _ ____ _ ____ _ ____
 72
    65
 73
     4
 40
28.500000
 49
25.000000
 49
-1.000000
 49
1.500000
 49
-1.000000
  0
LTYPE
  2
CENTER3
 70
    64
  3
____ _ ____ _ ____ _ ____ _ ____ _ ____ _ ____
 72
    65
 73
     4
 40
31.500000
 49
27.000000
 49
-1.000000
 49
2.500000
 49
-1.000000
  0
LTYPE
  2
CENTER4
 70
    64
  3
____ _ ____ _ ____ _ ____ _ ____ _ ____ _ ____
 72
    65
 73
     4
 40
50.000000
 49
45.000000
 49
-1.000000
 49
3.000000
 49
-1.000000
  0
LTYPE
  2
CENTER5
 70
    64
  3
____ _ ____ _ ____ _ ____ _ ____ _ ____ _ ____
 72
    65
 73
     4
 40
100.000000
 49
92.000000
 49
-2.000000
 49
4.000000
 49
-2.000000
  0
LTYPE
  2
SBK1
 70
    64
  3
______ _ _ _ ______ _ _ _ ______ _ _ _ _____  
 72
    65
 73
     8
 40
60.500000
 49
45.000000
 49
-2.000000
 49
2.500000
 49
-2.000000
 49
2.500000
 49
-2.000000
 49
2.500000
 49
-2.000000
  0
LTYPE
  2
SBK2
 70
    64
  3
______ _ _ _ ______ _ _ _ ______ _ _ _ _____  
 72
    65
 73
     8
 40
84.000000
 49
64.000000
 49
-2.000000
 49
4.000000
 49
-2.000000
 49
4.000000
 49
-2.000000
 49
4.000000
 49
-2.000000
  0
LTYPE
  2
STCH
 70
    64
  3
__ __ __ __ __ __ __ __ __ __ __ __ __ __ __
 72
    65
 73
     2
 40
3.000000
 49
1.000000
 49
-2.000000
  0
LTYPE
  2
MTCH
 70
    64
  3
_____ _ _ _____ _ _ _____ _ _ _____ _ _ ____  
 72
    65
 73
     6
 40
80.000000
 49
66.000000
 49
-2.000000
 49
4.000000
 49
-2.000000
 49
4.000000
 49
-2.000000
  0
ENDTAB
  0
TABLE
  2
LAYER
 70
     1
  0
LAYER
  2
0
 70
     0
 62
     7
  6
CONTINUOUS
  0
ENDTAB
  0
TABLE
  2
STYLE
 70
     1
  0
STYLE
  2
STANDARD
 70
     0
 40
0.000000
 41
1.000000
 50
0.000000
 71
     0
 42
0.200000
  3
txt
  4
BIGFONT
  0
ENDTAB
  0
TABLE
  2
VIEW
 70
     0
  0
ENDTAB
  0
ENDSEC
  0
SECTION
  2
BLOCKS
  0
ENDSEC
  0
SECTION
  2
ENTITIES
  0
LINE
  8
0
 10
-420.500000
 20
297.000000
 11
420.500000
 21
297.000000
  0
LINE
  8
0
 10
-420.500000
 20
-297.000000
 11
420.500000
 21
-297.000000
  0
LINE
  8
0
 10
420.500000
 20
297.000000
 11
420.500000
 21
-297.000000
  0
LINE
  8
0
 10
-420.500000
 20
297.000000
 11
-420.500000
 21
-297.000000
  0
LINE
  8
0
 10
399.799988
 20
276.250000
 11
399.799988
 21
-276.750000
  0
LINE
  8
0
 10
-399.250000
 20
276.250000
 11
-399.250000
 21
-276.750000
  0
LINE
  8
0
 10
-399.250000
 20
276.250000
 11
399.799988
 21
276.250000
  0
LINE
  8
0
 10
-399.250000
 20
-276.750000
 11
399.799988
 21
-276.750000
  0
LINE
  8
0
 10
239.799988
 20
-251.750000
 11
399.799988
 21
-251.750000
  0
LINE
  8
0
 10
239.799988
 20
251.250000
 11
399.799988
 21
251.250000
  0
LINE
  8
0
 10
-399.250000
 20
251.250000
 11
-239.250000
 21
251.250000
  0
LINE
  8
0
 10
239.799988
 20
-251.750000
 11
239.799988
 21
-276.750000
  0
LINE
  8
0
 10
239.799988
 20
251.250000
 11
239.799988
 21
276.250000
  0
LINE
  8
0
 10
-239.250000
 20
276.250000
 11
-239.250000
 21
251.250000
  0
LINE
  8
0
 10
-399.250000
 20
-0.250000
 11
399.799988
 21
-0.250000
  0
LINE
  8
0
 10
0.274994
 20
-276.750000
 11
0.274994
 21
276.250000
  0
LINE
  8
0
 10
-399.250000
 20
-261.750000
 11
239.799988
 21
-261.750000
  0
LINE
  8
0
 10
-399.250000
 20
14.750000
 11
399.799988
 21
14.750000
  0
LINE
  8
0
  6
PHANTOM
 10
77.571289
 20
233.196152
 11
105.571289
 21
233.196152
  0
LINE
  8
0
  6
PHANTOM
 10
77.571297
 20
135.196136
 11
105.571297
 21
135.196136
  0
LINE
  8
0
  6
PHANTOM
 10
77.571297
 20
233.196152
 11
77.571297
 21
135.196136
  0
LINE
  8
0
  6
PHANTOM
 10
105.571297
 20
233.196152
 11
105.571297
 21
135.196136
  0
LINE
  8
0
  6
PHANTOM
 10
-272.139832
 20
232.696136
 11
-272.139832
 21
134.696136
  0
LINE
  8
0
  6
PHANTOM
 10
-244.139847
 20
232.696136
 11
-244.139847
 21
134.696136
  0
LINE
  8
0
  6
PHANTOM
 10
-272.139832
 20
134.696136
 11
-244.139847
 21
134.696136
  0
LINE
  8
0
  6
PHANTOM
 10
-272.139832
 20
232.696136
 11
-244.139847
 21
232.696136
  0
LINE
  8
0
  6
PHANTOM
 10
-244.870346
 20
-26.971191
 11
-244.870346
 21
-124.971191
  0
LINE
  8
0
  6
PHANTOM
 10
-272.870361
 20
-26.971191
 11
-272.870361
 21
-124.971191
  0
LINE
  8
0
  6
PHANTOM
 10
-244.870346
 20
-124.971191
 11
-272.870361
 21
-124.971191
  0
LINE
  8
0
  6
PHANTOM
 10
-244.870346
 20
-26.971191
 11
-272.870361
 21
-26.971191
  0
TEXT
  8
0
 10
-345.785156
 20
253.500000
 40
12.500000
  1
X88M
 50
0.000000
 41
1.052632
 51
0.000000
  7
STANDARD
  0
TEXT
  8
0
 10
242.014816
 20
-274.500000
 40
12.500000
  1
KOGANEI CORP.
 50
0.000000
 41
1.052632
 51
0.000000
  7
STANDARD
  0
TEXT
  8
0
 10
251.264664
 20
256.649994
 40
9.000000
  1
DATE: SEP ,1992
 50
0.000000
 41
1.052632
 51
0.000000
  7
STANDARD
  0
TEXT
  8
0
 10
-272.523224
 20
0.150000
 40
9.000000
  1
MODEL : FMC-F200
 50
0.000000
 41
1.052632
 51
0.000000
  7
STANDARD
  0
TEXT
  8
0
 10
127.001778
 20
0.150000
 40
9.000000
  1
MODEL : FMC-T100
 50
0.000000
 41
1.052632
 51
0.000000
  7
STANDARD
  0
TEXT
  8
0
 10
-272.523224
 20
-276.350006
 40
9.000000
  1
MODEL : FMC-D250
 50
0.000000
 41
1.052632
 51
0.000000
  7
STANDARD
  0
POINT
  8
0
 10
-112.870285
 20
135.196106
  0
POINT
  8
0
 10
-93.870285
 20
135.196106
  0
LINE
  8
0
 10
-93.870285
 20
233.196091
 11
-93.870285
 21
135.196106
  0
LINE
  8
0
 10
-112.870285
 20
135.196106
 11
-93.870285
 21
135.196106
  0
LINE
  8
0
 10
-112.870285
 20
233.196091
 11
-93.870285
 21
233.196091
  0
LINE
  8
0
 10
-99.370270
 20
145.696106
 11
-95.370270
 21
145.696106
  0
LINE
  8
0
 10
-99.370270
 20
149.696106
 11
-95.370270
 21
149.696106
  0
LINE
  8
0
 10
-99.370285
 20
149.696106
 11
-99.370285
 21
145.696106
  0
LINE
  8
0
 10
-95.370285
 20
149.696106
 11
-95.370285
 21
145.696106
  0
LINE
  8
0
 10
-111.370270
 20
149.696106
 11
-107.370270
 21
149.696106
  0
LINE
  8
0
 10
-107.370285
 20
149.696106
 11
-107.370285
 21
145.696106
  0
LINE
  8
0
 10
-111.370270
 20
145.696106
 11
-107.370270
 21
145.696106
  0
LINE
  8
0
 10
-111.370285
 20
149.696106
 11
-111.370285
 21
145.696106
  0
LINE
  8
0
 10
-96.470291
 20
218.196106
 11
-96.470291
 21
172.196106
  0
LINE
  8
0
 10
-105.870285
 20
218.196106
 11
-105.870285
 21
172.196106
  0
LINE
  8
0
 10
-105.870285
 20
172.196106
 11
-96.470291
 21
172.196106
  0
LINE
  8
0
 10
-105.870300
 20
218.196106
 11
-96.470306
 21
218.196106
  0
LINE
  8
0
 10
-108.370285
 20
154.196106
 11
-108.370285
 21
151.196106
  0
LINE
  8
0
 10
-98.370285
 20
154.196106
 11
-98.370285
 21
151.196106
  0
LINE
  8
0
 10
-108.370270
 20
151.196106
 11
-98.370270
 21
151.196106
  0
LINE
  8
0
 10
-103.370285
 20
236.696091
 11
-103.370285
 21
131.696106
  0
LINE
  8
0
 10
-112.870285
 20
168.196106
 11
-93.870285
 21
168.196106
  0
LINE
  8
0
 10
-112.870285
 20
154.196106
 11
-93.870285
 21
154.196106
  0
LINE
  8
0
 10
-97.870285
 20
179.846130
 11
-97.870285
 21
210.546112
  0
LINE
  8
0
 10
-104.470276
 20
179.846130
 11
-104.470276
 21
210.546112
  0
LINE
  8
0
 10
-103.170288
 20
179.846100
 11
-104.470291
 21
179.846100
  0
LINE
  8
0
 10
-103.170288
 20
176.446121
 11
-103.170288
 21
181.846115
  0
LINE
  8
0
 10
-99.170273
 20
176.446136
 11
-99.170273
 21
181.846130
  0
LINE
  8
0
 10
-99.170288
 20
176.446106
 11
-103.170288
 21
176.446106
  0
LINE
  8
0
 10
-99.170288
 20
181.846100
 11
-103.170288
 21
181.846100
  0
LINE
  8
0
 10
-97.870285
 20
179.846100
 11
-99.170288
 21
179.846100
  0
LINE
  8
0
 10
-99.170288
 20
210.546112
 11
-97.870285
 21
210.546112
  0
LINE
  8
0
 10
-99.170288
 20
213.946106
 11
-99.170288
 21
208.546112
  0
LINE
  8
0
 10
-103.170303
 20
213.946106
 11
-103.170303
 21
208.546097
  0
LINE
  8
0
 10
-103.170303
 20
213.946106
 11
-99.170303
 21
213.946106
  0
LINE
  8
0
 10
-103.170288
 20
208.546112
 11
-99.170288
 21
208.546112
  0
LINE
  8
0
 10
-104.470291
 20
210.546112
 11
-103.170288
 21
210.546112
  0
LINE
  8
0
 10
-112.870285
 20
135.696106
 11
-93.870285
 21
135.696106
  0
LINE
  8
0
 10
-112.870285
 20
232.696106
 11
-93.870285
 21
232.696106
  0
LINE
  8
0
 10
-98.536987
 20
141.362839
 11
-96.203522
 21
139.029388
  0
LINE
  8
0
 10
-98.537003
 20
139.029388
 11
-96.203545
 21
141.362839
  0
LINE
  8
0
 10
-98.537033
 20
229.362854
 11
-96.203568
 21
227.029388
  0
LINE
  8
0
 10
-98.537025
 20
227.029388
 11
-96.203568
 21
229.362839
  0
LINE
  8
0
 10
-101.170296
 20
171.017975
 11
-101.170296
 21
218.949829
  0
LINE
  8
0
 10
-110.536987
 20
229.362823
 11
-108.203522
 21
227.029373
  0
LINE
  8
0
 10
-110.537003
 20
227.029358
 11
-108.203545
 21
229.362823
  0
LINE
  8
0
 10
-110.536987
 20
141.362839
 11
-108.203522
 21
139.029388
  0
LINE
  8
0
 10
-110.537003
 20
139.029388
 11
-108.203545
 21
141.362839
  0
LINE
  8
0
 10
-108.340042
 20
159.892975
 11
-105.900528
 21
162.332489
  0
LINE
  8
0
 10
-105.900536
 20
159.892975
 11
-108.340042
 21
162.332489
  0
LINE
  8
0
 10
-100.840042
 20
159.891815
 11
-98.400528
 21
162.331329
  0
LINE
  8
0
 10
-98.400536
 20
159.891830
 11
-100.840042
 21
162.331345
  0
LINE
  8
0
 10
-106.370270
 20
147.696106
 11
-100.370270
 21
147.696106
  0
CIRCLE
  8
0
 10
-103.370270
 20
147.696106
 40
1.599999
  0
CIRCLE
  8
0
 10
-97.370270
 20
140.196075
 40
3.000000
  0
CIRCLE
  8
0
 10
-97.370300
 20
228.196075
 40
3.000000
  0
CIRCLE
  8
0
 10
-102.440292
 20
201.546127
 40
0.320000
  0
CIRCLE
  8
0
 10
-99.900299
 20
201.546127
 40
0.320000
  0
CIRCLE
  8
0
 10
-102.440292
 20
204.086136
 40
0.320000
  0
CIRCLE
  8
0
 10
-99.900299
 20
204.086136
 40
0.320000
  0
CIRCLE
  8
0
 10
-102.440292
 20
206.626144
 40
0.320000
  0
CIRCLE
  8
0
 10
-99.900299
 20
206.626144
 40
0.320000
  0
CIRCLE
  8
0
 10
-102.440292
 20
196.466125
 40
0.320000
  0
CIRCLE
  8
0
 10
-99.900299
 20
199.006134
 40
0.320000
  0
CIRCLE
  8
0
 10
-102.440292
 20
199.006134
 40
0.320000
  0
CIRCLE
  8
0
 10
-99.900299
 20
196.466125
 40
0.320000
  0
CIRCLE
  8
0
 10
-99.900299
 20
186.306137
 40
0.320000
  0
CIRCLE
  8
0
 10
-102.440292
 20
188.846130
 40
0.320000
  0
CIRCLE
  8
0
 10
-99.900299
 20
188.846130
 40
0.320000
  0
CIRCLE
  8
0
 10
-102.440292
 20
186.306137
 40
0.320000
  0
CIRCLE
  8
0
 10
-99.900299
 20
183.766144
 40
0.320000
  0
CIRCLE
  8
0
 10
-102.440292
 20
183.766144
 40
0.320000
  0
CIRCLE
  8
0
 10
-99.900299
 20
193.926132
 40
0.320000
  0
CIRCLE
  8
0
 10
-102.440292
 20
193.926132
 40
0.320000
  0
CIRCLE
  8
0
 10
-99.900299
 20
191.386139
 40
0.320000
  0
CIRCLE
  8
0
 10
-102.440292
 20
191.386139
 40
0.320000
  0
CIRCLE
  8
0
 10
-109.370270
 20
228.196060
 40
3.000000
  0
CIRCLE
  8
0
 10
-109.370270
 20
140.196075
 40
3.000000
  0
CIRCLE
  8
0
 10
-107.120247
 20
161.112701
 40
2.999999
  0
CIRCLE
  8
0
 10
-99.620247
 20
161.111557
 40
2.999999
  0
TEXT
  8
0
 10
-111.048706
 20
145.996109
 40
3.000000
  1
-
 50
0.000000
 41
1.052632
 51
0.000000
  7
STANDARD
  0
TEXT
  8
0
 10
-99.048706
 20
145.996109
 40
3.000000
  1
+
 50
0.000000
 41
1.052632
 51
0.000000
  7
STANDARD
  0
POINT
  8
0
 10
-93.870285
 20
62.696106
  0
POINT
  8
0
 10
-112.870285
 20
62.696106
  0
LINE
  8
0
 10
-103.370285
 20
111.696106
 11
-103.370285
 21
34.196098
  0
LINE
  8
0
 10
-93.870285
 20
90.696106
 11
-93.870285
 21
35.696106
  0
LINE
  8
0
 10
-93.870285
 20
35.696106
 11
-112.870285
 21
35.696106
  0
LINE
  8
0
 10
-94.370300
 20
90.696091
 11
-94.370300
 21
109.696091
  0
LINE
  8
0
 10
-97.370300
 20
94.696091
 11
-97.370300
 21
107.696091
  0
LINE
  8
0
 10
-101.870300
 20
94.696091
 11
-101.870300
 21
107.696091
  0
LINE
  8
0
 10
-104.870300
 20
94.696091
 11
-104.870300
 21
107.696091
  0
LINE
  8
0
 10
-109.370300
 20
94.696106
 11
-109.370300
 21
107.696106
  0
LINE
  8
0
 10
-101.870300
 20
94.696106
 11
-97.370300
 21
94.696106
  0
LINE
  8
0
 10
-109.370300
 20
94.696106
 11
-104.870300
 21
94.696106
  0
LINE
  8
0
 10
-101.870300
 20
102.596100
 11
-97.370300
 21
102.596100
  0
LINE
  8
0
 10
-109.370300
 20
102.596100
 11
-104.870300
 21
102.596100
  0
LINE
  8
0
 10
-112.370300
 20
109.696106
 11
-94.370300
 21
109.696106
  0
LINE
  8
0
 10
-112.370300
 20
104.696106
 11
-94.370300
 21
104.696106
  0
LINE
  8
0
 10
-109.370300
 20
107.696106
 11
-112.370300
 21
107.696106
  0
LINE
  8
0
 10
-97.370285
 20
107.696106
 11
-94.370300
 21
107.696106
  0
LINE
  8
0
 10
-104.870285
 20
107.696106
 11
-101.870285
 21
107.696106
  0
LINE
  8
0
 10
-112.370300
 20
90.696106
 11
-112.370300
 21
109.696106
  0
LINE
  8
0
 10
-93.870285
 20
87.696106
 11
-112.870285
 21
87.696106
  0
LINE
  8
0
 10
-93.870285
 20
90.696106
 11
-112.870285
 21
90.696106
  0
LINE
  8
0
 10
-112.870285
 20
62.696106
 11
-112.870285
 21
90.696106
  0
LINE
  8
0
 10
-93.870285
 20
62.696106
 11
-112.870285
 21
62.696106
  0
LINE
  8
0
 10
-93.870285
 20
62.196106
 11
-112.870285
 21
62.196106
  0
POINT
  8
0
 10
-244.139847
 20
134.696136
  0
POINT
  8
0
 10
-224.139847
 20
134.696136
  0
LINE
  8
0
 10
-220.139923
 20
135.196136
 11
-220.139923
 21
232.196136
  0
LINE
  8
0
 10
-221.139862
 20
142.696136
 11
-224.139862
 21
142.696136
  0
LINE
  8
0
 10
-221.139938
 20
224.696136
 11
-224.139938
 21
224.696136
  0
LINE
  8
0
 10
-224.139923
 20
141.696198
 11
-224.139923
 21
225.696167
  0
LINE
  8
0
 10
-228.639923
 20
141.696198
 11
-228.639923
 21
225.696167
  0
LINE
  8
0
 10
-233.139923
 20
141.696167
 11
-233.139923
 21
225.696167
  0
LINE
  8
0
 10
-237.639923
 20
141.696167
 11
-237.639923
 21
225.696167
  0
LINE
  8
0
 10
-242.139923
 20
141.696167
 11
-242.139923
 21
225.696167
  0
LINE
  8
0
 10
-239.139923
 20
141.696167
 11
-239.139923
 21
225.696167
  0
LINE
  8
0
 10
-234.639923
 20
141.696167
 11
-234.639923
 21
225.696167
  0
LINE
  8
0
 10
-230.139923
 20
141.696198
 11
-230.139923
 21
225.696167
  0
LINE
  8
0
 10
-225.639923
 20
141.696198
 11
-225.639923
 21
225.696167
  0
LINE
  8
0
 10
-221.139923
 20
141.696198
 11
-221.139923
 21
225.696167
  0
LINE
  8
0
 10
-239.139847
 20
142.696136
 11
-242.139847
 21
142.696136
  0
LINE
  8
0
 10
-234.639862
 20
142.696136
 11
-237.639847
 21
142.696136
  0
LINE
  8
0
 10
-230.139862
 20
142.696136
 11
-233.139862
 21
142.696136
  0
LINE
  8
0
 10
-225.639862
 20
142.696136
 11
-228.639862
 21
142.696136
  0
LINE
  8
0
 10
-225.639938
 20
224.696136
 11
-228.639938
 21
224.696136
  0
LINE
  8
0
 10
-230.139938
 20
224.696136
 11
-233.139938
 21
224.696136
  0
LINE
  8
0
 10
-234.639938
 20
224.696136
 11
-237.639938
 21
224.696136
  0
LINE
  8
0
 10
-239.139938
 20
224.696136
 11
-242.139938
 21
224.696136
  0
LINE
  8
0
 10
-204.362167
 20
212.546143
 11
-201.139938
 21
212.546143
  0
LINE
  8
0
 10
-201.139893
 20
212.545975
 11
-198.532867
 21
213.424591
  0
LINE
  8
0
 10
-206.628662
 20
210.084686
 11
-202.128677
 21
210.084686
  0
LINE
  8
0
 10
-202.128662
 20
209.584686
 11
-202.128662
 21
210.084656
  0
LINE
  8
0
 10
-202.039337
 20
208.470642
 11
-202.363449
 21
208.642883
  0
LINE
  8
0
 10
-210.639908
 20
180.696060
 11
-210.639908
 21
208.695923
  0
LINE
  8
0
 10
-217.139923
 20
172.246155
 11
-204.362152
 21
176.846146
  0
LINE
  8
0
 10
-210.639893
 20
180.696091
 11
-206.628693
 21
179.307602
  0
LINE
  8
0
 10
-198.063080
 20
176.580627
 11
-200.737976
 21
180.592957
  0
LINE
  8
0
 10
-204.362137
 20
176.846161
 11
-201.139908
 21
176.846161
  0
LINE
  8
0
 10
-201.139832
 20
176.846405
 11
-198.532791
 21
175.967789
  0
LINE
  8
0
 10
-206.628632
 20
179.307617
 11
-202.128632
 21
179.307617
  0
LINE
  8
0
 10
-202.128632
 20
179.807648
 11
-202.128632
 21
179.307648
  0
LINE
  8
0
 10
-202.039185
 20
180.921509
 11
-202.363297
 21
180.749268
  0
LINE
  8
0
 10
-217.139801
 20
217.146271
 11
-204.361984
 21
212.546265
  0
LINE
  8
0
 10
-210.639908
 20
208.695892
 11
-206.627960
 21
210.084656
  0
LINE
  8
0
 10
-198.139893
 20
167.696167
 11
-198.139893
 21
153.696167
  0
LINE
  8
0
 10
-198.139908
 20
167.696136
 11
-203.139908
 21
167.696136
  0
LINE
  8
0
 10
-200.139908
 20
166.696167
 11
-200.139908
 21
154.696167
  0
LINE
  8
0
 10
-203.139893
 20
167.696167
 11
-203.139893
 21
166.696167
  0
LINE
  8
0
 10
-200.139908
 20
166.696136
 11
-217.139893
 21
166.696136
  0
LINE
  8
0
 10
-200.139908
 20
165.946136
 11
-208.139908
 21
165.946136
  0
LINE
  8
0
 10
-208.139908
 20
165.946167
 11
-208.139908
 21
155.446167
  0
LINE
  8
0
 10
-200.139908
 20
155.446136
 11
-208.139908
 21
155.446136
  0
LINE
  8
0
 10
-200.139908
 20
154.696136
 11
-217.139893
 21
154.696136
  0
LINE
  8
0
 10
-198.139908
 20
153.696136
 11
-203.139908
 21
153.696136
  0
LINE
  8
0
 10
-203.139908
 20
154.696167
 11
-203.139908
 21
153.696167
  0
LINE
  8
0
 10
-217.139893
 20
135.196136
 11
-217.139893
 21
232.196136
  0
LINE
  8
0
 10
-198.063034
 20
212.811661
 11
-200.737930
 21
208.799316
  0
LINE
  8
0
 10
-217.139832
 20
135.196136
 11
-244.139847
 21
135.196136
  0
LINE
  8
0
 10
-217.139832
 20
232.196136
 11
-244.139847
 21
232.196136
  0
ARC
  8
0
 10
-201.569885
 20
180.038361
 40
1.000007
 50
33.691036
 51
117.987579
  0
ARC
  8
0
 10
-198.402557
 20
213.038025
 40
0.408154
 50
326.308746
 51
108.624626
  0
ARC
  8
0
 10
-202.128632
 20
180.307648
 40
0.499994
 50
117.989174
 51
270.000000
  0
ARC
  8
0
 10
-198.402527
 20
176.354309
 40
0.408141
 50
251.374023
 51
33.691257
  0
ARC
  8
0
 10
-201.569931
 20
209.353973
 40
0.999995
 50
242.012009
 51
326.310425
  0
ARC
  8
0
 10
-202.128677
 20
209.084656
 40
0.500000
 50
90.000000
 51
242.013184
  0
POINT
  8
0
 10
236.571243
 20
135.196152
  0
POINT
  8
0
 10
255.571243
 20
135.196152
  0
LINE
  8
0
 10
236.571243
 20
135.196152
 11
255.571243
 21
135.196152
  0
LINE
  8
0
 10
236.571243
 20
233.196136
 11
255.571243
 21
233.196136
  0
LINE
  8
0
 10
237.571274
 20
224.196136
 11
240.571274
 21
224.196136
  0
LINE
  8
0
 10
237.571243
 20
144.196152
 11
240.571243
 21
144.196152
  0
LINE
  8
0
 10
237.571274
 20
224.196136
 11
237.571274
 21
144.196152
  0
LINE
  8
0
 10
240.571274
 20
224.196136
 11
240.571274
 21
144.196152
  0
LINE
  8
0
 10
246.071259
 20
236.696136
 11
246.071259
 21
131.696152
  0
LINE
  8
0
 10
255.571243
 20
233.196136
 11
255.571243
 21
135.196152
  0
LINE
  8
0
 10
254.571259
 20
145.196152
 11
240.571274
 21
145.196152
  0
LINE
  8
0
 10
254.571259
 20
145.196136
 11
254.571259
 21
223.196152
  0
LINE
  8
0
 10
243.071274
 20
212.696136
 11
240.571274
 21
212.696136
  0
LINE
  8
0
 10
243.071274
 20
215.696152
 11
240.571274
 21
215.696152
  0
LINE
  8
0
 10
254.571259
 20
215.696152
 11
252.071274
 21
215.696152
  0
LINE
  8
0
 10
254.571259
 20
212.696136
 11
252.071274
 21
212.696136
  0
LINE
  8
0
 10
254.571259
 20
220.196152
 11
252.071274
 21
220.196152
  0
LINE
  8
0
 10
243.071274
 20
220.196152
 11
240.571274
 21
220.196152
  0
LINE
  8
0
 10
254.571259
 20
208.196136
 11
252.071274
 21
208.196136
  0
LINE
  8
0
 10
252.071274
 20
207.196136
 11
243.071274
 21
207.196136
  0
LINE
  8
0
 10
243.071274
 20
207.196136
 11
243.071274
 21
213.696152
  0
LINE
  8
0
 10
252.071274
 20
207.196136
 11
252.071274
 21
213.696152
  0
LINE
  8
0
 10
252.071274
 20
214.696152
 11
252.071274
 21
221.196152
  0
LINE
  8
0
 10
243.071274
 20
214.696152
 11
243.071274
 21
221.196152
  0
LINE
  8
0
 10
243.071274
 20
208.196136
 11
240.571274
 21
208.196136
  0
LINE
  8
0
 10
252.071274
 20
213.696152
 11
243.071274
 21
213.696152
  0
LINE
  8
0
 10
252.071274
 20
214.696152
 11
243.071274
 21
214.696152
  0
LINE
  8
0
 10
252.071274
 20
221.196152
 11
243.071274
 21
221.196152
  0
LINE
  8
0
 10
243.071274
 20
152.696152
 11
240.571274
 21
152.696152
  0
LINE
  8
0
 10
243.071274
 20
155.696152
 11
240.571274
 21
155.696152
  0
LINE
  8
0
 10
254.571259
 20
155.696152
 11
252.071274
 21
155.696152
  0
LINE
  8
0
 10
254.571259
 20
152.696152
 11
252.071274
 21
152.696152
  0
LINE
  8
0
 10
254.571259
 20
160.196152
 11
252.071274
 21
160.196152
  0
LINE
  8
0
 10
243.071274
 20
160.196152
 11
240.571274
 21
160.196152
  0
LINE
  8
0
 10
254.571259
 20
148.196152
 11
252.071274
 21
148.196152
  0
LINE
  8
0
 10
252.071274
 20
147.196136
 11
243.071274
 21
147.196136
  0
LINE
  8
0
 10
243.071274
 20
147.196136
 11
243.071274
 21
153.696152
  0
LINE
  8
0
 10
252.071274
 20
147.196136
 11
252.071274
 21
153.696152
  0
LINE
  8
0
 10
252.071274
 20
154.696152
 11
252.071274
 21
161.196152
  0
LINE
  8
0
 10
243.071274
 20
154.696152
 11
243.071274
 21
161.196152
  0
LINE
  8
0
 10
243.071274
 20
162.196152
 11
243.071274
 21
163.196152
  0
LINE
  8
0
 10
252.071274
 20
162.196152
 11
252.071274
 21
163.196152
  0
LINE
  8
0
 10
243.071274
 20
148.196152
 11
240.571274
 21
148.196152
  0
LINE
  8
0
 10
252.071274
 20
153.696152
 11
243.071274
 21
153.696152
  0
LINE
  8
0
 10
252.071274
 20
154.696152
 11
243.071274
 21
154.696152
  0
LINE
  8
0
 10
252.071274
 20
162.196152
 11
243.071274
 21
162.196152
  0
LINE
  8
0
 10
252.071274
 20
161.196152
 11
243.071274
 21
161.196152
  0
LINE
  8
0
 10
243.071274
 20
167.696152
 11
240.571274
 21
167.696152
  0
LINE
  8
0
 10
243.071274
 20
170.696152
 11
240.571274
 21
170.696152
  0
LINE
  8
0
 10
254.571259
 20
170.696152
 11
252.071274
 21
170.696152
  0
LINE
  8
0
 10
254.571259
 20
167.696152
 11
252.071274
 21
167.696152
  0
LINE
  8
0
 10
254.571259
 20
175.196152
 11
252.071274
 21
175.196152
  0
LINE
  8
0
 10
243.071274
 20
175.196152
 11
240.571274
 21
175.196152
  0
LINE
  8
0
 10
254.571259
 20
163.196152
 11
252.071274
 21
163.196152
  0
LINE
  8
0
 10
252.071274
 20
162.196152
 11
243.071274
 21
162.196152
  0
LINE
  8
0
 10
243.071274
 20
162.196152
 11
243.071274
 21
168.696152
  0
LINE
  8
0
 10
252.071274
 20
162.196152
 11
252.071274
 21
168.696152
  0
LINE
  8
0
 10
252.071274
 20
169.696152
 11
252.071274
 21
176.196152
  0
LINE
  8
0
 10
243.071274
 20
169.696152
 11
243.071274
 21
176.196152
  0
LINE
  8
0
 10
243.071274
 20
177.196152
 11
243.071274
 21
178.196152
  0
LINE
  8
0
 10
252.071274
 20
177.196152
 11
252.071274
 21
178.196152
  0
LINE
  8
0
 10
243.071274
 20
163.196152
 11
240.571274
 21
163.196152
  0
LINE
  8
0
 10
252.071274
 20
168.696152
 11
243.071274
 21
168.696152
  0
LINE
  8
0
 10
252.071274
 20
169.696152
 11
243.071274
 21
169.696152
  0
LINE
  8
0
 10
252.071274
 20
177.196152
 11
243.071274
 21
177.196152
  0
LINE
  8
0
 10
252.071274
 20
176.196152
 11
243.071274
 21
176.196152
  0
LINE
  8
0
 10
243.071274
 20
182.696136
 11
240.571274
 21
182.696136
  0
LINE
  8
0
 10
243.071274
 20
185.696152
 11
240.571274
 21
185.696152
  0
LINE
  8
0
 10
254.571259
 20
185.696152
 11
252.071274
 21
185.696152
  0
LINE
  8
0
 10
254.571259
 20
182.696136
 11
252.071274
 21
182.696136
  0
LINE
  8
0
 10
254.571259
 20
190.196152
 11
252.071274
 21
190.196152
  0
LINE
  8
0
 10
243.071274
 20
190.196152
 11
240.571274
 21
190.196152
  0
LINE
  8
0
 10
254.571259
 20
178.196136
 11
252.071274
 21
178.196136
  0
LINE
  8
0
 10
252.071274
 20
177.196136
 11
243.071274
 21
177.196136
  0
LINE
  8
0
 10
243.071274
 20
177.196136
 11
243.071274
 21
183.696152
  0
LINE
  8
0
 10
252.071274
 20
177.196136
 11
252.071274
 21
183.696152
  0
LINE
  8
0
 10
252.071274
 20
184.696152
 11
252.071274
 21
191.196152
  0
LINE
  8
0
 10
243.071274
 20
184.696152
 11
243.071274
 21
191.196152
  0
LINE
  8
0
 10
243.071274
 20
192.196152
 11
243.071274
 21
193.196152
  0
LINE
  8
0
 10
252.071274
 20
192.196152
 11
252.071274
 21
193.196152
  0
LINE
  8
0
 10
243.071274
 20
178.196136
 11
240.571274
 21
178.196136
  0
LINE
  8
0
 10
252.071274
 20
183.696152
 11
243.071274
 21
183.696152
  0
LINE
  8
0
 10
252.071274
 20
184.696152
 11
243.071274
 21
184.696152
  0
LINE
  8
0
 10
252.071274
 20
192.196152
 11
243.071274
 21
192.196152
  0
LINE
  8
0
 10
252.071274
 20
191.196152
 11
243.071274
 21
191.196152
  0
LINE
  8
0
 10
243.071274
 20
197.696136
 11
240.571274
 21
197.696136
  0
LINE
  8
0
 10
243.071274
 20
200.696152
 11
240.571274
 21
200.696152
  0
LINE
  8
0
 10
254.571259
 20
200.696152
 11
252.071274
 21
200.696152
  0
LINE
  8
0
 10
254.571259
 20
197.696136
 11
252.071274
 21
197.696136
  0
LINE
  8
0
 10
254.571259
 20
205.196152
 11
252.071274
 21
205.196152
  0
LINE
  8
0
 10
243.071274
 20
205.196152
 11
240.571274
 21
205.196152
  0
LINE
  8
0
 10
254.571259
 20
193.196136
 11
252.071274
 21
193.196136
  0
LINE
  8
0
 10
252.071274
 20
192.196136
 11
243.071274
 21
192.196136
  0
LINE
  8
0
 10
243.071274
 20
192.196136
 11
243.071274
 21
198.696152
  0
LINE
  8
0
 10
252.071274
 20
192.196136
 11
252.071274
 21
198.696152
  0
LINE
  8
0
 10
252.071274
 20
199.696152
 11
252.071274
 21
206.196152
  0
LINE
  8
0
 10
243.071274
 20
199.696152
 11
243.071274
 21
206.196152
  0
LINE
  8
0
 10
243.071274
 20
207.196152
 11
243.071274
 21
208.196152
  0
LINE
  8
0
 10
252.071274
 20
207.196152
 11
252.071274
 21
208.196152
  0
LINE
  8
0
 10
243.071274
 20
193.196136
 11
240.571274
 21
193.196136
  0
LINE
  8
0
 10
252.071274
 20
198.696152
 11
243.071274
 21
198.696152
  0
LINE
  8
0
 10
252.071274
 20
199.696152
 11
243.071274
 21
199.696152
  0
LINE
  8
0
 10
252.071274
 20
207.196152
 11
243.071274
 21
207.196152
  0
LINE
  8
0
 10
252.071274
 20
206.196152
 11
243.071274
 21
206.196152
  0
LINE
  8
0
 10
240.571274
 20
223.196152
 11
254.571259
 21
223.196152
  0
LINE
  8
0
 10
238.657043
 20
226.781921
 11
241.485474
 21
229.610352
  0
LINE
  8
0
 10
238.657104
 20
229.610413
 11
241.485535
 21
226.781982
  0
LINE
  8
0
 10
250.657104
 20
138.781952
 11
253.485535
 21
141.610367
  0
LINE
  8
0
 10
250.657104
 20
141.610428
 11
253.485535
 21
138.781998
  0
LINE
  8
0
 10
238.657074
 20
138.781921
 11
241.485504
 21
141.610352
  0
LINE
  8
0
 10
238.657120
 20
141.610428
 11
241.485550
 21
138.781998
  0
LINE
  8
0
 10
246.157074
 20
149.031921
 11
248.985504
 21
151.860352
  0
LINE
  8
0
 10
246.157135
 20
151.860413
 11
248.985565
 21
149.031998
  0
LINE
  8
0
 10
246.157074
 20
156.531921
 11
248.985504
 21
159.360352
  0
LINE
  8
0
 10
246.157104
 20
159.360397
 11
248.985535
 21
156.531967
  0
LINE
  8
0
 10
246.157059
 20
164.031906
 11
248.985489
 21
166.860336
  0
LINE
  8
0
 10
246.157120
 20
166.860428
 11
248.985550
 21
164.032013
  0
LINE
  8
0
 10
246.157074
 20
171.531921
 11
248.985504
 21
174.360352
  0
LINE
  8
0
 10
246.157104
 20
174.360413
 11
248.985535
 21
171.531982
  0
LINE
  8
0
 10
246.157059
 20
179.031906
 11
248.985489
 21
181.860336
  0
LINE
  8
0
 10
246.157089
 20
181.860428
 11
248.985504
 21
179.031998
  0
LINE
  8
0
 10
246.157059
 20
186.531921
 11
248.985474
 21
189.360352
  0
LINE
  8
0
 10
246.157104
 20
189.360413
 11
248.985535
 21
186.531982
  0
LINE
  8
0
 10
246.157074
 20
194.031921
 11
248.985504
 21
196.860352
  0
LINE
  8
0
 10
246.157089
 20
196.860397
 11
248.985519
 21
194.031967
  0
LINE
  8
0
 10
246.157043
 20
201.531921
 11
248.985474
 21
204.360352
  0
LINE
  8
0
 10
246.157135
 20
204.360413
 11
248.985565
 21
201.531982
  0
LINE
  8
0
 10
246.157074
 20
209.031921
 11
248.985504
 21
211.860352
  0
LINE
  8
0
 10
246.157104
 20
211.860382
 11
248.985535
 21
209.031952
  0
LINE
  8
0
 10
246.157074
 20
216.531952
 11
248.985504
 21
219.360382
  0
LINE
  8
0
 10
246.157135
 20
219.360428
 11
248.985565
 21
216.531998
  0
LINE
  8
0
 10
250.657043
 20
226.781921
 11
253.485489
 21
229.610352
  0
LINE
  8
0
 10
250.657104
 20
229.610382
 11
253.485519
 21
226.781967
  0
LINE
  8
0
 10
236.571243
 20
135.696152
 11
255.571243
 21
135.696152
  0
LINE
  8
0
 10
236.571243
 20
232.696136
 11
255.571243
 21
232.696136
  0
CIRCLE
  8
0
 10
247.571274
 20
202.946152
 40
2.999999
  0
CIRCLE
  8
0
 10
247.571274
 20
195.446152
 40
2.999999
  0
CIRCLE
  8
0
 10
240.071259
 20
228.196136
 40
3.000000
  0
CIRCLE
  8
0
 10
252.071259
 20
228.196136
 40
3.000000
  0
CIRCLE
  8
0
 10
252.071259
 20
140.196152
 40
3.000000
  0
CIRCLE
  8
0
 10
240.071259
 20
140.196152
 40
3.000000
  0
CIRCLE
  8
0
 10
247.571274
 20
217.946152
 40
2.999999
  0
CIRCLE
  8
0
 10
247.571274
 20
210.446136
 40
2.999999
  0
CIRCLE
  8
0
 10
247.571274
 20
157.946152
 40
2.999999
  0
CIRCLE
  8
0
 10
247.571274
 20
150.446152
 40
2.999999
  0
CIRCLE
  8
0
 10
247.571274
 20
172.946152
 40
2.999999
  0
CIRCLE
  8
0
 10
247.571274
 20
165.446152
 40
2.999999
  0
CIRCLE
  8
0
 10
247.571274
 20
187.946152
 40
2.999999
  0
CIRCLE
  8
0
 10
247.571274
 20
180.446152
 40
2.999999
  0
POINT
  8
0
 10
255.571182
 20
67.196098
  0
POINT
  8
0
 10
236.571182
 20
67.196098
  0
LINE
  8
0
 10
255.571182
 20
95.196098
 11
236.571198
 21
95.196098
  0
LINE
  8
0
 10
246.071182
 20
115.196114
 11
246.071182
 21
38.696098
  0
LINE
  8
0
 10
236.571182
 20
95.196098
 11
236.571182
 21
67.196098
  0
LINE
  8
0
 10
255.571182
 20
40.196098
 11
236.571182
 21
40.196098
  0
LINE
  8
0
 10
255.571182
 20
92.196098
 11
236.571182
 21
92.196098
  0
LINE
  8
0
 10
244.571213
 20
112.196114
 11
247.571213
 21
112.196114
  0
LINE
  8
0
 10
241.321198
 20
112.196098
 11
241.321198
 21
104.196114
  0
LINE
  8
0
 10
251.821198
 20
112.196098
 11
251.821198
 21
104.196114
  0
LINE
  8
0
 10
240.571198
 20
112.196114
 11
252.571182
 21
112.196114
  0
LINE
  8
0
 10
241.321198
 20
104.196114
 11
251.821198
 21
104.196114
  0
LINE
  8
0
 10
239.571198
 20
109.196114
 11
240.571198
 21
109.196114
  0
LINE
  8
0
 10
240.571198
 20
112.196114
 11
240.571198
 21
95.196114
  0
LINE
  8
0
 10
252.571182
 20
112.196114
 11
252.571182
 21
95.196114
  0
LINE
  8
0
 10
253.571182
 20
114.196114
 11
253.571182
 21
109.196114
  0
LINE
  8
0
 10
239.571198
 20
114.196114
 11
239.571198
 21
109.196114
  0
LINE
  8
0
 10
252.571182
 20
109.196114
 11
253.571182
 21
109.196114
  0
LINE
  8
0
 10
239.571198
 20
114.196114
 11
253.571182
 21
114.196114
  0
LINE
  8
0
 10
255.571182
 20
95.196098
 11
255.571182
 21
40.196098
  0
LINE
  8
0
 10
255.571182
 20
66.696098
 11
236.571182
 21
66.696098
  0
LINE
  8
0
 10
255.571182
 20
67.196098
 11
236.571182
 21
67.196098
  0
POINT
  8
0
 10
105.571289
 20
135.196152
  0
POINT
  8
0
 10
125.571289
 20
135.196182
  0
LINE
  8
0
 10
129.571320
 20
135.696182
 11
129.571213
 21
232.696167
  0
LINE
  8
0
 10
132.571228
 20
232.696136
 11
105.571205
 21
232.696106
  0
LINE
  8
0
 10
128.571335
 20
143.196152
 11
125.571358
 21
143.196136
  0
LINE
  8
0
 10
128.571198
 20
225.196136
 11
125.571198
 21
225.196136
  0
LINE
  8
0
 10
125.571297
 20
142.196182
 11
125.571198
 21
226.196167
  0
LINE
  8
0
 10
121.071297
 20
142.196182
 11
121.071198
 21
226.196152
  0
LINE
  8
0
 10
116.571297
 20
142.196152
 11
116.571198
 21
226.196152
  0
LINE
  8
0
 10
112.071297
 20
142.196152
 11
112.071198
 21
226.196136
  0
LINE
  8
0
 10
107.571297
 20
142.196152
 11
107.571198
 21
226.196136
  0
LINE
  8
0
 10
110.571297
 20
142.196152
 11
110.571198
 21
226.196136
  0
LINE
  8
0
 10
115.071297
 20
142.196152
 11
115.071198
 21
226.196136
  0
LINE
  8
0
 10
119.571297
 20
142.196167
 11
119.571198
 21
226.196152
  0
LINE
  8
0
 10
124.071297
 20
142.196182
 11
124.071198
 21
226.196167
  0
LINE
  8
0
 10
128.571320
 20
142.196182
 11
128.571213
 21
226.196167
  0
LINE
  8
0
 10
110.571358
 20
143.196121
 11
107.571358
 21
143.196121
  0
LINE
  8
0
 10
115.071358
 20
143.196136
 11
112.071358
 21
143.196121
  0
LINE
  8
0
 10
119.571358
 20
143.196136
 11
116.571358
 21
143.196136
  0
LINE
  8
0
 10
124.071358
 20
143.196136
 11
121.071358
 21
143.196136
  0
LINE
  8
0
 10
124.071198
 20
225.196136
 11
121.071198
 21
225.196121
  0
LINE
  8
0
 10
119.571198
 20
225.196121
 11
116.571198
 21
225.196121
  0
LINE
  8
0
 10
115.071198
 20
225.196106
 11
112.071198
 21
225.196106
  0
LINE
  8
0
 10
110.571198
 20
225.196106
 11
107.571198
 21
225.196106
  0
LINE
  8
0
 10
136.571243
 20
220.196167
 11
149.571228
 21
220.196198
  0
LINE
  8
0
 10
151.571259
 20
223.196198
 11
151.571335
 21
145.196152
  0
LINE
  8
0
 10
146.571259
 20
223.196182
 11
146.571335
 21
145.196136
  0
LINE
  8
0
 10
149.571259
 20
220.196198
 11
149.571259
 21
223.196198
  0
LINE
  8
0
 10
132.571228
 20
223.196167
 11
151.571228
 21
223.196198
  0
LINE
  8
0
 10
136.571259
 20
220.196167
 11
136.571259
 21
215.696167
  0
LINE
  8
0
 10
143.471252
 20
220.196182
 11
143.471252
 21
215.696182
  0
LINE
  8
0
 10
143.471222
 20
218.946198
 11
144.471207
 21
218.368866
  0
LINE
  8
0
 10
143.471252
 20
217.946243
 11
144.471252
 21
217.368896
  0
LINE
  8
0
 10
144.471252
 20
220.196182
 11
144.471252
 21
215.696182
  0
LINE
  8
0
 10
136.571243
 20
215.696167
 11
149.571228
 21
215.696198
  0
LINE
  8
0
 10
149.571259
 20
215.696167
 11
149.571259
 21
212.696198
  0
LINE
  8
0
 10
136.571259
 20
208.196167
 11
149.571228
 21
208.196198
  0
LINE
  8
0
 10
149.571259
 20
208.196167
 11
149.571274
 21
205.196167
  0
LINE
  8
0
 10
136.571259
 20
205.196167
 11
149.571259
 21
205.196198
  0
LINE
  8
0
 10
143.471252
 20
212.696182
 11
143.471252
 21
208.196182
  0
LINE
  8
0
 10
143.471268
 20
205.196182
 11
143.471268
 21
200.696182
  0
LINE
  8
0
 10
143.471237
 20
211.446198
 11
144.471237
 21
210.868835
  0
LINE
  8
0
 10
143.471252
 20
210.446182
 11
144.471268
 21
209.868835
  0
LINE
  8
0
 10
144.471252
 20
212.696182
 11
144.471252
 21
208.196182
  0
LINE
  8
0
 10
136.571259
 20
200.696167
 11
149.571243
 21
200.696198
  0
LINE
  8
0
 10
149.571274
 20
200.696167
 11
149.571274
 21
197.696167
  0
LINE
  8
0
 10
136.571259
 20
197.696136
 11
149.571243
 21
197.696152
  0
LINE
  8
0
 10
136.571274
 20
193.196136
 11
149.571259
 21
193.196152
  0
LINE
  8
0
 10
149.571289
 20
193.196167
 11
149.571289
 21
190.196167
  0
LINE
  8
0
 10
136.571274
 20
190.196136
 11
149.571274
 21
190.196152
  0
LINE
  8
0
 10
144.471268
 20
197.696167
 11
144.471283
 21
193.196167
  0
LINE
  8
0
 10
143.471268
 20
197.696167
 11
143.471283
 21
193.196167
  0
LINE
  8
0
 10
143.471283
 20
196.446198
 11
144.471298
 21
195.868851
  0
LINE
  8
0
 10
143.471298
 20
195.446213
 11
144.471298
 21
194.868866
  0
LINE
  8
0
 10
143.471283
 20
190.196167
 11
143.471283
 21
185.696167
  0
LINE
  8
0
 10
143.471268
 20
188.946198
 11
144.471268
 21
188.368851
  0
LINE
  8
0
 10
143.471268
 20
187.946167
 11
144.471268
 21
187.368835
  0
LINE
  8
0
 10
144.471283
 20
190.196167
 11
144.471283
 21
185.696167
  0
LINE
  8
0
 10
136.571274
 20
185.696136
 11
149.571259
 21
185.696152
  0
LINE
  8
0
 10
149.571289
 20
185.696152
 11
149.571289
 21
182.696152
  0
LINE
  8
0
 10
136.571274
 20
182.696136
 11
149.571259
 21
182.696152
  0
LINE
  8
0
 10
149.571304
 20
178.196167
 11
149.571304
 21
175.196152
  0
LINE
  8
0
 10
136.571289
 20
175.196152
 11
149.571289
 21
175.196167
  0
LINE
  8
0
 10
144.471283
 20
182.696167
 11
144.471298
 21
178.196167
  0
LINE
  8
0
 10
143.471283
 20
182.696167
 11
143.471298
 21
178.196167
  0
LINE
  8
0
 10
143.471313
 20
181.446167
 11
144.471329
 21
180.868820
  0
LINE
  8
0
 10
143.471313
 20
180.446198
 11
144.471298
 21
179.868866
  0
LINE
  8
0
 10
136.571274
 20
197.696152
 11
136.571289
 21
193.196152
  0
LINE
  8
0
 10
143.471313
 20
160.196152
 11
143.471313
 21
155.696152
  0
LINE
  8
0
 10
143.471298
 20
158.946152
 11
144.471283
 21
158.368805
  0
LINE
  8
0
 10
143.471329
 20
157.946198
 11
144.471329
 21
157.368851
  0
LINE
  8
0
 10
144.471313
 20
160.196152
 11
144.471313
 21
155.696152
  0
LINE
  8
0
 10
136.571320
 20
155.696121
 11
149.571289
 21
155.696136
  0
LINE
  8
0
 10
136.571320
 20
167.696121
 11
149.571289
 21
167.696136
  0
LINE
  8
0
 10
149.571320
 20
155.696152
 11
149.571335
 21
152.696152
  0
LINE
  8
0
 10
136.571335
 20
152.696121
 11
136.571335
 21
148.196121
  0
LINE
  8
0
 10
136.571335
 20
152.696121
 11
149.571304
 21
152.696136
  0
LINE
  8
0
 10
136.571335
 20
148.196121
 11
149.571304
 21
148.196136
  0
LINE
  8
0
 10
149.571335
 20
148.196136
 11
149.571335
 21
145.196136
  0
LINE
  8
0
 10
132.571335
 20
145.196121
 11
151.571335
 21
145.196136
  0
LINE
  8
0
 10
144.471329
 20
152.696152
 11
144.471329
 21
148.196136
  0
LINE
  8
0
 10
143.471329
 20
152.696152
 11
143.471329
 21
148.196136
  0
LINE
  8
0
 10
143.471344
 20
151.446198
 11
144.471344
 21
150.868851
  0
LINE
  8
0
 10
143.471329
 20
150.446198
 11
144.471329
 21
149.868866
  0
LINE
  8
0
 10
132.571350
 20
135.696152
 11
132.571243
 21
232.696167
  0
LINE
  8
0
 10
136.571243
 20
212.696167
 11
149.571243
 21
212.696198
  0
LINE
  8
0
 10
136.571259
 20
212.696167
 11
136.571259
 21
208.196167
  0
LINE
  8
0
 10
136.571274
 20
205.196167
 11
136.571274
 21
200.696167
  0
LINE
  8
0
 10
144.471268
 20
205.196182
 11
144.471268
 21
200.696182
  0
LINE
  8
0
 10
143.471283
 20
202.946198
 11
144.471298
 21
202.368851
  0
LINE
  8
0
 10
143.471252
 20
203.946228
 11
144.471252
 21
203.368881
  0
LINE
  8
0
 10
136.571289
 20
190.196152
 11
136.571289
 21
185.696152
  0
LINE
  8
0
 10
136.571289
 20
182.696152
 11
136.571304
 21
178.196152
  0
LINE
  8
0
 10
136.571320
 20
160.196121
 11
136.571320
 21
155.696121
  0
LINE
  8
0
 10
136.571289
 20
178.196152
 11
149.571289
 21
178.196167
  0
LINE
  8
0
 10
136.571304
 20
175.196152
 11
136.571304
 21
170.696152
  0
LINE
  8
0
 10
136.571304
 20
170.696152
 11
149.571274
 21
170.696167
  0
LINE
  8
0
 10
149.571304
 20
170.696152
 11
149.571320
 21
167.696152
  0
LINE
  8
0
 10
144.471298
 20
175.196167
 11
144.471298
 21
170.696167
  0
LINE
  8
0
 10
143.471298
 20
173.946198
 11
144.471298
 21
173.368866
  0
LINE
  8
0
 10
143.471313
 20
172.946259
 11
144.471329
 21
172.368912
  0
LINE
  8
0
 10
143.471298
 20
175.196167
 11
143.471298
 21
170.696167
  0
LINE
  8
0
 10
136.571320
 20
167.696136
 11
136.571320
 21
163.196121
  0
LINE
  8
0
 10
136.571320
 20
163.196121
 11
149.571289
 21
163.196136
  0
LINE
  8
0
 10
149.571320
 20
163.196136
 11
149.571320
 21
160.196136
  0
LINE
  8
0
 10
144.471313
 20
167.696152
 11
144.471313
 21
163.196152
  0
LINE
  8
0
 10
143.471313
 20
166.446182
 11
144.471313
 21
165.868835
  0
LINE
  8
0
 10
143.471313
 20
165.446198
 11
144.471313
 21
164.868851
  0
LINE
  8
0
 10
143.471313
 20
167.696152
 11
143.471313
 21
163.196152
  0
LINE
  8
0
 10
149.571320
 20
160.196136
 11
136.571320
 21
160.196121
  0
LINE
  8
0
 10
132.571350
 20
135.696167
 11
105.571335
 21
135.696136
  0
ARC
  8
0
 10
139.971298
 20
150.446121
 40
6.499999
 50
339.747894
 51
20.252407
  0
ARC
  8
0
 10
139.971283
 20
172.946136
 40
6.499999
 50
339.747894
 51
20.252407
  0
ARC
  8
0
 10
139.971313
 20
157.946136
 40
6.500004
 50
339.747772
 51
20.252234
  0
ARC
  8
0
 10
139.971298
 20
165.446136
 40
6.500004
 50
339.747772
 51
20.252279
  0
ARC
  8
0
 10
139.971252
 20
202.946136
 40
6.499999
 50
339.747894
 51
20.252407
  0
ARC
  8
0
 10
139.971237
 20
217.946167
 40
6.499999
 50
339.747894
 51
20.252407
  0
ARC
  8
0
 10
139.971237
 20
210.446136
 40
6.499999
 50
339.747894
 51
20.252359
  0
ARC
  8
0
 10
139.971252
 20
195.446167
 40
6.499990
 50
339.747711
 51
20.252279
  0
ARC
  8
0
 10
139.971268
 20
187.946167
 40
6.500004
 50
339.747772
 51
20.252279
  0
ARC
  8
0
 10
139.971252
 20
180.446167
 40
6.500004
 50
339.747772
 51
20.252234
  0
POINT
  8
0
 10
-112.870354
 20
-124.971237
  0
POINT
  8
0
 10
-93.870361
 20
-124.971237
  0
LINE
  8
0
 10
-112.870361
 20
-124.971222
 11
-93.870361
 21
-124.971237
  0
LINE
  8
0
 10
-112.870285
 20
-26.971222
 11
-93.870285
 21
-26.971237
  0
LINE
  8
0
 10
-108.370346
 20
-108.971207
 11
-98.370346
 21
-108.971222
  0
LINE
  8
0
 10
-108.370346
 20
-105.971207
 11
-108.370346
 21
-108.971207
  0
LINE
  8
0
 10
-98.370346
 20
-105.971222
 11
-98.370346
 21
-108.971222
  0
LINE
  8
0
 10
-99.370354
 20
-114.471214
 11
-95.370354
 21
-114.471222
  0
LINE
  8
0
 10
-99.370346
 20
-110.471214
 11
-95.370346
 21
-110.471222
  0
LINE
  8
0
 10
-99.370346
 20
-110.471214
 11
-99.370354
 21
-114.471214
  0
LINE
  8
0
 10
-95.370346
 20
-110.471222
 11
-95.370354
 21
-114.471222
  0
LINE
  8
0
 10
-111.370346
 20
-110.471207
 11
-107.370346
 21
-110.471214
  0
LINE
  8
0
 10
-107.370346
 20
-110.471214
 11
-107.370354
 21
-114.471214
  0
LINE
  8
0
 10
-111.370354
 20
-114.471207
 11
-107.370354
 21
-114.471214
  0
LINE
  8
0
 10
-111.370346
 20
-110.471207
 11
-111.370354
 21
-114.471207
  0
LINE
  8
0
 10
-103.370277
 20
-23.471230
 11
-103.370361
 21
-128.471222
  0
LINE
  8
0
 10
-95.870338
 20
-41.471237
 11
-110.870338
 21
-41.471222
  0
LINE
  8
0
 10
-95.870361
 20
-88.511185
 11
-110.870346
 21
-88.511169
  0
LINE
  8
0
 10
-109.670280
 20
-40.991180
 11
-109.670319
 21
-88.991180
  0
LINE
  8
0
 10
-99.570320
 20
-38.491188
 11
-103.031837
 21
-38.491188
  0
LINE
  8
0
 10
-99.570328
 20
-91.491180
 11
-103.031815
 21
-91.491173
  0
LINE
  8
0
 10
-97.070274
 20
-40.991180
 11
-97.070312
 21
-88.991180
  0
LINE
  8
0
 10
-107.570297
 20
-48.645515
 11
-107.570320
 21
-81.336853
  0
LINE
  8
0
 10
-99.170288
 20
-47.869698
 11
-99.170319
 21
-82.112686
  0
LINE
  8
0
 10
-101.517609
 20
-84.082230
 11
-105.917610
 21
-83.306389
  0
LINE
  8
0
 10
-101.517593
 20
-45.900291
 11
-105.917564
 21
-46.676125
  0
LINE
  8
0
 10
-110.370346
 20
-103.471207
 11
-110.370338
 21
-94.471207
  0
LINE
  8
0
 10
-112.870338
 20
-91.971222
 11
-93.870331
 21
-91.971237
  0
LINE
  8
0
 10
-112.870346
 20
-105.971207
 11
-93.870346
 21
-105.971222
  0
LINE
  8
0
 10
-110.370338
 20
-94.471207
 11
-96.370338
 21
-94.471222
  0
LINE
  8
0
 10
-110.370346
 20
-103.471207
 11
-96.370346
 21
-103.471222
  0
LINE
  8
0
 10
-96.370346
 20
-103.471222
 11
-96.370338
 21
-94.471222
  0
LINE
  8
0
 10
-112.870285
 20
-27.471222
 11
-93.870285
 21
-27.471237
  0
LINE
  8
0
 10
-112.870361
 20
-124.471222
 11
-93.870361
 21
-124.471237
  0
LINE
  8
0
 10
-93.870361
 20
-124.971237
 11
-93.870285
 21
-26.971237
  0
LINE
  8
0
 10
-98.537071
 20
-118.804482
 11
-96.203613
 21
-121.137947
  0
LINE
  8
0
 10
-98.537086
 20
-121.137939
 11
-96.203629
 21
-118.804482
  0
LINE
  8
0
 10
-110.537010
 20
-30.804489
 11
-108.203552
 21
-33.137955
  0
LINE
  8
0
 10
-110.537018
 20
-33.137939
 11
-108.203560
 21
-30.804489
  0
LINE
  8
0
 10
-98.537003
 20
-30.804497
 11
-96.203545
 21
-33.137962
  0
LINE
  8
0
 10
-98.537018
 20
-33.137955
 11
-96.203560
 21
-30.804504
  0
LINE
  8
0
 10
-110.537071
 20
-118.804474
 11
-108.203613
 21
-121.137939
  0
LINE
  8
0
 10
-110.537086
 20
-121.137932
 11
-108.203629
 21
-118.804474
  0
LINE
  8
0
 10
-108.340096
 20
-100.274361
 11
-105.900581
 21
-97.834846
  0
LINE
  8
0
 10
-105.900589
 20
-100.274353
 11
-108.340096
 21
-97.834839
  0
LINE
  8
0
 10
-100.840096
 20
-100.275513
 11
-98.400581
 21
-97.835999
  0
LINE
  8
0
 10
-98.400589
 20
-100.275513
 11
-100.840096
 21
-97.835999
  0
LINE
  8
0
 10
-106.370354
 20
-112.471214
 11
-100.370354
 21
-112.471214
  0
LINE
  8
0
 10
-100.620285
 20
-39.883492
 11
-103.370285
 21
-38.295776
  0
LINE
  8
0
 10
-100.620293
 20
-43.058937
 11
-100.620285
 21
-39.883507
  0
LINE
  8
0
 10
-103.370293
 20
-38.295815
 11
-106.120285
 21
-39.883522
  0
LINE
  8
0
 10
-106.120293
 20
-43.058937
 11
-106.120285
 21
-39.883507
  0
LINE
  8
0
 10
-103.370293
 20
-44.646637
 11
-106.120293
 21
-43.058929
  0
LINE
  8
0
 10
-100.620285
 20
-43.058945
 11
-103.370277
 21
-44.646652
  0
LINE
  8
0
 10
-100.620323
 20
-86.923447
 11
-103.370323
 21
-85.335739
  0
LINE
  8
0
 10
-100.620331
 20
-90.098892
 11
-100.620323
 21
-86.923462
  0
LINE
  8
0
 10
-103.370331
 20
-85.335770
 11
-106.120323
 21
-86.923470
  0
LINE
  8
0
 10
-106.120331
 20
-90.098877
 11
-106.120323
 21
-86.923447
  0
LINE
  8
0
 10
-103.370331
 20
-91.686592
 11
-106.120331
 21
-90.098877
  0
LINE
  8
0
 10
-100.620323
 20
-90.098907
 11
-103.370316
 21
-91.686607
  0
LINE
  8
0
 10
-103.708809
 20
-91.491173
 11
-107.120331
 21
-91.491165
  0
LINE
  8
0
 10
-103.708694
 20
-38.491188
 11
-107.170326
 21
-38.491188
  0
CIRCLE
  8
0
 10
-103.370354
 20
-112.471214
 40
1.599999
  0
ARC
  8
0
 10
-99.570328
 20
-88.991196
 40
2.500000
 50
270.000000
 51
0.000175
  0
ARC
  8
0
 10
-99.570320
 20
-40.991173
 40
2.500000
 50
359.999817
 51
90.000000
  0
ARC
  8
0
 10
-107.170326
 20
-40.991188
 40
2.500000
 50
90.000000
 51
179.999832
  0
ARC
  8
0
 10
-107.170334
 20
-88.991180
 40
2.500000
 50
180.000168
 51
270.000000
  0
ARC
  8
0
 10
-101.170349
 20
-82.112679
 40
2.000002
 50
260.000427
 51
0.000000
  0
ARC
  8
0
 10
-101.170319
 20
-47.869698
 40
2.000000
 50
0.000000
 51
99.999802
  0
ARC
  8
0
 10
-105.570312
 20
-48.645515
 40
2.000003
 50
99.999802
 51
180.000000
  0
ARC
  8
0
 10
-105.570335
 20
-81.336861
 40
2.000000
 50
180.000000
 51
260.000153
  0
CIRCLE
  8
0
 10
-104.790367
 20
-77.411255
 40
0.500000
  0
CIRCLE
  8
0
 10
-104.790367
 20
-74.651245
 40
0.500000
  0
CIRCLE
  8
0
 10
-104.790359
 20
-71.891235
 40
0.500000
  0
CIRCLE
  8
0
 10
-104.790359
 20
-69.131226
 40
0.500000
  0
CIRCLE
  8
0
 10
-104.790359
 20
-66.371216
 40
0.500000
  0
CIRCLE
  8
0
 10
-104.790359
 20
-63.611206
 40
0.500000
  0
CIRCLE
  8
0
 10
-104.790352
 20
-60.851257
 40
0.500000
  0
CIRCLE
  8
0
 10
-104.790352
 20
-58.091255
 40
0.500000
  0
CIRCLE
  8
0
 10
-104.790352
 20
-55.331245
 40
0.500000
  0
CIRCLE
  8
0
 10
-104.790352
 20
-52.571236
 40
0.500000
  0
CIRCLE
  8
0
 10
-104.790352
 20
-49.811256
 40
0.500000
  0
CIRCLE
  8
0
 10
-101.950333
 20
-48.431252
 40
0.500000
  0
CIRCLE
  8
0
 10
-101.950333
 20
-51.191231
 40
0.500000
  0
CIRCLE
  8
0
 10
-101.950340
 20
-53.951241
 40
0.500000
  0
CIRCLE
  8
0
 10
-101.950340
 20
-56.711250
 40
0.500000
  0
CIRCLE
  8
0
 10
-101.950348
 20
-59.471260
 40
0.500000
  0
CIRCLE
  8
0
 10
-101.950348
 20
-62.231201
 40
0.500000
  0
CIRCLE
  8
0
 10
-101.950348
 20
-64.991211
 40
0.500000
  0
CIRCLE
  8
0
 10
-101.950348
 20
-67.751221
 40
0.500000
  0
CIRCLE
  8
0
 10
-101.950348
 20
-70.511230
 40
0.500000
  0
CIRCLE
  8
0
 10
-101.950348
 20
-73.271240
 40
0.500000
  0
CIRCLE
  8
0
 10
-101.950356
 20
-76.031250
 40
0.500000
  0
CIRCLE
  8
0
 10
-101.950356
 20
-78.791199
 40
0.500000
  0
CIRCLE
  8
0
 10
-101.950356
 20
-81.551208
 40
0.500000
  0
CIRCLE
  8
0
 10
-104.790367
 20
-80.171204
 40
0.500000
  0
CIRCLE
  8
0
 10
-97.370361
 20
-119.971252
 40
3.000000
  0
CIRCLE
  8
0
 10
-109.370285
 20
-31.971252
 40
3.000000
  0
CIRCLE
  8
0
 10
-97.370285
 20
-31.971268
 40
3.000000
  0
CIRCLE
  8
0
 10
-109.370354
 20
-119.971237
 40
3.000000
  0
CIRCLE
  8
0
 10
-107.120300
 20
-99.054619
 40
2.999999
  0
CIRCLE
  8
0
 10
-99.620300
 20
-99.055779
 40
2.999999
  0
CIRCLE
  8
0
 10
-103.370293
 20
-41.471230
 40
1.229500
  0
CIRCLE
  8
0
 10
-103.370293
 20
-41.471230
 40
1.500000
  0
CIRCLE
  8
0
 10
-103.370293
 20
-41.471230
 40
2.750000
  0
CIRCLE
  8
0
 10
-103.370331
 20
-88.511177
 40
1.229500
  0
CIRCLE
  8
0
 10
-103.370331
 20
-88.511177
 40
1.500000
  0
CIRCLE
  8
0
 10
-103.370331
 20
-88.511177
 40
2.750000
  0
TEXT
  8
0
 10
-111.048790
 20
-114.171204
 40
3.000000
  1
-
 50
-0.000046
 41
1.052632
 51
0.000000
  7
STANDARD
  0
TEXT
  8
0
 10
-99.048790
 20
-114.171219
 40
3.000000
  1
+
 50
-0.000046
 41
1.052632
 51
0.000000
  7
STANDARD
  0
POINT
  8
0
 10
-93.870323
 20
-197.471146
  0
POINT
  8
0
 10
-112.870323
 20
-197.471176
  0
LINE
  8
0
 10
-103.370399
 20
-148.471161
 11
-103.370277
 21
-225.971161
  0
LINE
  8
0
 10
-93.870369
 20
-169.471146
 11
-93.870277
 21
-224.471146
  0
LINE
  8
0
 10
-93.870277
 20
-224.471146
 11
-112.870277
 21
-224.471176
  0
LINE
  8
0
 10
-93.870361
 20
-172.471146
 11
-112.870377
 21
-172.471176
  0
LINE
  8
0
 10
-94.370384
 20
-169.471161
 11
-94.370415
 21
-150.471161
  0
LINE
  8
0
 10
-97.370392
 20
-165.471161
 11
-97.370407
 21
-152.471161
  0
LINE
  8
0
 10
-101.870392
 20
-165.471176
 11
-101.870407
 21
-152.471176
  0
LINE
  8
0
 10
-104.870392
 20
-165.471176
 11
-104.870407
 21
-152.471176
  0
LINE
  8
0
 10
-109.370392
 20
-165.471176
 11
-109.370407
 21
-152.471176
  0
LINE
  8
0
 10
-101.870392
 20
-165.471161
 11
-97.370392
 21
-165.471146
  0
LINE
  8
0
 10
-109.370392
 20
-165.471176
 11
-104.870392
 21
-165.471161
  0
LINE
  8
0
 10
-101.870399
 20
-160.471161
 11
-97.370399
 21
-160.471146
  0
LINE
  8
0
 10
-109.370399
 20
-160.471176
 11
-104.870399
 21
-160.471161
  0
LINE
  8
0
 10
-101.870399
 20
-157.571167
 11
-97.370399
 21
-157.571152
  0
LINE
  8
0
 10
-109.370399
 20
-157.571182
 11
-104.870399
 21
-157.571167
  0
LINE
  8
0
 10
-112.370415
 20
-150.471176
 11
-94.370415
 21
-150.471146
  0
LINE
  8
0
 10
-112.370407
 20
-155.471176
 11
-94.370407
 21
-155.471146
  0
LINE
  8
0
 10
-109.370407
 20
-152.471176
 11
-112.370407
 21
-152.471176
  0
LINE
  8
0
 10
-97.370392
 20
-152.471146
 11
-94.370407
 21
-152.471146
  0
LINE
  8
0
 10
-104.870392
 20
-152.471161
 11
-101.870392
 21
-152.471161
  0
LINE
  8
0
 10
-112.370384
 20
-169.471176
 11
-112.370415
 21
-150.471176
  0
LINE
  8
0
 10
-93.870369
 20
-169.471146
 11
-112.870369
 21
-169.471176
  0
LINE
  8
0
 10
-112.870338
 20
-197.471176
 11
-112.870384
 21
-169.471176
  0
LINE
  8
0
 10
-93.870323
 20
-197.471146
 11
-112.870323
 21
-197.471176
  0
LINE
  8
0
 10
-93.870323
 20
-197.471146
 11
-112.870323
 21
-197.471176
  0
LINE
  8
0
 10
-93.870323
 20
-197.971146
 11
-112.870323
 21
-197.971176
  0
ARC
  8
0
 10
-107.120392
 20
-162.071167
 40
6.499984
 50
69.747849
 51
110.252403
  0
ARC
  8
0
 10
-99.620392
 20
-162.071167
 40
6.499987
 50
69.747780
 51
110.252403
  0
POINT
  8
0
 10
-244.870270
 20
-124.971130
  0
POINT
  8
0
 10
-224.870270
 20
-124.971024
  0
LINE
  8
0
 10
-220.870300
 20
-124.470955
 11
-220.870819
 21
-27.470970
  0
LINE
  8
0
 10
-217.870270
 20
-124.470985
 11
-244.870270
 21
-124.471130
  0
LINE
  8
0
 10
-217.870789
 20
-27.471001
 11
-244.870789
 21
-27.471146
  0
LINE
  8
0
 10
-221.870285
 20
-116.971008
 11
-224.870285
 21
-116.971024
  0
LINE
  8
0
 10
-221.870789
 20
-34.971024
 11
-224.870789
 21
-34.971039
  0
LINE
  8
0
 10
-224.870331
 20
-117.970978
 11
-224.870789
 21
-33.970993
  0
LINE
  8
0
 10
-229.370331
 20
-117.971001
 11
-229.370789
 21
-33.971016
  0
LINE
  8
0
 10
-233.870331
 20
-117.971039
 11
-233.870789
 21
-33.971039
  0
LINE
  8
0
 10
-238.370331
 20
-117.971077
 11
-238.370789
 21
-33.971077
  0
LINE
  8
0
 10
-242.870331
 20
-117.971107
 11
-242.870789
 21
-33.971107
  0
LINE
  8
0
 10
-239.870331
 20
-117.971085
 11
-239.870789
 21
-33.971085
  0
LINE
  8
0
 10
-235.370331
 20
-117.971046
 11
-235.370789
 21
-33.971046
  0
LINE
  8
0
 10
-230.870331
 20
-117.971008
 11
-230.870789
 21
-33.971024
  0
LINE
  8
0
 10
-226.370331
 20
-117.970985
 11
-226.370789
 21
-33.971001
  0
LINE
  8
0
 10
-221.870331
 20
-117.970963
 11
-221.870789
 21
-33.970978
  0
LINE
  8
0
 10
-239.870270
 20
-116.971100
 11
-242.870270
 21
-116.971123
  0
LINE
  8
0
 10
-235.370285
 20
-116.971077
 11
-238.370270
 21
-116.971100
  0
LINE
  8
0
 10
-230.870285
 20
-116.971054
 11
-233.870285
 21
-116.971069
  0
LINE
  8
0
 10
-226.370285
 20
-116.971031
 11
-229.370285
 21
-116.971046
  0
LINE
  8
0
 10
-226.370789
 20
-34.971046
 11
-229.370789
 21
-34.971062
  0
LINE
  8
0
 10
-230.870789
 20
-34.971069
 11
-233.870789
 21
-34.971085
  0
LINE
  8
0
 10
-235.370789
 20
-34.971092
 11
-238.370789
 21
-34.971107
  0
LINE
  8
0
 10
-239.870789
 20
-34.971123
 11
-242.870789
 21
-34.971138
  0
LINE
  8
0
 10
-198.870453
 20
-91.970871
 11
-198.870377
 21
-105.970871
  0
LINE
  8
0
 10
-198.870453
 20
-91.970886
 11
-203.870453
 21
-91.970917
  0
LINE
  8
0
 10
-200.870453
 20
-92.970879
 11
-200.870392
 21
-104.970879
  0
LINE
  8
0
 10
-203.870453
 20
-91.970901
 11
-203.870438
 21
-92.970901
  0
LINE
  8
0
 10
-200.870453
 20
-92.970894
 11
-217.870422
 21
-92.970985
  0
LINE
  8
0
 10
-200.870453
 20
-93.720894
 11
-208.870453
 21
-93.720940
  0
LINE
  8
0
 10
-208.870453
 20
-93.720924
 11
-208.870392
 21
-104.220924
  0
LINE
  8
0
 10
-200.870392
 20
-104.220894
 11
-208.870392
 21
-104.220940
  0
LINE
  8
0
 10
-200.870392
 20
-104.970894
 11
-217.870361
 21
-104.970985
  0
LINE
  8
0
 10
-198.870392
 20
-105.970886
 11
-203.870392
 21
-105.970909
  0
LINE
  8
0
 10
-203.870392
 20
-104.970894
 11
-203.870392
 21
-105.970894
  0
LINE
  8
0
 10
-217.870270
 20
-124.470970
 11
-217.870789
 21
-27.471001
  0
LINE
  8
0
 10
-210.870728
 20
-41.470947
 11
-218.870728
 21
-41.470993
  0
LINE
  8
0
 10
-210.870468
 20
-88.470947
 11
-218.870468
 21
-88.470993
  0
LINE
  8
0
 10
-216.870438
 20
-91.470978
 11
-217.870438
 21
-91.470985
  0
LINE
  8
0
 10
-216.870743
 20
-38.470978
 11
-217.870743
 21
-38.470985
  0
LINE
  8
0
 10
-210.870483
 20
-84.120941
 11
-216.870483
 21
-84.120972
  0
LINE
  8
0
 10
-210.870712
 20
-45.820953
 11
-216.870697
 21
-45.820984
  0
LINE
  8
0
 10
-210.870483
 20
-84.120926
 11
-210.870697
 21
-45.820938
  0
LINE
  8
0
 10
-211.870697
 20
-44.220940
 11
-211.870728
 21
-38.720940
  0
LINE
  8
0
 10
-216.870453
 20
-91.646393
 11
-216.870728
 21
-38.295532
  0
LINE
  8
0
 10
-212.116318
 20
-44.646385
 11
-216.870712
 21
-44.646408
  0
LINE
  8
0
 10
-212.116333
 20
-43.058662
 11
-216.870728
 21
-43.058685
  0
LINE
  8
0
 10
-212.116364
 20
-39.883247
 11
-216.870743
 21
-39.883270
  0
LINE
  8
0
 10
-212.116364
 20
-38.295525
 11
-216.870743
 21
-38.295547
  0
LINE
  8
0
 10
-211.870712
 20
-44.220924
 11
-212.116333
 21
-44.646355
  0
LINE
  8
0
 10
-211.870789
 20
-38.720978
 11
-212.116409
 21
-38.295547
  0
LINE
  8
0
 10
-211.870453
 20
-91.220940
 11
-211.870483
 21
-85.720940
  0
LINE
  8
0
 10
-212.116074
 20
-91.646385
 11
-216.870438
 21
-91.646408
  0
LINE
  8
0
 10
-212.116074
 20
-90.058662
 11
-216.870453
 21
-90.058685
  0
LINE
  8
0
 10
-212.116089
 20
-86.883247
 11
-216.870468
 21
-86.883270
  0
LINE
  8
0
 10
-212.116104
 20
-85.295525
 11
-216.870483
 21
-85.295547
  0
LINE
  8
0
 10
-211.870453
 20
-91.220917
 11
-212.116058
 21
-91.646347
  0
LINE
  8
0
 10
-211.870514
 20
-85.720947
 11
-212.116135
 21
-85.295517
  0
ARC
  8
0
 10
-213.276459
 20
-39.089371
 40
1.405695
 50
325.616058
 51
25.616268
  0
ARC
  8
0
 10
-217.124847
 20
-88.470963
 40
5.254385
 50
342.412384
 51
17.588215
  0
ARC
  8
0
 10
-213.276154
 20
-90.852509
 40
1.405706
 50
334.384552
 51
34.384464
  0
ARC
  8
0
 10
-213.276199
 20
-86.089371
 40
1.405711
 50
325.616150
 51
25.615999
  0
ARC
  8
0
 10
-217.125107
 20
-41.470970
 40
5.254382
 50
342.412476
 51
17.588345
  0
ARC
  8
0
 10
-213.276413
 20
-43.852509
 40
1.405692
 50
334.384308
 51
34.384464
  0
ENDSEC
  0
EOF
