  0
SECTION
  2
HEADER
  0
ENDSEC
  0
SECTION
  2
TABLES
  0
TABLE
  2
LTYPE
 70
     4
  0
LTYPE
  2
CONTINUOUS
 70
    64
  3
Solid line
 72
    65
 73
     0
 40
0.000000
  0
LTYPE
  2
DASHED
 70
    64
  3
__ __ __ __ __ __ __ __ __ __ __ __ __ __ __
 72
    65
 73
     2
 40
3.500000
 49
2.000000
 49
-1.500000
  0
LTYPE
  2
CENTER
 70
    64
  3
____ _ ____ _ ____ _ ____ _ ____ _ ____ _ ____
 72
    65
 73
     4
 40
17.500000
 49
13.000000
 49
-1.500000
 49
1.500000
 49
-1.500000
  0
LTYPE
  2
PHANTOM
 70
    64
  3
_____ _ _ _____ _ _ _____ _ _ _____ _ _ ____  
 72
    65
 73
     6
 40
15.500000
 49
8.000000
 49
-1.500000
 49
1.500000
 49
-1.500000
 49
1.500000
 49
-1.500000
  0
LTYPE
  2
DASHED1
 70
    64
  3
__ __ __ __ __ __ __ __ __ __ __ __ __ __ __
 72
    65
 73
     2
 40
1.500000
 49
1.000000
 49
-0.500000
  0
LTYPE
  2
DASHED2
 70
    64
  3
__ __ __ __ __ __ __ __ __ __ __ __ __ __ __
 72
    65
 73
     2
 40
3.500000
 49
2.500000
 49
-1.000000
  0
LTYPE
  2
DASHED3
 70
    64
  3
__ __ __ __ __ __ __ __ __ __ __ __ __ __ __
 72
    65
 73
     2
 40
6.000000
 49
4.000000
 49
-2.000000
  0
LTYPE
  2
DASHED4
 70
    64
  3
__ __ __ __ __ __ __ __ __ __ __ __ __ __ __
 72
    65
 73
     2
 40
12.000000
 49
10.000000
 49
-2.000000
  0
LTYPE
  2
DASHED5
 70
    64
  3
__ __ __ __ __ __ __ __ __ __ __ __ __ __ __
 72
    65
 73
     2
 40
17.000000
 49
15.000000
 49
-2.000000
  0
LTYPE
  2
DASHED6
 70
    64
  3
__ __ __ __ __ __ __ __ __ __ __ __ __ __ __
 72
    65
 73
     2
 40
29.000000
 49
27.000000
 49
-2.000000
  0
LTYPE
  2
PHANTOM1
 70
    64
  3
_____ _ _ _____ _ _ _____ _ _ _____ _ _ ____  
 72
    65
 73
     6
 40
31.000000
 49
25.000000
 49
-1.500000
 49
1.000000
 49
-1.000000
 49
1.000000
 49
-1.500000
  0
LTYPE
  2
PHANTOM2
 70
    64
  3
_____ _ _ _____ _ _ _____ _ _ _____ _ _ ____  
 72
    65
 73
     6
 40
36.000000
 49
27.000000
 49
-1.500000
 49
2.500000
 49
-1.000000
 49
2.500000
 49
-1.500000
  0
LTYPE
  2
PHANTOM3
 70
    64
  3
_____ _ _ _____ _ _ _____ _ _ _____ _ _ ____  
 72
    65
 73
     6
 40
78.000000
 49
64.000000
 49
-2.000000
 49
4.000000
 49
-2.000000
 49
4.000000
 49
-2.000000
  0
LTYPE
  2
CENTER1
 70
    64
  3
____ _ ____ _ ____ _ ____ _ ____ _ ____ _ ____
 72
    65
 73
     4
 40
19.000000
 49
14.000000
 49
-1.000000
 49
3.000000
 49
-1.000000
  0
LTYPE
  2
CENTER2
 70
    64
  3
____ _ ____ _ ____ _ ____ _ ____ _ ____ _ ____
 72
    65
 73
     4
 40
28.500000
 49
25.000000
 49
-1.000000
 49
1.500000
 49
-1.000000
  0
LTYPE
  2
CENTER3
 70
    64
  3
____ _ ____ _ ____ _ ____ _ ____ _ ____ _ ____
 72
    65
 73
     4
 40
31.500000
 49
27.000000
 49
-1.000000
 49
2.500000
 49
-1.000000
  0
LTYPE
  2
CENTER4
 70
    64
  3
____ _ ____ _ ____ _ ____ _ ____ _ ____ _ ____
 72
    65
 73
     4
 40
50.000000
 49
45.000000
 49
-1.000000
 49
3.000000
 49
-1.000000
  0
LTYPE
  2
CENTER5
 70
    64
  3
____ _ ____ _ ____ _ ____ _ ____ _ ____ _ ____
 72
    65
 73
     4
 40
100.000000
 49
92.000000
 49
-2.000000
 49
4.000000
 49
-2.000000
  0
LTYPE
  2
SBK1
 70
    64
  3
______ _ _ _ ______ _ _ _ ______ _ _ _ _____  
 72
    65
 73
     8
 40
60.500000
 49
45.000000
 49
-2.000000
 49
2.500000
 49
-2.000000
 49
2.500000
 49
-2.000000
 49
2.500000
 49
-2.000000
  0
LTYPE
  2
SBK2
 70
    64
  3
______ _ _ _ ______ _ _ _ ______ _ _ _ _____  
 72
    65
 73
     8
 40
84.000000
 49
64.000000
 49
-2.000000
 49
4.000000
 49
-2.000000
 49
4.000000
 49
-2.000000
 49
4.000000
 49
-2.000000
  0
LTYPE
  2
STCH
 70
    64
  3
__ __ __ __ __ __ __ __ __ __ __ __ __ __ __
 72
    65
 73
     2
 40
3.000000
 49
1.000000
 49
-2.000000
  0
LTYPE
  2
MTCH
 70
    64
  3
_____ _ _ _____ _ _ _____ _ _ _____ _ _ ____  
 72
    65
 73
     6
 40
80.000000
 49
66.000000
 49
-2.000000
 49
4.000000
 49
-2.000000
 49
4.000000
 49
-2.000000
  0
ENDTAB
  0
TABLE
  2
LAYER
 70
     1
  0
LAYER
  2
0
 70
     0
 62
     7
  6
CONTINUOUS
  0
ENDTAB
  0
TABLE
  2
STYLE
 70
     1
  0
STYLE
  2
STANDARD
 70
     0
 40
0.000000
 41
1.000000
 50
0.000000
 71
     0
 42
0.200000
  3
txt
  4
BIGFONT
  0
ENDTAB
  0
TABLE
  2
VIEW
 70
     0
  0
ENDTAB
  0
ENDSEC
  0
SECTION
  2
BLOCKS
  0
ENDSEC
  0
SECTION
  2
ENTITIES
  0
LINE
  8
0
 10
-420.500000
 20
297.000000
 11
420.500000
 21
297.000000
  0
LINE
  8
0
 10
-420.500000
 20
-297.000000
 11
420.500000
 21
-297.000000
  0
LINE
  8
0
 10
420.500000
 20
297.000000
 11
420.500000
 21
-297.000000
  0
LINE
  8
0
 10
-420.500000
 20
297.000000
 11
-420.500000
 21
-297.000000
  0
LINE
  8
0
 10
399.799988
 20
276.250000
 11
399.799988
 21
-276.750000
  0
LINE
  8
0
 10
-399.250000
 20
276.250000
 11
-399.250000
 21
-276.750000
  0
LINE
  8
0
 10
-399.250000
 20
276.250000
 11
399.799988
 21
276.250000
  0
LINE
  8
0
 10
-399.250000
 20
-276.750000
 11
399.799988
 21
-276.750000
  0
LINE
  8
0
 10
239.799988
 20
-251.750000
 11
399.799988
 21
-251.750000
  0
LINE
  8
0
 10
239.799988
 20
251.250000
 11
399.799988
 21
251.250000
  0
LINE
  8
0
 10
-399.250000
 20
251.250000
 11
-239.250000
 21
251.250000
  0
LINE
  8
0
 10
239.799988
 20
-251.750000
 11
239.799988
 21
-276.750000
  0
LINE
  8
0
 10
239.799988
 20
251.250000
 11
239.799988
 21
276.250000
  0
LINE
  8
0
 10
-239.250000
 20
276.250000
 11
-239.250000
 21
251.250000
  0
LINE
  8
0
 10
-399.250000
 20
-0.250000
 11
399.799988
 21
-0.250000
  0
LINE
  8
0
 10
0.274994
 20
-276.750000
 11
0.274994
 21
276.250000
  0
LINE
  8
0
 10
-399.250000
 20
-261.750000
 11
239.799988
 21
-261.750000
  0
LINE
  8
0
 10
-399.250000
 20
14.750000
 11
399.799988
 21
14.750000
  0
LINE
  8
0
  6
PHANTOM
 10
-292.839905
 20
142.396057
 11
-264.839905
 21
142.396057
  0
LINE
  8
0
  6
PHANTOM
 10
-292.839905
 20
240.396057
 11
-292.839905
 21
142.396057
  0
LINE
  8
0
  6
PHANTOM
 10
-292.839905
 20
240.396057
 11
-264.839905
 21
240.396057
  0
LINE
  8
0
  6
PHANTOM
 10
-264.839905
 20
240.396057
 11
-264.839905
 21
142.396057
  0
LINE
  8
0
  6
PHANTOM
 10
113.871315
 20
240.196136
 11
113.871315
 21
142.196136
  0
LINE
  8
0
  6
PHANTOM
 10
113.871315
 20
142.196136
 11
85.871315
 21
142.196136
  0
LINE
  8
0
  6
PHANTOM
 10
85.871315
 20
142.196136
 11
85.871315
 21
240.196136
  0
LINE
  8
0
  6
PHANTOM
 10
85.871315
 20
240.196136
 11
113.871315
 21
240.196136
  0
LINE
  8
0
  6
PHANTOM
 10
-293.070862
 20
-118.771416
 11
-265.070862
 21
-118.771416
  0
LINE
  8
0
  6
PHANTOM
 10
-293.070862
 20
-20.771416
 11
-293.070862
 21
-118.771416
  0
LINE
  8
0
  6
PHANTOM
 10
-293.070862
 20
-20.771416
 11
-265.070862
 21
-20.771416
  0
LINE
  8
0
  6
PHANTOM
 10
-265.070862
 20
-20.771416
 11
-265.070862
 21
-118.771416
  0
LINE
  8
0
  6
PHANTOM
 10
85.871315
 20
-118.971336
 11
113.871315
 21
-118.971336
  0
LINE
  8
0
  6
PHANTOM
 10
85.871315
 20
-20.971336
 11
85.871315
 21
-118.971336
  0
LINE
  8
0
  6
PHANTOM
 10
85.871315
 20
-20.971336
 11
113.871315
 21
-20.971336
  0
LINE
  8
0
  6
PHANTOM
 10
113.871315
 20
-20.971336
 11
113.871315
 21
-118.971336
  0
TEXT
  8
0
 10
-345.785156
 20
253.500000
 40
12.500000
  1
X88M
 50
0.000000
 41
1.052632
 51
0.000000
  7
STANDARD
  0
TEXT
  8
0
 10
242.014816
 20
-274.500000
 40
12.500000
  1
KOGANEI CORP.
 50
0.000000
 41
1.052632
 51
0.000000
  7
STANDARD
  0
TEXT
  8
0
 10
251.264664
 20
256.649994
 40
9.000000
  1
DATE: SEP ,1992
 50
0.000000
 41
1.052632
 51
0.000000
  7
STANDARD
  0
TEXT
  8
0
 10
-272.523224
 20
0.150000
 40
9.000000
  1
MODEL : FMP-FJ8S
 50
0.000000
 41
1.052632
 51
0.000000
  7
STANDARD
  0
TEXT
  8
0
 10
122.501778
 20
0.149999
 40
9.000000
  1
MODEL : FMP-FJ10S
 50
0.000000
 41
1.052632
 51
0.000000
  7
STANDARD
  0
TEXT
  8
0
 10
-272.523224
 20
-276.350006
 40
9.000000
  1
MODEL : FMP-FJ8L
 50
0.000000
 41
1.052632
 51
0.000000
  7
STANDARD
  0
TEXT
  8
0
 10
42.501774
 20
-276.350006
 40
9.000000
  1
MODEL : FMP-FJ10L
 50
0.000000
 41
1.052632
 51
0.000000
  7
STANDARD
  0
POINT
  8
0
 10
-123.839920
 20
142.196136
  0
POINT
  8
0
 10
-104.839920
 20
142.196136
  0
LINE
  8
0
 10
-123.839920
 20
142.196136
 11
-104.839920
 21
142.196136
  0
LINE
  8
0
 10
-123.839920
 20
240.196121
 11
-104.839920
 21
240.196121
  0
LINE
  8
0
 10
-114.339905
 20
242.196121
 11
-114.339905
 21
140.196136
  0
LINE
  8
0
 10
-104.839920
 20
240.196121
 11
-104.839920
 21
142.196136
  0
LINE
  8
0
 10
-123.839920
 20
164.196136
 11
-104.839920
 21
164.196136
  0
LINE
  8
0
 10
-120.839905
 20
175.696136
 11
-107.839905
 21
175.696136
  0
LINE
  8
0
 10
-120.839905
 20
181.696136
 11
-107.839905
 21
181.696136
  0
LINE
  8
0
 10
-120.839905
 20
189.196136
 11
-107.839905
 21
189.196136
  0
LINE
  8
0
 10
-120.839905
 20
196.696136
 11
-107.839905
 21
196.696136
  0
LINE
  8
0
 10
-120.839905
 20
204.196136
 11
-107.839905
 21
204.196136
  0
LINE
  8
0
 10
-120.839905
 20
211.696121
 11
-107.839905
 21
211.696121
  0
LINE
  8
0
 10
-120.839905
 20
219.196121
 11
-107.839905
 21
219.196121
  0
LINE
  8
0
 10
-120.839905
 20
226.696121
 11
-107.839905
 21
226.696121
  0
LINE
  8
0
 10
-117.467621
 20
233.196121
 11
-111.212189
 21
233.196121
  0
LINE
  8
0
 10
-120.839905
 20
180.696136
 11
-107.839905
 21
180.696136
  0
LINE
  8
0
 10
-120.839905
 20
188.196136
 11
-107.839905
 21
188.196136
  0
LINE
  8
0
 10
-120.839905
 20
195.696136
 11
-107.839905
 21
195.696136
  0
LINE
  8
0
 10
-120.839905
 20
203.196136
 11
-107.839905
 21
203.196136
  0
LINE
  8
0
 10
-120.839905
 20
210.696121
 11
-107.839905
 21
210.696121
  0
LINE
  8
0
 10
-120.839905
 20
218.196121
 11
-107.839905
 21
218.196121
  0
LINE
  8
0
 10
-120.839905
 20
225.696121
 11
-107.839905
 21
225.696121
  0
LINE
  8
0
 10
-107.839905
 20
231.732025
 11
-107.839905
 21
226.696121
  0
LINE
  8
0
 10
-120.839905
 20
231.732025
 11
-120.839905
 21
226.696121
  0
LINE
  8
0
 10
-120.839905
 20
180.696136
 11
-120.839905
 21
175.696136
  0
LINE
  8
0
 10
-120.839905
 20
188.196136
 11
-120.839905
 21
181.696136
  0
LINE
  8
0
 10
-107.839905
 20
180.696136
 11
-107.839905
 21
175.696136
  0
LINE
  8
0
 10
-107.839905
 20
188.196136
 11
-107.839905
 21
181.696136
  0
LINE
  8
0
 10
-120.839905
 20
195.696136
 11
-120.839905
 21
189.196136
  0
LINE
  8
0
 10
-107.839905
 20
195.696136
 11
-107.839905
 21
189.196136
  0
LINE
  8
0
 10
-120.839905
 20
203.196136
 11
-120.839905
 21
196.696136
  0
LINE
  8
0
 10
-107.839905
 20
203.196136
 11
-107.839905
 21
196.696136
  0
LINE
  8
0
 10
-120.839905
 20
210.696121
 11
-120.839905
 21
204.196136
  0
LINE
  8
0
 10
-107.839905
 20
210.696121
 11
-107.839905
 21
204.196136
  0
LINE
  8
0
 10
-120.839905
 20
218.196121
 11
-120.839905
 21
211.696121
  0
LINE
  8
0
 10
-107.839905
 20
218.196121
 11
-107.839905
 21
211.696121
  0
LINE
  8
0
 10
-120.839905
 20
225.696121
 11
-120.839905
 21
219.196121
  0
LINE
  8
0
 10
-107.839905
 20
225.696121
 11
-107.839905
 21
219.196121
  0
LINE
  8
0
 10
-109.506592
 20
148.362869
 11
-107.173126
 21
146.029419
  0
LINE
  8
0
 10
-121.506577
 20
236.362885
 11
-119.173126
 21
234.029419
  0
LINE
  8
0
 10
-121.506592
 20
234.029419
 11
-119.173134
 21
236.362854
  0
LINE
  8
0
 10
-109.506584
 20
234.029404
 11
-107.173134
 21
236.362854
  0
LINE
  8
0
 10
-109.506584
 20
236.362869
 11
-107.173126
 21
234.029419
  0
LINE
  8
0
 10
-121.506584
 20
146.029419
 11
-119.173134
 21
148.362869
  0
LINE
  8
0
 10
-121.506592
 20
148.362869
 11
-119.173134
 21
146.029419
  0
LINE
  8
0
 10
-109.506577
 20
146.029419
 11
-107.173126
 21
148.362869
  0
CIRCLE
  8
0
 10
-114.339905
 20
164.196136
 40
8.500000
  0
CIRCLE
  8
0
 10
-114.339905
 20
164.196136
 40
4.000000
  0
CIRCLE
  8
0
 10
-120.339905
 20
235.196121
 40
3.000000
  0
CIRCLE
  8
0
 10
-120.339905
 20
147.196136
 40
3.000000
  0
CIRCLE
  8
0
 10
-108.339905
 20
147.196136
 40
3.000000
  0
CIRCLE
  8
0
 10
-108.339905
 20
235.196121
 40
3.000000
  0
ARC
  8
0
 10
-120.339905
 20
235.196121
 40
3.499995
 50
261.786774
 51
325.150116
  0
ARC
  8
0
 10
-108.339905
 20
235.196121
 40
3.500002
 50
214.849884
 51
278.213226
  0
TEXT
  8
0
 10
-116.146919
 20
150.816132
 40
3.200000
  1
P
 50
0.000000
 41
1.052632
 51
0.000000
  7
STANDARD
  0
POINT
  8
0
 10
-104.839920
 20
66.696136
  0
POINT
  8
0
 10
-123.839920
 20
66.696136
  0
LINE
  8
0
 10
-123.339905
 20
94.696136
 11
-105.339905
 21
94.696136
  0
LINE
  8
0
 10
-123.339905
 20
94.696136
 11
-123.339905
 21
67.696136
  0
LINE
  8
0
 10
-105.339905
 20
94.696136
 11
-105.339905
 21
67.696136
  0
LINE
  8
0
 10
-104.839920
 20
67.696136
 11
-104.839920
 21
39.696136
  0
LINE
  8
0
 10
-104.839920
 20
39.696136
 11
-123.839920
 21
39.696136
  0
LINE
  8
0
 10
-104.839920
 20
67.696136
 11
-123.839920
 21
67.696136
  0
LINE
  8
0
 10
-114.339920
 20
105.396133
 11
-114.339920
 21
37.696136
  0
LINE
  8
0
 10
-122.839905
 20
94.696136
 11
-122.839905
 21
96.196136
  0
LINE
  8
0
 10
-105.839905
 20
94.696136
 11
-105.839905
 21
96.196136
  0
LINE
  8
0
 10
-122.839905
 20
96.196136
 11
-105.839905
 21
96.196136
  0
LINE
  8
0
 10
-120.739899
 20
100.896133
 11
-107.939896
 21
100.896133
  0
LINE
  8
0
 10
-121.039902
 20
104.096130
 11
-107.639908
 21
104.096130
  0
LINE
  8
0
 10
-121.239899
 20
102.096130
 11
-107.439911
 21
102.096130
  0
LINE
  8
0
 10
-121.239899
 20
102.096130
 11
-121.239899
 21
103.896133
  0
LINE
  8
0
 10
-107.439911
 20
102.096130
 11
-107.439911
 21
103.896133
  0
LINE
  8
0
 10
-120.739899
 20
96.196136
 11
-120.739899
 21
100.896133
  0
LINE
  8
0
 10
-119.339905
 20
100.896133
 11
-119.339905
 21
102.096130
  0
LINE
  8
0
 10
-109.339905
 20
100.896133
 11
-109.339905
 21
102.096130
  0
LINE
  8
0
 10
-107.939919
 20
100.896133
 11
-107.939919
 21
96.196136
  0
LINE
  8
0
 10
-104.839920
 20
66.696136
 11
-123.839920
 21
66.696136
  0
LINE
  8
0
 10
-123.839920
 20
67.696136
 11
-123.839920
 21
66.696136
  0
ARC
  8
0
 10
-121.039902
 20
103.896133
 40
0.199997
 50
90.000000
 51
180.000000
  0
POINT
  8
0
 10
-264.839905
 20
142.396057
  0
POINT
  8
0
 10
-244.839905
 20
142.396057
  0
LINE
  8
0
 10
-237.839905
 20
239.896057
 11
-237.839905
 21
142.896072
  0
LINE
  8
0
 10
-264.839905
 20
142.896072
 11
-237.839905
 21
142.896072
  0
LINE
  8
0
 10
-264.839905
 20
239.896057
 11
-237.839905
 21
239.896057
  0
LINE
  8
0
 10
-262.839935
 20
232.396057
 11
-259.839935
 21
232.396057
  0
LINE
  8
0
 10
-262.839905
 20
150.396072
 11
-259.839905
 21
150.396072
  0
LINE
  8
0
 10
-259.839905
 20
233.396042
 11
-259.839905
 21
149.396042
  0
LINE
  8
0
 10
-255.339905
 20
233.396042
 11
-255.339905
 21
149.396042
  0
LINE
  8
0
 10
-250.839905
 20
233.396042
 11
-250.839905
 21
149.396042
  0
LINE
  8
0
 10
-246.339905
 20
233.396042
 11
-246.339905
 21
149.396042
  0
LINE
  8
0
 10
-241.839905
 20
233.396042
 11
-241.839905
 21
149.396042
  0
LINE
  8
0
 10
-244.839905
 20
233.396042
 11
-244.839905
 21
149.396042
  0
LINE
  8
0
 10
-249.339905
 20
233.396042
 11
-249.339905
 21
149.396042
  0
LINE
  8
0
 10
-253.839905
 20
233.396042
 11
-253.839905
 21
149.396042
  0
LINE
  8
0
 10
-258.339905
 20
233.396042
 11
-258.339905
 21
149.396042
  0
LINE
  8
0
 10
-262.839905
 20
233.396042
 11
-262.839905
 21
149.396042
  0
LINE
  8
0
 10
-244.839935
 20
232.396057
 11
-241.839935
 21
232.396057
  0
LINE
  8
0
 10
-249.339935
 20
232.396057
 11
-246.339935
 21
232.396057
  0
LINE
  8
0
 10
-253.839935
 20
232.396057
 11
-250.839935
 21
232.396057
  0
LINE
  8
0
 10
-258.339935
 20
232.396057
 11
-255.339935
 21
232.396057
  0
LINE
  8
0
 10
-258.339905
 20
150.396072
 11
-255.339905
 21
150.396072
  0
LINE
  8
0
 10
-253.839905
 20
150.396072
 11
-250.839905
 21
150.396072
  0
LINE
  8
0
 10
-249.339905
 20
150.396072
 11
-246.339905
 21
150.396072
  0
LINE
  8
0
 10
-244.839905
 20
150.396072
 11
-241.839905
 21
150.396072
  0
LINE
  8
0
 10
-237.839905
 20
172.896072
 11
-236.339905
 21
172.896072
  0
LINE
  8
0
 10
-237.839905
 20
155.896072
 11
-236.339905
 21
155.896072
  0
LINE
  8
0
 10
-236.339905
 20
172.896072
 11
-236.339905
 21
155.896072
  0
LINE
  8
0
 10
-231.639908
 20
170.796066
 11
-231.639908
 21
157.996063
  0
LINE
  8
0
 10
-228.439896
 20
171.296066
 11
-228.439896
 21
157.496063
  0
LINE
  8
0
 10
-230.439896
 20
171.296066
 11
-230.439896
 21
157.496063
  0
LINE
  8
0
 10
-230.439896
 20
171.296066
 11
-228.439896
 21
171.296066
  0
LINE
  8
0
 10
-230.439896
 20
157.496063
 11
-228.439896
 21
157.496063
  0
LINE
  8
0
 10
-239.139908
 20
164.396072
 11
-227.139908
 21
164.396072
  0
LINE
  8
0
 10
-236.339905
 20
170.796066
 11
-231.639908
 21
170.796066
  0
LINE
  8
0
 10
-236.339905
 20
157.996063
 11
-231.639908
 21
157.996063
  0
LINE
  8
0
 10
-231.639908
 20
169.396072
 11
-230.439896
 21
169.396072
  0
LINE
  8
0
 10
-231.639908
 20
159.396072
 11
-230.439896
 21
159.396072
  0
POINT
  8
0
 10
254.871307
 20
141.996216
  0
POINT
  8
0
 10
273.871307
 20
141.996216
  0
LINE
  8
0
 10
254.871307
 20
141.996216
 11
273.871307
 21
141.996216
  0
LINE
  8
0
 10
254.871307
 20
239.996201
 11
273.871307
 21
239.996201
  0
LINE
  8
0
 10
264.371338
 20
241.996201
 11
264.371338
 21
139.996216
  0
LINE
  8
0
 10
273.871307
 20
239.996201
 11
273.871307
 21
141.996216
  0
LINE
  8
0
 10
254.871307
 20
163.996216
 11
273.871307
 21
163.996216
  0
LINE
  8
0
 10
257.871338
 20
175.496216
 11
270.871338
 21
175.496216
  0
LINE
  8
0
 10
257.871338
 20
181.496216
 11
270.871338
 21
181.496216
  0
LINE
  8
0
 10
257.871338
 20
188.996216
 11
270.871338
 21
188.996216
  0
LINE
  8
0
 10
257.871338
 20
196.496216
 11
270.871338
 21
196.496216
  0
LINE
  8
0
 10
257.871338
 20
203.996216
 11
270.871338
 21
203.996216
  0
LINE
  8
0
 10
257.871338
 20
211.496201
 11
270.871338
 21
211.496201
  0
LINE
  8
0
 10
257.871338
 20
218.996201
 11
270.871338
 21
218.996201
  0
LINE
  8
0
 10
257.871338
 20
226.496201
 11
270.871338
 21
226.496201
  0
LINE
  8
0
 10
261.243591
 20
232.996201
 11
267.499023
 21
232.996201
  0
LINE
  8
0
 10
257.871338
 20
180.496216
 11
270.871338
 21
180.496216
  0
LINE
  8
0
 10
257.871338
 20
187.996216
 11
270.871338
 21
187.996216
  0
LINE
  8
0
 10
257.871338
 20
195.496216
 11
270.871338
 21
195.496216
  0
LINE
  8
0
 10
257.871338
 20
202.996216
 11
270.871338
 21
202.996216
  0
LINE
  8
0
 10
257.871338
 20
210.496201
 11
270.871338
 21
210.496201
  0
LINE
  8
0
 10
257.871338
 20
217.996201
 11
270.871338
 21
217.996201
  0
LINE
  8
0
 10
257.871338
 20
225.496201
 11
270.871338
 21
225.496201
  0
LINE
  8
0
 10
270.871338
 20
231.532104
 11
270.871338
 21
226.496201
  0
LINE
  8
0
 10
257.871338
 20
231.532104
 11
257.871338
 21
226.496201
  0
LINE
  8
0
 10
257.871338
 20
180.496216
 11
257.871338
 21
175.496216
  0
LINE
  8
0
 10
257.871338
 20
187.996216
 11
257.871338
 21
181.496216
  0
LINE
  8
0
 10
270.871338
 20
180.496216
 11
270.871338
 21
175.496216
  0
LINE
  8
0
 10
270.871338
 20
187.996216
 11
270.871338
 21
181.496216
  0
LINE
  8
0
 10
257.871338
 20
195.496216
 11
257.871338
 21
188.996216
  0
LINE
  8
0
 10
270.871338
 20
195.496216
 11
270.871338
 21
188.996216
  0
LINE
  8
0
 10
257.871338
 20
202.996216
 11
257.871338
 21
196.496216
  0
LINE
  8
0
 10
270.871338
 20
202.996216
 11
270.871338
 21
196.496216
  0
LINE
  8
0
 10
257.871338
 20
210.496201
 11
257.871338
 21
203.996216
  0
LINE
  8
0
 10
270.871338
 20
210.496201
 11
270.871338
 21
203.996216
  0
LINE
  8
0
 10
257.871338
 20
217.996201
 11
257.871338
 21
211.496201
  0
LINE
  8
0
 10
270.871338
 20
217.996201
 11
270.871338
 21
211.496201
  0
LINE
  8
0
 10
257.871338
 20
225.496201
 11
257.871338
 21
218.996201
  0
LINE
  8
0
 10
270.871338
 20
225.496201
 11
270.871338
 21
218.996201
  0
LINE
  8
0
 10
269.204651
 20
148.162949
 11
271.538086
 21
145.829498
  0
LINE
  8
0
 10
257.204651
 20
236.162964
 11
259.538116
 21
233.829498
  0
LINE
  8
0
 10
257.204651
 20
233.829498
 11
259.538086
 21
236.162933
  0
LINE
  8
0
 10
269.204651
 20
233.829483
 11
271.538086
 21
236.162933
  0
LINE
  8
0
 10
269.204651
 20
236.162949
 11
271.538086
 21
233.829498
  0
LINE
  8
0
 10
257.204651
 20
145.829498
 11
259.538086
 21
148.162949
  0
LINE
  8
0
 10
257.204620
 20
148.162949
 11
259.538086
 21
145.829498
  0
LINE
  8
0
 10
269.204651
 20
145.829498
 11
271.538086
 21
148.162949
  0
LINE
  8
0
 10
254.871307
 20
239.496216
 11
273.871307
 21
239.496216
  0
LINE
  8
0
 10
254.871307
 20
142.496216
 11
273.871307
 21
142.496216
  0
CIRCLE
  8
0
 10
264.371338
 20
163.996216
 40
8.400000
  0
CIRCLE
  8
0
 10
264.371338
 20
163.996216
 40
5.000000
  0
CIRCLE
  8
0
 10
258.371338
 20
234.996201
 40
3.000000
  0
CIRCLE
  8
0
 10
258.371338
 20
146.996216
 40
3.000000
  0
CIRCLE
  8
0
 10
270.371338
 20
146.996216
 40
3.000000
  0
CIRCLE
  8
0
 10
270.371338
 20
234.996201
 40
3.000000
  0
ARC
  8
0
 10
258.371338
 20
234.996201
 40
3.499995
 50
261.786774
 51
325.149841
  0
ARC
  8
0
 10
270.371338
 20
234.996201
 40
3.500002
 50
214.849884
 51
278.213226
  0
TEXT
  8
0
 10
262.564301
 20
150.616211
 40
3.200000
  1
P
 50
0.000000
 41
1.052632
 51
0.000000
  7
STANDARD
  0
POINT
  8
0
 10
273.871307
 20
66.496216
  0
POINT
  8
0
 10
254.871307
 20
66.496216
  0
LINE
  8
0
 10
255.371323
 20
94.496216
 11
273.371338
 21
94.496216
  0
LINE
  8
0
 10
255.371323
 20
94.496216
 11
255.371323
 21
67.496216
  0
LINE
  8
0
 10
273.371338
 20
94.496216
 11
273.371338
 21
67.496216
  0
LINE
  8
0
 10
273.871307
 20
67.496216
 11
273.871307
 21
39.496216
  0
LINE
  8
0
 10
273.871307
 20
39.496216
 11
254.871307
 21
39.496216
  0
LINE
  8
0
 10
273.871307
 20
67.496216
 11
254.871307
 21
67.496216
  0
LINE
  8
0
 10
264.371307
 20
113.211090
 11
264.371307
 21
37.496216
  0
LINE
  8
0
 10
255.971329
 20
104.996216
 11
272.771301
 21
104.996216
  0
LINE
  8
0
 10
255.971313
 20
111.496216
 11
272.771301
 21
111.496216
  0
LINE
  8
0
 10
255.971329
 20
109.496216
 11
272.771301
 21
109.496216
  0
LINE
  8
0
 10
255.971313
 20
94.496216
 11
255.971313
 21
104.996216
  0
LINE
  8
0
 10
272.771301
 20
94.496201
 11
272.771301
 21
104.996201
  0
LINE
  8
0
 10
255.971313
 20
109.496216
 11
255.971313
 21
111.496216
  0
LINE
  8
0
 10
272.771301
 20
109.496201
 11
272.771301
 21
111.496216
  0
LINE
  8
0
 10
270.371338
 20
104.996216
 11
270.371338
 21
109.496216
  0
LINE
  8
0
 10
258.371338
 20
104.996216
 11
258.371338
 21
109.496216
  0
LINE
  8
0
 10
273.871307
 20
66.496216
 11
254.871307
 21
66.496216
  0
LINE
  8
0
 10
254.871307
 20
67.496216
 11
254.871307
 21
66.496216
  0
POINT
  8
0
 10
113.871315
 20
142.196136
  0
POINT
  8
0
 10
133.871307
 20
142.196136
  0
LINE
  8
0
 10
140.871307
 20
239.696136
 11
140.871307
 21
142.696152
  0
LINE
  8
0
 10
113.871315
 20
142.696152
 11
140.871307
 21
142.696152
  0
LINE
  8
0
 10
113.871315
 20
239.696136
 11
140.871307
 21
239.696136
  0
LINE
  8
0
 10
115.871284
 20
232.196136
 11
118.871284
 21
232.196136
  0
LINE
  8
0
 10
115.871315
 20
150.196152
 11
118.871315
 21
150.196152
  0
LINE
  8
0
 10
118.871315
 20
233.196121
 11
118.871315
 21
149.196121
  0
LINE
  8
0
 10
123.371315
 20
233.196136
 11
123.371315
 21
149.196121
  0
LINE
  8
0
 10
127.871315
 20
233.196136
 11
127.871315
 21
149.196121
  0
LINE
  8
0
 10
132.371307
 20
233.196136
 11
132.371307
 21
149.196121
  0
LINE
  8
0
 10
136.871307
 20
233.196136
 11
136.871307
 21
149.196121
  0
LINE
  8
0
 10
133.871307
 20
233.196136
 11
133.871307
 21
149.196121
  0
LINE
  8
0
 10
129.371307
 20
233.196136
 11
129.371307
 21
149.196121
  0
LINE
  8
0
 10
124.871315
 20
233.196136
 11
124.871315
 21
149.196121
  0
LINE
  8
0
 10
120.371315
 20
233.196121
 11
120.371315
 21
149.196121
  0
LINE
  8
0
 10
115.871315
 20
233.196121
 11
115.871315
 21
149.196121
  0
LINE
  8
0
 10
133.871277
 20
232.196136
 11
136.871277
 21
232.196136
  0
LINE
  8
0
 10
129.371277
 20
232.196136
 11
132.371277
 21
232.196136
  0
LINE
  8
0
 10
124.871284
 20
232.196136
 11
127.871284
 21
232.196136
  0
LINE
  8
0
 10
120.371284
 20
232.196136
 11
123.371284
 21
232.196136
  0
LINE
  8
0
 10
120.371315
 20
150.196152
 11
123.371315
 21
150.196152
  0
LINE
  8
0
 10
124.871315
 20
150.196152
 11
127.871315
 21
150.196152
  0
LINE
  8
0
 10
129.371307
 20
150.196152
 11
132.371307
 21
150.196152
  0
LINE
  8
0
 10
133.871307
 20
150.196152
 11
136.871307
 21
150.196152
  0
LINE
  8
0
 10
151.371307
 20
172.596146
 11
151.371307
 21
155.796143
  0
LINE
  8
0
 10
157.871307
 20
172.396149
 11
157.871307
 21
155.996140
  0
LINE
  8
0
 10
155.871307
 20
172.596146
 11
155.871307
 21
155.796143
  0
LINE
  8
0
 10
152.171326
 20
171.696152
 11
152.171326
 21
156.696136
  0
LINE
  8
0
 10
154.371307
 20
171.696136
 11
154.371307
 21
156.696136
  0
LINE
  8
0
 10
153.271332
 20
171.696152
 11
153.271332
 21
156.696136
  0
LINE
  8
0
 10
140.871307
 20
172.596146
 11
151.371307
 21
172.596146
  0
LINE
  8
0
 10
140.871307
 20
155.796143
 11
151.371307
 21
155.796143
  0
LINE
  8
0
 10
155.871307
 20
172.596146
 11
157.671326
 21
172.596146
  0
LINE
  8
0
 10
155.871307
 20
155.796143
 11
157.671326
 21
155.796143
  0
LINE
  8
0
 10
152.171326
 20
171.696152
 11
154.371307
 21
171.696152
  0
LINE
  8
0
 10
152.171326
 20
156.696152
 11
154.371307
 21
156.696152
  0
LINE
  8
0
 10
151.371292
 20
172.596115
 11
152.171295
 21
171.696121
  0
LINE
  8
0
 10
152.171326
 20
156.696152
 11
151.371323
 21
155.796158
  0
LINE
  8
0
 10
154.371307
 20
158.196152
 11
155.871307
 21
158.196152
  0
LINE
  8
0
 10
154.371307
 20
170.196152
 11
155.871307
 21
170.196152
  0
LINE
  8
0
 10
139.871307
 20
164.196152
 11
158.871307
 21
164.196152
  0
ARC
  8
0
 10
157.671326
 20
155.996140
 40
0.199997
 50
270.000000
 51
0.000000
  0
ARC
  8
0
 10
157.671326
 20
172.396149
 40
0.199997
 50
0.000000
 51
90.000000
  0
POINT
  8
0
 10
-124.070862
 20
-118.971336
  0
POINT
  8
0
 10
-105.070862
 20
-118.971336
  0
LINE
  8
0
 10
-124.070862
 20
-118.971336
 11
-121.470871
 21
-118.971336
  0
LINE
  8
0
 10
-124.070862
 20
-20.971352
 11
-105.070862
 21
-20.971352
  0
LINE
  8
0
 10
-114.570847
 20
-18.971352
 11
-114.570847
 21
-120.971336
  0
LINE
  8
0
 10
-105.070862
 20
-20.971352
 11
-105.070862
 21
-118.971336
  0
LINE
  8
0
 10
-124.070862
 20
-96.971336
 11
-105.070862
 21
-96.971336
  0
LINE
  8
0
 10
-119.770851
 20
-102.221336
 11
-109.370865
 21
-102.221336
  0
LINE
  8
0
 10
-119.770844
 20
-96.971336
 11
-119.770844
 21
-102.221336
  0
LINE
  8
0
 10
-109.370850
 20
-96.971336
 11
-109.370850
 21
-102.221336
  0
LINE
  8
0
 10
-109.370789
 20
-102.221291
 11
-107.320786
 21
-104.271286
  0
LINE
  8
0
 10
-121.470871
 20
-119.871346
 11
-107.670868
 21
-119.871346
  0
LINE
  8
0
 10
-107.670853
 20
-117.871346
 11
-107.670853
 21
-119.871346
  0
LINE
  8
0
 10
-121.470856
 20
-117.871346
 11
-121.470856
 21
-119.871346
  0
LINE
  8
0
 10
-121.470871
 20
-117.871346
 11
-107.670868
 21
-117.871346
  0
LINE
  8
0
 10
-121.470856
 20
-117.071342
 11
-107.670868
 21
-117.071342
  0
LINE
  8
0
 10
-119.570847
 20
-117.071342
 11
-119.570847
 21
-117.871346
  0
LINE
  8
0
 10
-109.570847
 20
-117.071342
 11
-109.570847
 21
-117.871346
  0
LINE
  8
0
 10
-107.670853
 20
-115.071342
 11
-107.670853
 21
-117.071342
  0
LINE
  8
0
 10
-121.470856
 20
-115.071342
 11
-121.470856
 21
-117.071342
  0
LINE
  8
0
 10
-121.820862
 20
-115.071342
 11
-107.320862
 21
-115.071342
  0
LINE
  8
0
 10
-121.820847
 20
-104.271339
 11
-121.820847
 21
-115.071342
  0
LINE
  8
0
 10
-107.320847
 20
-104.271339
 11
-107.320847
 21
-115.071342
  0
LINE
  8
0
 10
-121.820862
 20
-112.071342
 11
-107.320862
 21
-112.071342
  0
LINE
  8
0
 10
-121.820862
 20
-104.271339
 11
-107.320862
 21
-104.271339
  0
LINE
  8
0
 10
-121.820847
 20
-104.271339
 11
-119.770844
 21
-102.221336
  0
LINE
  8
0
 10
-107.670868
 20
-118.971336
 11
-105.070862
 21
-118.971336
  0
LINE
  8
0
 10
-109.737534
 20
-27.138062
 11
-107.404076
 21
-24.804611
  0
LINE
  8
0
 10
-109.737534
 20
-24.804604
 11
-107.404076
 21
-27.138069
  0
LINE
  8
0
 10
-121.737526
 20
-27.138062
 11
-119.404068
 21
-24.804604
  0
LINE
  8
0
 10
-121.737534
 20
-24.804611
 11
-119.404076
 21
-27.138069
  0
LINE
  8
0
 10
-121.070847
 20
-85.471344
 11
-108.070847
 21
-85.471344
  0
LINE
  8
0
 10
-121.070847
 20
-79.471344
 11
-108.070847
 21
-79.471344
  0
LINE
  8
0
 10
-121.070847
 20
-71.971344
 11
-108.070847
 21
-71.971344
  0
LINE
  8
0
 10
-121.070847
 20
-64.471344
 11
-108.070847
 21
-64.471344
  0
LINE
  8
0
 10
-121.070847
 20
-56.971344
 11
-108.070847
 21
-56.971344
  0
LINE
  8
0
 10
-121.070847
 20
-49.471352
 11
-108.070847
 21
-49.471352
  0
LINE
  8
0
 10
-121.070847
 20
-41.971352
 11
-108.070847
 21
-41.971352
  0
LINE
  8
0
 10
-121.070847
 20
-34.471352
 11
-108.070847
 21
-34.471352
  0
LINE
  8
0
 10
-117.698563
 20
-27.971352
 11
-111.443130
 21
-27.971352
  0
LINE
  8
0
 10
-121.070847
 20
-80.471344
 11
-108.070847
 21
-80.471344
  0
LINE
  8
0
 10
-121.070847
 20
-72.971344
 11
-108.070847
 21
-72.971344
  0
LINE
  8
0
 10
-121.070847
 20
-65.471344
 11
-108.070847
 21
-65.471344
  0
LINE
  8
0
 10
-121.070847
 20
-57.971344
 11
-108.070847
 21
-57.971344
  0
LINE
  8
0
 10
-121.070847
 20
-50.471352
 11
-108.070847
 21
-50.471352
  0
LINE
  8
0
 10
-121.070847
 20
-42.971352
 11
-108.070847
 21
-42.971352
  0
LINE
  8
0
 10
-121.070847
 20
-35.471352
 11
-108.070847
 21
-35.471352
  0
LINE
  8
0
 10
-108.070847
 20
-29.435448
 11
-108.070847
 21
-34.471352
  0
LINE
  8
0
 10
-121.070847
 20
-29.435448
 11
-121.070847
 21
-34.471352
  0
LINE
  8
0
 10
-121.070847
 20
-80.471344
 11
-121.070847
 21
-85.471344
  0
LINE
  8
0
 10
-121.070847
 20
-72.971344
 11
-121.070847
 21
-79.471344
  0
LINE
  8
0
 10
-108.070847
 20
-80.471344
 11
-108.070847
 21
-85.471344
  0
LINE
  8
0
 10
-108.070847
 20
-72.971344
 11
-108.070847
 21
-79.471344
  0
LINE
  8
0
 10
-121.070847
 20
-65.471344
 11
-121.070847
 21
-71.971344
  0
LINE
  8
0
 10
-108.070847
 20
-65.471344
 11
-108.070847
 21
-71.971344
  0
LINE
  8
0
 10
-121.070847
 20
-57.971344
 11
-121.070847
 21
-64.471344
  0
LINE
  8
0
 10
-108.070847
 20
-57.971344
 11
-108.070847
 21
-64.471344
  0
LINE
  8
0
 10
-121.070847
 20
-50.471352
 11
-121.070847
 21
-56.971344
  0
LINE
  8
0
 10
-108.070847
 20
-50.471352
 11
-108.070847
 21
-56.971344
  0
LINE
  8
0
 10
-121.070847
 20
-42.971352
 11
-121.070847
 21
-49.471352
  0
LINE
  8
0
 10
-108.070847
 20
-42.971352
 11
-108.070847
 21
-49.471352
  0
LINE
  8
0
 10
-121.070847
 20
-35.471352
 11
-121.070847
 21
-41.971352
  0
LINE
  8
0
 10
-108.070847
 20
-35.471352
 11
-108.070847
 21
-41.971352
  0
LINE
  8
0
 10
-107.470840
 20
-115.071342
 11
-107.404121
 21
-115.138062
  0
LINE
  8
0
 10
-121.737572
 20
-115.138069
 11
-121.670853
 21
-115.071350
  0
LINE
  8
0
 10
-124.070862
 20
-118.471344
 11
-121.470856
 21
-118.471344
  0
LINE
  8
0
 10
-124.070862
 20
-21.471344
 11
-105.070862
 21
-21.471344
  0
LINE
  8
0
 10
-107.670853
 20
-118.471344
 11
-105.070862
 21
-118.471344
  0
ARC
  8
0
 10
-114.570862
 20
-96.971336
 40
5.200005
 50
89.999832
 51
179.999908
  0
ARC
  8
0
 10
-114.570862
 20
-96.971336
 40
5.199997
 50
0.000000
 51
89.999832
  0
ARC
  8
0
 10
-114.570862
 20
-96.971336
 40
6.999998
 50
317.975342
 51
222.024597
  0
CIRCLE
  8
0
 10
-108.570847
 20
-25.971352
 40
3.000000
  0
CIRCLE
  8
0
 10
-120.570847
 20
-25.971352
 40
3.000000
  0
ARC
  8
0
 10
-120.570847
 20
-25.971352
 40
3.500002
 50
261.786804
 51
325.150116
  0
ARC
  8
0
 10
-108.570847
 20
-25.971352
 40
3.500002
 50
214.849884
 51
278.213196
  0
ARC
  8
0
 10
-120.570847
 20
-113.971336
 40
3.000002
 50
114.624298
 51
252.542358
  0
ARC
  8
0
 10
-108.570847
 20
-113.971336
 40
2.999999
 50
287.457642
 51
65.375702
  0
POINT
  8
0
 10
-105.070862
 20
-205.471375
  0
POINT
  8
0
 10
-124.070862
 20
-205.471375
  0
LINE
  8
0
 10
-123.570847
 20
-177.471375
 11
-105.570847
 21
-177.471375
  0
LINE
  8
0
 10
-123.570847
 20
-177.471375
 11
-123.570847
 21
-204.471375
  0
LINE
  8
0
 10
-105.570847
 20
-177.471375
 11
-105.570847
 21
-204.471375
  0
LINE
  8
0
 10
-105.070862
 20
-204.471375
 11
-105.070862
 21
-232.471375
  0
LINE
  8
0
 10
-105.070862
 20
-232.471375
 11
-124.070862
 21
-232.471375
  0
LINE
  8
0
 10
-105.070862
 20
-204.471375
 11
-124.070862
 21
-204.471375
  0
LINE
  8
0
 10
-114.570862
 20
-152.721375
 11
-114.570862
 21
-234.471375
  0
LINE
  8
0
 10
-123.070847
 20
-160.971375
 11
-106.070847
 21
-160.971375
  0
LINE
  8
0
 10
-106.070847
 20
-175.971375
 11
-106.070847
 21
-177.471375
  0
LINE
  8
0
 10
-123.070847
 20
-175.971375
 11
-123.070847
 21
-177.471375
  0
LINE
  8
0
 10
-123.070847
 20
-175.971375
 11
-106.070847
 21
-175.971375
  0
LINE
  8
0
 10
-121.570847
 20
-165.971375
 11
-119.820847
 21
-165.971375
  0
LINE
  8
0
 10
-107.570847
 20
-165.971375
 11
-107.570847
 21
-175.971375
  0
LINE
  8
0
 10
-121.570847
 20
-165.971375
 11
-121.570847
 21
-175.971375
  0
LINE
  8
0
 10
-109.320847
 20
-165.971375
 11
-107.570847
 21
-165.971375
  0
LINE
  8
0
 10
-105.070862
 20
-205.471375
 11
-124.070862
 21
-205.471375
  0
LINE
  8
0
 10
-124.070862
 20
-204.471375
 11
-124.070862
 21
-205.471375
  0
CIRCLE
  8
0
 10
-114.570847
 20
-160.971375
 40
7.250000
  0
CIRCLE
  8
0
 10
-114.570847
 20
-160.971375
 40
4.000000
  0
POINT
  8
0
 10
-265.070862
 20
-118.771416
  0
POINT
  8
0
 10
-245.070862
 20
-118.771416
  0
LINE
  8
0
 10
-238.070862
 20
-21.271416
 11
-238.070862
 21
-118.271400
  0
LINE
  8
0
 10
-263.070892
 20
-28.971336
 11
-260.070892
 21
-28.971336
  0
LINE
  8
0
 10
-263.070862
 20
-110.971321
 11
-260.070862
 21
-110.971321
  0
LINE
  8
0
 10
-260.070862
 20
-27.971352
 11
-260.070862
 21
-111.971352
  0
LINE
  8
0
 10
-255.570862
 20
-27.971352
 11
-255.570862
 21
-111.971352
  0
LINE
  8
0
 10
-251.070862
 20
-27.971352
 11
-251.070862
 21
-111.971352
  0
LINE
  8
0
 10
-246.570862
 20
-27.971352
 11
-246.570862
 21
-111.971352
  0
LINE
  8
0
 10
-242.070862
 20
-27.971352
 11
-242.070862
 21
-111.971352
  0
LINE
  8
0
 10
-245.070862
 20
-27.971352
 11
-245.070862
 21
-111.971352
  0
LINE
  8
0
 10
-249.570862
 20
-27.971352
 11
-249.570862
 21
-111.971352
  0
LINE
  8
0
 10
-254.070862
 20
-27.971352
 11
-254.070862
 21
-111.971352
  0
LINE
  8
0
 10
-258.570862
 20
-27.971352
 11
-258.570862
 21
-111.971352
  0
LINE
  8
0
 10
-263.070862
 20
-27.971352
 11
-263.070862
 21
-111.971352
  0
LINE
  8
0
 10
-245.070892
 20
-28.971336
 11
-242.070892
 21
-28.971336
  0
LINE
  8
0
 10
-249.570892
 20
-28.971336
 11
-246.570892
 21
-28.971336
  0
LINE
  8
0
 10
-254.070892
 20
-28.971336
 11
-251.070892
 21
-28.971336
  0
LINE
  8
0
 10
-258.570892
 20
-28.971336
 11
-255.570892
 21
-28.971336
  0
LINE
  8
0
 10
-258.570862
 20
-110.971321
 11
-255.570862
 21
-110.971321
  0
LINE
  8
0
 10
-254.070862
 20
-110.971321
 11
-251.070862
 21
-110.971321
  0
LINE
  8
0
 10
-249.570862
 20
-110.971321
 11
-246.570862
 21
-110.971321
  0
LINE
  8
0
 10
-245.070862
 20
-110.971321
 11
-242.070862
 21
-110.971321
  0
LINE
  8
0
 10
-236.570862
 20
-105.471321
 11
-238.070862
 21
-105.471321
  0
LINE
  8
0
 10
-236.570862
 20
-88.471321
 11
-238.070862
 21
-88.471321
  0
LINE
  8
0
 10
-236.570862
 20
-88.471321
 11
-236.570862
 21
-105.471321
  0
LINE
  8
0
 10
-228.820862
 20
-103.971321
 11
-236.570862
 21
-103.971321
  0
LINE
  8
0
 10
-221.570862
 20
-89.971321
 11
-236.570862
 21
-89.971321
  0
LINE
  8
0
 10
-221.570862
 20
-84.798470
 11
-221.570862
 21
-122.071327
  0
LINE
  8
0
 10
-228.470856
 20
-119.871330
 11
-214.670853
 21
-119.871330
  0
LINE
  8
0
 10
-214.670853
 20
-117.871330
 11
-214.670853
 21
-119.871330
  0
LINE
  8
0
 10
-228.470856
 20
-117.871330
 11
-228.470856
 21
-119.871330
  0
LINE
  8
0
 10
-228.470856
 20
-117.871330
 11
-214.670853
 21
-117.871330
  0
LINE
  8
0
 10
-226.570862
 20
-115.071327
 11
-226.570862
 21
-117.871330
  0
LINE
  8
0
 10
-216.570862
 20
-115.071327
 11
-216.570862
 21
-117.871330
  0
LINE
  8
0
 10
-228.820862
 20
-115.071327
 11
-214.320862
 21
-115.071327
  0
LINE
  8
0
 10
-228.820862
 20
-103.971321
 11
-228.820862
 21
-115.071327
  0
LINE
  8
0
 10
-214.320862
 20
-97.221321
 11
-214.320862
 21
-115.071327
  0
LINE
  8
0
 10
-265.070862
 20
-118.271400
 11
-238.070862
 21
-118.271400
  0
LINE
  8
0
 10
-265.070862
 20
-21.271416
 11
-238.070862
 21
-21.271416
  0
LINE
  8
0
 10
-241.082993
 20
-96.771416
 11
-208.053528
 21
-96.771416
  0
ARC
  8
0
 10
-221.570862
 20
-97.221321
 40
7.250000
 50
0.000000
 51
90.000000
  0
POINT
  8
0
 10
254.871277
 20
-119.171272
  0
POINT
  8
0
 10
273.871277
 20
-119.171272
  0
LINE
  8
0
 10
254.871277
 20
-119.171272
 11
255.971283
 21
-119.171272
  0
LINE
  8
0
 10
254.871277
 20
-21.171272
 11
273.871277
 21
-21.171272
  0
LINE
  8
0
 10
264.371277
 20
-19.171272
 11
264.371277
 21
-124.671272
  0
LINE
  8
0
 10
273.871277
 20
-21.171272
 11
273.871277
 21
-119.171272
  0
LINE
  8
0
 10
254.871277
 20
-97.171272
 11
273.871277
 21
-97.171272
  0
LINE
  8
0
 10
272.771271
 20
-119.171272
 11
273.871277
 21
-119.171272
  0
LINE
  8
0
 10
270.621277
 20
-104.621269
 11
258.121277
 21
-104.621269
  0
LINE
  8
0
 10
255.971283
 20
-123.671272
 11
272.771271
 21
-123.671272
  0
LINE
  8
0
 10
272.771301
 20
-118.871269
 11
272.771301
 21
-120.871269
  0
LINE
  8
0
 10
255.971283
 20
-121.671272
 11
272.771271
 21
-121.671272
  0
LINE
  8
0
 10
255.971283
 20
-120.871269
 11
272.771271
 21
-120.871269
  0
LINE
  8
0
 10
255.571274
 20
-118.871269
 11
273.171265
 21
-118.871269
  0
LINE
  8
0
 10
255.971298
 20
-121.671272
 11
255.971298
 21
-123.671272
  0
LINE
  8
0
 10
272.771301
 20
-121.671272
 11
272.771301
 21
-123.671272
  0
LINE
  8
0
 10
258.371277
 20
-120.871269
 11
258.371277
 21
-121.671272
  0
LINE
  8
0
 10
270.371277
 20
-120.871269
 11
270.371277
 21
-121.671272
  0
LINE
  8
0
 10
273.171265
 20
-107.171272
 11
273.171265
 21
-118.871269
  0
LINE
  8
0
 10
255.571289
 20
-107.171272
 11
255.571289
 21
-118.871269
  0
LINE
  8
0
 10
255.571274
 20
-107.171272
 11
273.171265
 21
-107.171272
  0
LINE
  8
0
 10
270.621307
 20
-104.621216
 11
273.171295
 21
-107.171219
  0
LINE
  8
0
 10
255.571274
 20
-107.171280
 11
258.121277
 21
-104.621292
  0
LINE
  8
0
 10
258.121277
 20
-97.171272
 11
258.121277
 21
-104.621269
  0
LINE
  8
0
 10
270.621277
 20
-97.171272
 11
270.621277
 21
-104.621269
  0
LINE
  8
0
 10
255.971283
 20
-118.871269
 11
255.971283
 21
-120.871269
  0
LINE
  8
0
 10
257.204620
 20
-27.337990
 11
259.538086
 21
-25.004532
  0
LINE
  8
0
 10
257.204620
 20
-25.004532
 11
259.538086
 21
-27.337990
  0
LINE
  8
0
 10
269.204620
 20
-27.337982
 11
271.538055
 21
-25.004524
  0
LINE
  8
0
 10
269.204620
 20
-25.004532
 11
271.538055
 21
-27.337990
  0
LINE
  8
0
 10
257.871277
 20
-85.671280
 11
270.871277
 21
-85.671280
  0
LINE
  8
0
 10
257.871277
 20
-79.671280
 11
270.871277
 21
-79.671280
  0
LINE
  8
0
 10
257.871277
 20
-72.171280
 11
270.871277
 21
-72.171280
  0
LINE
  8
0
 10
257.871277
 20
-64.671280
 11
270.871277
 21
-64.671280
  0
LINE
  8
0
 10
257.871277
 20
-57.171280
 11
270.871277
 21
-57.171280
  0
LINE
  8
0
 10
257.871277
 20
-49.671288
 11
270.871277
 21
-49.671288
  0
LINE
  8
0
 10
257.871277
 20
-42.171288
 11
270.871277
 21
-42.171288
  0
LINE
  8
0
 10
257.871277
 20
-34.671288
 11
270.871277
 21
-34.671288
  0
LINE
  8
0
 10
261.243591
 20
-28.171288
 11
267.499023
 21
-28.171288
  0
LINE
  8
0
 10
257.871277
 20
-80.671280
 11
270.871277
 21
-80.671280
  0
LINE
  8
0
 10
257.871277
 20
-73.171280
 11
270.871277
 21
-73.171280
  0
LINE
  8
0
 10
257.871277
 20
-65.671280
 11
270.871277
 21
-65.671280
  0
LINE
  8
0
 10
257.871277
 20
-58.171280
 11
270.871277
 21
-58.171280
  0
LINE
  8
0
 10
257.871277
 20
-50.671288
 11
270.871277
 21
-50.671288
  0
LINE
  8
0
 10
257.871277
 20
-43.171288
 11
270.871277
 21
-43.171288
  0
LINE
  8
0
 10
257.871277
 20
-35.671288
 11
270.871277
 21
-35.671288
  0
LINE
  8
0
 10
270.871277
 20
-29.635384
 11
270.871277
 21
-34.671288
  0
LINE
  8
0
 10
257.871277
 20
-29.635384
 11
257.871277
 21
-34.671288
  0
LINE
  8
0
 10
257.871277
 20
-80.671280
 11
257.871277
 21
-85.671280
  0
LINE
  8
0
 10
257.871277
 20
-73.171280
 11
257.871277
 21
-79.671280
  0
LINE
  8
0
 10
270.871277
 20
-80.671280
 11
270.871277
 21
-85.671280
  0
LINE
  8
0
 10
270.871277
 20
-73.171280
 11
270.871277
 21
-79.671280
  0
LINE
  8
0
 10
257.871277
 20
-65.671280
 11
257.871277
 21
-72.171280
  0
LINE
  8
0
 10
270.871277
 20
-65.671280
 11
270.871277
 21
-72.171280
  0
LINE
  8
0
 10
257.871277
 20
-58.171280
 11
257.871277
 21
-64.671280
  0
LINE
  8
0
 10
270.871277
 20
-58.171280
 11
270.871277
 21
-64.671280
  0
LINE
  8
0
 10
257.871277
 20
-50.671288
 11
257.871277
 21
-57.171280
  0
LINE
  8
0
 10
270.871277
 20
-50.671288
 11
270.871277
 21
-57.171280
  0
LINE
  8
0
 10
257.871277
 20
-43.171288
 11
257.871277
 21
-49.671288
  0
LINE
  8
0
 10
270.871277
 20
-43.171288
 11
270.871277
 21
-49.671288
  0
LINE
  8
0
 10
257.871277
 20
-35.671288
 11
257.871277
 21
-42.171288
  0
LINE
  8
0
 10
270.871277
 20
-35.671288
 11
270.871277
 21
-42.171288
  0
LINE
  8
0
 10
254.871277
 20
-118.671272
 11
255.571289
 21
-118.671272
  0
LINE
  8
0
 10
254.871277
 20
-21.671272
 11
273.871277
 21
-21.671272
  0
LINE
  8
0
 10
273.171265
 20
-118.671272
 11
273.871277
 21
-118.671272
  0
ARC
  8
0
 10
264.371277
 20
-97.171272
 40
6.250000
 50
90.000000
 51
179.999924
  0
ARC
  8
0
 10
264.371277
 20
-97.171272
 40
6.250000
 50
0.000000
 51
90.000000
  0
ARC
  8
0
 10
264.371277
 20
-97.171272
 40
8.799997
 50
315.253418
 51
224.746567
  0
CIRCLE
  8
0
 10
258.371307
 20
-26.171272
 40
3.000000
  0
CIRCLE
  8
0
 10
270.371277
 20
-26.171272
 40
3.000000
  0
ARC
  8
0
 10
258.371277
 20
-26.171288
 40
3.499998
 50
261.787292
 51
325.150116
  0
ARC
  8
0
 10
270.371277
 20
-26.171288
 40
3.499977
 50
214.850159
 51
278.213715
  0
ARC
  8
0
 10
258.371277
 20
-114.171272
 40
2.999986
 50
158.960571
 51
201.039429
  0
ARC
  8
0
 10
270.371277
 20
-114.171272
 40
3.000000
 50
338.959869
 51
21.040115
  0
POINT
  8
0
 10
273.871277
 20
-205.671295
  0
POINT
  8
0
 10
254.871277
 20
-205.671295
  0
LINE
  8
0
 10
255.371292
 20
-177.671295
 11
273.371277
 21
-177.671295
  0
LINE
  8
0
 10
255.371292
 20
-177.671295
 11
255.371292
 21
-204.671295
  0
LINE
  8
0
 10
273.371277
 20
-177.671295
 11
273.371277
 21
-204.671295
  0
LINE
  8
0
 10
273.871277
 20
-204.671295
 11
273.871277
 21
-232.671295
  0
LINE
  8
0
 10
273.871277
 20
-232.671295
 11
254.871277
 21
-232.671295
  0
LINE
  8
0
 10
273.871277
 20
-204.671295
 11
254.871277
 21
-204.671295
  0
LINE
  8
0
 10
264.371277
 20
-145.171295
 11
264.371277
 21
-234.671295
  0
LINE
  8
0
 10
254.371292
 20
-157.171295
 11
274.371277
 21
-157.171295
  0
LINE
  8
0
 10
270.621307
 20
-164.121307
 11
273.171295
 21
-166.671295
  0
LINE
  8
0
 10
255.571289
 20
-176.171295
 11
273.171265
 21
-176.171295
  0
LINE
  8
0
 10
255.571289
 20
-166.671295
 11
273.171265
 21
-166.671295
  0
LINE
  8
0
 10
255.871292
 20
-176.171295
 11
255.871292
 21
-177.671295
  0
LINE
  8
0
 10
272.871277
 20
-176.171295
 11
272.871277
 21
-177.671295
  0
LINE
  8
0
 10
273.171265
 20
-166.671295
 11
273.171265
 21
-176.171295
  0
LINE
  8
0
 10
255.571289
 20
-166.671295
 11
255.571289
 21
-176.171295
  0
LINE
  8
0
 10
258.121277
 20
-163.295029
 11
258.121277
 21
-166.671295
  0
LINE
  8
0
 10
270.621277
 20
-163.295029
 11
270.621277
 21
-166.671295
  0
LINE
  8
0
 10
255.571304
 20
-166.671310
 11
258.121338
 21
-164.121307
  0
LINE
  8
0
 10
273.871277
 20
-205.671295
 11
254.871277
 21
-205.671295
  0
LINE
  8
0
 10
254.871277
 20
-204.671295
 11
254.871277
 21
-205.671295
  0
CIRCLE
  8
0
 10
264.371277
 20
-157.171295
 40
8.750000
  0
CIRCLE
  8
0
 10
264.371277
 20
-157.171295
 40
5.000000
  0
POINT
  8
0
 10
113.871315
 20
-118.971336
  0
POINT
  8
0
 10
133.871307
 20
-118.971336
  0
LINE
  8
0
 10
140.871307
 20
-21.471336
 11
140.871307
 21
-118.471321
  0
LINE
  8
0
 10
113.871315
 20
-118.471321
 11
140.871307
 21
-118.471321
  0
LINE
  8
0
 10
113.871315
 20
-21.471336
 11
140.871307
 21
-21.471336
  0
LINE
  8
0
 10
115.871284
 20
-28.971336
 11
118.871284
 21
-28.971336
  0
LINE
  8
0
 10
115.871315
 20
-110.971321
 11
118.871315
 21
-110.971321
  0
LINE
  8
0
 10
118.871315
 20
-27.971352
 11
118.871315
 21
-111.971352
  0
LINE
  8
0
 10
123.371315
 20
-27.971344
 11
123.371315
 21
-111.971344
  0
LINE
  8
0
 10
127.871315
 20
-27.971344
 11
127.871315
 21
-111.971344
  0
LINE
  8
0
 10
132.371307
 20
-27.971344
 11
132.371307
 21
-111.971344
  0
LINE
  8
0
 10
136.871307
 20
-27.971344
 11
136.871307
 21
-111.971344
  0
LINE
  8
0
 10
133.871307
 20
-27.971344
 11
133.871307
 21
-111.971344
  0
LINE
  8
0
 10
129.371307
 20
-27.971344
 11
129.371307
 21
-111.971344
  0
LINE
  8
0
 10
124.871315
 20
-27.971344
 11
124.871315
 21
-111.971344
  0
LINE
  8
0
 10
120.371315
 20
-27.971352
 11
120.371315
 21
-111.971352
  0
LINE
  8
0
 10
115.871315
 20
-27.971352
 11
115.871315
 21
-111.971352
  0
LINE
  8
0
 10
133.871277
 20
-28.971336
 11
136.871277
 21
-28.971336
  0
LINE
  8
0
 10
129.371277
 20
-28.971336
 11
132.371277
 21
-28.971336
  0
LINE
  8
0
 10
124.871284
 20
-28.971336
 11
127.871284
 21
-28.971336
  0
LINE
  8
0
 10
120.371284
 20
-28.971336
 11
123.371284
 21
-28.971336
  0
LINE
  8
0
 10
120.371315
 20
-110.971321
 11
123.371315
 21
-110.971321
  0
LINE
  8
0
 10
124.871315
 20
-110.971321
 11
127.871315
 21
-110.971321
  0
LINE
  8
0
 10
129.371307
 20
-110.971321
 11
132.371307
 21
-110.971321
  0
LINE
  8
0
 10
133.871307
 20
-110.971321
 11
136.871307
 21
-110.971321
  0
LINE
  8
0
 10
142.371307
 20
-88.171310
 11
142.371307
 21
-105.771317
  0
LINE
  8
0
 10
142.371307
 20
-88.471321
 11
140.871307
 21
-88.471321
  0
LINE
  8
0
 10
142.371307
 20
-105.471321
 11
140.871307
 21
-105.471321
  0
LINE
  8
0
 10
152.571320
 20
-105.771324
 11
142.371307
 21
-105.771324
  0
LINE
  8
0
 10
152.971313
 20
-123.471336
 11
169.771332
 21
-123.471336
  0
LINE
  8
0
 10
152.971313
 20
-118.671326
 11
152.971313
 21
-120.671326
  0
LINE
  8
0
 10
169.771332
 20
-118.671326
 11
169.771332
 21
-120.671326
  0
LINE
  8
0
 10
152.971313
 20
-121.471336
 11
169.771332
 21
-121.471336
  0
LINE
  8
0
 10
152.971313
 20
-120.671333
 11
169.771332
 21
-120.671333
  0
LINE
  8
0
 10
152.571320
 20
-118.671333
 11
170.171326
 21
-118.671333
  0
LINE
  8
0
 10
152.971313
 20
-121.471313
 11
152.971313
 21
-123.471313
  0
LINE
  8
0
 10
169.771332
 20
-121.471313
 11
169.771332
 21
-123.471313
  0
LINE
  8
0
 10
155.371307
 20
-120.671326
 11
155.371307
 21
-121.471313
  0
LINE
  8
0
 10
167.371307
 20
-120.671326
 11
167.371307
 21
-121.471313
  0
LINE
  8
0
 10
170.171326
 20
-96.971313
 11
170.171326
 21
-118.671326
  0
LINE
  8
0
 10
152.571320
 20
-105.771324
 11
152.571320
 21
-118.671326
  0
LINE
  8
0
 10
172.962280
 20
-96.971321
 11
137.776428
 21
-96.971321
  0
LINE
  8
0
 10
161.371307
 20
-83.591766
 11
161.371307
 21
-127.015564
  0
LINE
  8
0
 10
161.371307
 20
-88.171318
 11
142.371307
 21
-88.171318
  0
ARC
  8
0
 10
161.371307
 20
-96.971313
 40
8.800003
 50
0.000000
 51
89.999901
  0
ENDSEC
  0
EOF
