  0
SECTION
  2
HEADER
  0
ENDSEC
  0
SECTION
  2
TABLES
  0
TABLE
  2
LTYPE
 70
     4
  0
LTYPE
  2
CONTINUOUS
 70
    64
  3
Solid line
 72
    65
 73
     0
 40
0.000000
  0
LTYPE
  2
DASHED
 70
    64
  3
__ __ __ __ __ __ __ __ __ __ __ __ __ __ __
 72
    65
 73
     2
 40
3.500000
 49
2.000000
 49
-1.500000
  0
LTYPE
  2
CENTER
 70
    64
  3
____ _ ____ _ ____ _ ____ _ ____ _ ____ _ ____
 72
    65
 73
     4
 40
17.500000
 49
13.000000
 49
-1.500000
 49
1.500000
 49
-1.500000
  0
LTYPE
  2
PHANTOM
 70
    64
  3
_____ _ _ _____ _ _ _____ _ _ _____ _ _ ____  
 72
    65
 73
     6
 40
15.500000
 49
8.000000
 49
-1.500000
 49
1.500000
 49
-1.500000
 49
1.500000
 49
-1.500000
  0
LTYPE
  2
DASHED1
 70
    64
  3
__ __ __ __ __ __ __ __ __ __ __ __ __ __ __
 72
    65
 73
     2
 40
1.500000
 49
1.000000
 49
-0.500000
  0
LTYPE
  2
DASHED2
 70
    64
  3
__ __ __ __ __ __ __ __ __ __ __ __ __ __ __
 72
    65
 73
     2
 40
3.500000
 49
2.500000
 49
-1.000000
  0
LTYPE
  2
DASHED3
 70
    64
  3
__ __ __ __ __ __ __ __ __ __ __ __ __ __ __
 72
    65
 73
     2
 40
6.000000
 49
4.000000
 49
-2.000000
  0
LTYPE
  2
DASHED4
 70
    64
  3
__ __ __ __ __ __ __ __ __ __ __ __ __ __ __
 72
    65
 73
     2
 40
12.000000
 49
10.000000
 49
-2.000000
  0
LTYPE
  2
DASHED5
 70
    64
  3
__ __ __ __ __ __ __ __ __ __ __ __ __ __ __
 72
    65
 73
     2
 40
17.000000
 49
15.000000
 49
-2.000000
  0
LTYPE
  2
DASHED6
 70
    64
  3
__ __ __ __ __ __ __ __ __ __ __ __ __ __ __
 72
    65
 73
     2
 40
29.000000
 49
27.000000
 49
-2.000000
  0
LTYPE
  2
PHANTOM1
 70
    64
  3
_____ _ _ _____ _ _ _____ _ _ _____ _ _ ____  
 72
    65
 73
     6
 40
31.000000
 49
25.000000
 49
-1.500000
 49
1.000000
 49
-1.000000
 49
1.000000
 49
-1.500000
  0
LTYPE
  2
PHANTOM2
 70
    64
  3
_____ _ _ _____ _ _ _____ _ _ _____ _ _ ____  
 72
    65
 73
     6
 40
36.000000
 49
27.000000
 49
-1.500000
 49
2.500000
 49
-1.000000
 49
2.500000
 49
-1.500000
  0
LTYPE
  2
PHANTOM3
 70
    64
  3
_____ _ _ _____ _ _ _____ _ _ _____ _ _ ____  
 72
    65
 73
     6
 40
78.000000
 49
64.000000
 49
-2.000000
 49
4.000000
 49
-2.000000
 49
4.000000
 49
-2.000000
  0
LTYPE
  2
CENTER1
 70
    64
  3
____ _ ____ _ ____ _ ____ _ ____ _ ____ _ ____
 72
    65
 73
     4
 40
19.000000
 49
14.000000
 49
-1.000000
 49
3.000000
 49
-1.000000
  0
LTYPE
  2
CENTER2
 70
    64
  3
____ _ ____ _ ____ _ ____ _ ____ _ ____ _ ____
 72
    65
 73
     4
 40
28.500000
 49
25.000000
 49
-1.000000
 49
1.500000
 49
-1.000000
  0
LTYPE
  2
CENTER3
 70
    64
  3
____ _ ____ _ ____ _ ____ _ ____ _ ____ _ ____
 72
    65
 73
     4
 40
31.500000
 49
27.000000
 49
-1.000000
 49
2.500000
 49
-1.000000
  0
LTYPE
  2
CENTER4
 70
    64
  3
____ _ ____ _ ____ _ ____ _ ____ _ ____ _ ____
 72
    65
 73
     4
 40
50.000000
 49
45.000000
 49
-1.000000
 49
3.000000
 49
-1.000000
  0
LTYPE
  2
CENTER5
 70
    64
  3
____ _ ____ _ ____ _ ____ _ ____ _ ____ _ ____
 72
    65
 73
     4
 40
100.000000
 49
92.000000
 49
-2.000000
 49
4.000000
 49
-2.000000
  0
LTYPE
  2
SBK1
 70
    64
  3
______ _ _ _ ______ _ _ _ ______ _ _ _ _____  
 72
    65
 73
     8
 40
60.500000
 49
45.000000
 49
-2.000000
 49
2.500000
 49
-2.000000
 49
2.500000
 49
-2.000000
 49
2.500000
 49
-2.000000
  0
LTYPE
  2
SBK2
 70
    64
  3
______ _ _ _ ______ _ _ _ ______ _ _ _ _____  
 72
    65
 73
     8
 40
84.000000
 49
64.000000
 49
-2.000000
 49
4.000000
 49
-2.000000
 49
4.000000
 49
-2.000000
 49
4.000000
 49
-2.000000
  0
LTYPE
  2
STCH
 70
    64
  3
__ __ __ __ __ __ __ __ __ __ __ __ __ __ __
 72
    65
 73
     2
 40
3.000000
 49
1.000000
 49
-2.000000
  0
LTYPE
  2
MTCH
 70
    64
  3
_____ _ _ _____ _ _ _____ _ _ _____ _ _ ____  
 72
    65
 73
     6
 40
80.000000
 49
66.000000
 49
-2.000000
 49
4.000000
 49
-2.000000
 49
4.000000
 49
-2.000000
  0
ENDTAB
  0
TABLE
  2
LAYER
 70
     1
  0
LAYER
  2
0
 70
     0
 62
     7
  6
CONTINUOUS
  0
ENDTAB
  0
TABLE
  2
STYLE
 70
     1
  0
STYLE
  2
STANDARD
 70
     0
 40
0.000000
 41
1.000000
 50
0.000000
 71
     0
 42
0.200000
  3
txt
  4
BIGFONT
  0
ENDTAB
  0
TABLE
  2
VIEW
 70
     0
  0
ENDTAB
  0
ENDSEC
  0
SECTION
  2
BLOCKS
  0
ENDSEC
  0
SECTION
  2
ENTITIES
  0
LINE
  8
0
 10
-420.500000
 20
297.000000
 11
420.500000
 21
297.000000
  0
LINE
  8
0
 10
-420.500000
 20
-297.000000
 11
420.500000
 21
-297.000000
  0
LINE
  8
0
 10
420.500000
 20
297.000000
 11
420.500000
 21
-297.000000
  0
LINE
  8
0
 10
-420.500000
 20
297.000000
 11
-420.500000
 21
-297.000000
  0
LINE
  8
0
 10
399.799988
 20
276.250000
 11
399.799988
 21
-276.750000
  0
LINE
  8
0
 10
-399.250000
 20
276.250000
 11
-399.250000
 21
-276.750000
  0
LINE
  8
0
 10
-399.250000
 20
276.250000
 11
399.799988
 21
276.250000
  0
LINE
  8
0
 10
-399.250000
 20
-276.750000
 11
399.799988
 21
-276.750000
  0
LINE
  8
0
 10
133.449997
 20
-251.750000
 11
399.799988
 21
-251.750000
  0
LINE
  8
0
 10
239.799988
 20
251.250000
 11
399.799988
 21
251.250000
  0
LINE
  8
0
 10
-399.250000
 20
251.250000
 11
-239.250000
 21
251.250000
  0
LINE
  8
0
 10
239.799988
 20
-251.750000
 11
239.799988
 21
-276.750000
  0
LINE
  8
0
 10
239.799988
 20
251.250000
 11
239.799988
 21
276.250000
  0
LINE
  8
0
 10
-239.250000
 20
276.250000
 11
-239.250000
 21
251.250000
  0
LINE
  8
0
 10
-399.250000
 20
-0.250000
 11
399.799988
 21
-0.250000
  0
LINE
  8
0
 10
-399.250000
 20
-261.750000
 11
133.449997
 21
-261.750000
  0
LINE
  8
0
 10
-399.250000
 20
14.750000
 11
399.799988
 21
14.750000
  0
LINE
  8
0
 10
-132.900009
 20
276.250000
 11
-132.900009
 21
-276.750000
  0
LINE
  8
0
 10
133.449997
 20
276.250000
 11
133.449997
 21
-276.750000
  0
LINE
  8
0
 10
133.449997
 20
-236.750000
 11
399.799988
 21
-236.750000
  0
LINE
  8
0
  6
PHANTOM
 10
-320.196564
 20
237.262970
 11
-348.196564
 21
237.262970
  0
LINE
  8
0
  6
PHANTOM
 10
-348.196564
 20
139.262970
 11
-348.196564
 21
237.262970
  0
LINE
  8
0
  6
PHANTOM
 10
-320.196564
 20
139.262970
 11
-348.196564
 21
139.262970
  0
LINE
  8
0
  6
PHANTOM
 10
-320.196564
 20
237.262970
 11
-320.196564
 21
139.262970
  0
LINE
  8
0
  6
PHANTOM
 10
-60.487671
 20
237.262970
 11
-88.487671
 21
237.262970
  0
LINE
  8
0
  6
PHANTOM
 10
-88.487671
 20
237.262970
 11
-88.487671
 21
139.262970
  0
LINE
  8
0
  6
PHANTOM
 10
-88.487671
 20
139.262970
 11
-60.487671
 21
139.262970
  0
LINE
  8
0
  6
PHANTOM
 10
-60.487671
 20
237.262970
 11
-60.487671
 21
139.262970
  0
LINE
  8
0
  6
PHANTOM
 10
208.301514
 20
237.262970
 11
180.301514
 21
237.262970
  0
LINE
  8
0
  6
PHANTOM
 10
180.301514
 20
139.262970
 11
180.301514
 21
237.262970
  0
LINE
  8
0
  6
PHANTOM
 10
180.301514
 20
139.262970
 11
208.301514
 21
139.262970
  0
LINE
  8
0
  6
PHANTOM
 10
208.301514
 20
237.262970
 11
208.301514
 21
139.262970
  0
LINE
  8
0
  6
PHANTOM
 10
-320.196564
 20
-23.295990
 11
-348.196564
 21
-23.295990
  0
LINE
  8
0
  6
PHANTOM
 10
-348.196564
 20
-23.295990
 11
-348.196564
 21
-121.295990
  0
LINE
  8
0
  6
PHANTOM
 10
-320.196564
 20
-121.295990
 11
-348.196564
 21
-121.295990
  0
LINE
  8
0
  6
PHANTOM
 10
-320.196564
 20
-121.295990
 11
-320.196564
 21
-23.295990
  0
LINE
  8
0
  6
PHANTOM
 10
-60.487671
 20
-23.295990
 11
-88.487671
 21
-23.295990
  0
LINE
  8
0
  6
PHANTOM
 10
-88.487671
 20
-121.295990
 11
-88.487671
 21
-23.295990
  0
LINE
  8
0
  6
PHANTOM
 10
-88.487671
 20
-121.295990
 11
-60.487671
 21
-121.295990
  0
LINE
  8
0
  6
PHANTOM
 10
-60.487671
 20
-23.295990
 11
-60.487671
 21
-121.295990
  0
LINE
  8
0
  6
PHANTOM
 10
200.301514
 20
-13.295990
 11
172.301514
 21
-13.295990
  0
LINE
  8
0
  6
PHANTOM
 10
172.301514
 20
-111.295990
 11
172.301514
 21
-13.295990
  0
LINE
  8
0
  6
PHANTOM
 10
172.301514
 20
-111.295990
 11
200.301514
 21
-111.295990
  0
LINE
  8
0
  6
PHANTOM
 10
200.301514
 20
-13.295990
 11
200.301514
 21
-111.295990
  0
TEXT
  8
0
 10
-345.785156
 20
253.500000
 40
12.500000
  1
X88M
 50
0.000000
 41
1.052632
 51
0.000000
  7
STANDARD
  0
TEXT
  8
0
 10
242.014816
 20
-274.500000
 40
12.500000
  1
KOGANEI CORP.
 50
0.000000
 41
1.052632
 51
0.000000
  7
STANDARD
  0
TEXT
  8
0
 10
251.264664
 20
256.649994
 40
9.000000
  1
DATE: SEP ,1992
 50
0.000000
 41
1.052632
 51
0.000000
  7
STANDARD
  0
TEXT
  8
0
 10
-343.825012
 20
1.950001
 40
7.000000
  1
MODEL : FMW110-4E1-J6S
 50
0.000000
 41
1.052632
 51
0.000000
  7
STANDARD
  0
TEXT
  8
0
 10
-77.475006
 20
1.950001
 40
7.000000
  1
MODEL : FMW110-4E1-J4U
 50
0.000000
 41
1.052632
 51
0.000000
  7
STANDARD
  0
TEXT
  8
0
 10
188.875000
 20
1.950001
 40
7.000000
  1
MODEL : FMW110-4E1-J6U
 50
0.000000
 41
1.052632
 51
0.000000
  7
STANDARD
  0
TEXT
  8
0
 10
-347.325012
 20
-274.549988
 40
7.000000
  1
MODEL : FMW110-4KE2-J6S
 50
0.000000
 41
1.052632
 51
0.000000
  7
STANDARD
  0
TEXT
  8
0
 10
-80.975006
 20
-274.549988
 40
7.000000
  1
MODEL : FMW110-4KE2-J4U
 50
0.000000
 41
1.052632
 51
0.000000
  7
STANDARD
  0
TEXT
  8
0
 10
185.375000
 20
-249.550003
 40
7.000000
  1
MODEL : FMW110-4KE2-J6U
 50
0.000000
 41
1.052632
 51
0.000000
  7
STANDARD
  0
POINT
  8
0
 10
-199.196594
 20
139.262970
  0
POINT
  8
0
 10
-183.196594
 20
139.262970
  0
LINE
  8
0
 10
-199.196594
 20
183.263000
 11
-183.196594
 21
183.263000
  0
LINE
  8
0
 10
-191.196777
 20
239.262970
 11
-191.196777
 21
134.721924
  0
LINE
  8
0
 10
-193.581650
 20
196.763077
 11
-188.735199
 21
196.763077
  0
LINE
  8
0
 10
-199.196594
 20
155.262848
 11
-183.196594
 21
155.262848
  0
LINE
  8
0
 10
-199.196594
 20
147.762817
 11
-183.196594
 21
147.762817
  0
LINE
  8
0
 10
-199.196594
 20
200.263077
 11
-183.196594
 21
200.263077
  0
LINE
  8
0
 10
-196.696777
 20
202.063080
 11
-185.696793
 21
202.063080
  0
LINE
  8
0
 10
-196.696777
 20
216.263077
 11
-185.696793
 21
216.263077
  0
LINE
  8
0
 10
-196.696777
 20
223.763077
 11
-185.696793
 21
223.763077
  0
LINE
  8
0
 10
-196.696793
 20
223.763077
 11
-196.696793
 21
216.263077
  0
LINE
  8
0
 10
-185.696793
 20
223.763077
 11
-185.696793
 21
216.263077
  0
LINE
  8
0
 10
-187.696793
 20
209.263077
 11
-187.696793
 21
205.263077
  0
LINE
  8
0
 10
-194.696793
 20
209.263077
 11
-194.696793
 21
205.263077
  0
LINE
  8
0
 10
-196.696793
 20
214.563080
 11
-196.696793
 21
202.063080
  0
LINE
  8
0
 10
-185.696793
 20
214.563080
 11
-185.696793
 21
202.063080
  0
LINE
  8
0
 10
-196.696777
 20
214.563080
 11
-185.696793
 21
214.563080
  0
LINE
  8
0
 10
-194.696793
 20
205.263077
 11
-187.696793
 21
205.263077
  0
LINE
  8
0
 10
-194.696793
 20
209.263077
 11
-187.696793
 21
209.263077
  0
LINE
  8
0
 10
-199.196594
 20
226.663071
 11
-183.196594
 21
226.663071
  0
LINE
  8
0
 10
-197.596680
 20
228.663071
 11
-184.796936
 21
228.663071
  0
LINE
  8
0
 10
-198.696686
 20
226.663025
 11
-197.596664
 21
228.663055
  0
LINE
  8
0
 10
-184.796967
 20
228.663040
 11
-183.696945
 21
226.662994
  0
LINE
  8
0
 10
-183.196594
 20
237.262970
 11
-183.196594
 21
139.262970
  0
LINE
  8
0
 10
-199.196594
 20
237.262970
 11
-183.196594
 21
237.262970
  0
LINE
  8
0
 10
-199.196594
 20
139.262970
 11
-183.196594
 21
139.262970
  0
LINE
  8
0
 10
-185.096771
 20
139.262970
 11
-185.096771
 21
138.362961
  0
LINE
  8
0
 10
-186.696777
 20
138.362961
 11
-186.696777
 21
137.062973
  0
LINE
  8
0
 10
-185.096771
 20
138.362961
 11
-197.296783
 21
138.362961
  0
LINE
  8
0
 10
-195.696777
 20
138.362961
 11
-195.696777
 21
137.062973
  0
LINE
  8
0
 10
-188.696777
 20
138.362961
 11
-188.696777
 21
137.062973
  0
LINE
  8
0
 10
-185.296768
 20
135.862976
 11
-197.096771
 21
135.862976
  0
LINE
  8
0
 10
-185.296768
 20
137.062973
 11
-197.096771
 21
137.062973
  0
LINE
  8
0
 10
-197.296783
 20
139.262970
 11
-197.296783
 21
138.362961
  0
LINE
  8
0
 10
-187.096771
 20
139.262970
 11
-187.096771
 21
138.362961
  0
LINE
  8
0
 10
-197.096771
 20
137.062973
 11
-197.096771
 21
135.862976
  0
LINE
  8
0
 10
-187.296768
 20
137.062973
 11
-187.296768
 21
135.862976
  0
LINE
  8
0
 10
-185.296768
 20
137.062973
 11
-185.296768
 21
135.862976
  0
CIRCLE
  8
0
 10
-191.196777
 20
196.763077
 40
1.650000
  0
POINT
  8
0
 10
-199.196594
 20
81.762970
  0
POINT
  8
0
 10
-183.196594
 20
81.762970
  0
LINE
  8
0
 10
-183.196594
 20
54.762970
 11
-183.196594
 21
81.762970
  0
LINE
  8
0
 10
-199.196594
 20
54.762970
 11
-183.196594
 21
54.762970
  0
LINE
  8
0
 10
-191.196594
 20
114.262970
 11
-191.196594
 21
53.262970
  0
LINE
  8
0
 10
-198.696594
 20
81.762970
 11
-198.696594
 21
107.262985
  0
LINE
  8
0
 10
-183.696594
 20
81.762970
 11
-183.696594
 21
107.262985
  0
LINE
  8
0
 10
-198.022049
 20
112.262970
 11
-184.371399
 21
112.262970
  0
LINE
  8
0
 10
-184.196823
 20
107.262985
 11
-184.371429
 21
112.262962
  0
LINE
  8
0
 10
-198.196671
 20
107.262985
 11
-198.022064
 21
112.262970
  0
LINE
  8
0
 10
-198.696594
 20
107.262985
 11
-183.696594
 21
107.262985
  0
LINE
  8
0
 10
-185.296600
 20
63.262970
 11
-185.296600
 21
61.262970
  0
LINE
  8
0
 10
-195.096588
 20
63.677185
 11
-195.096588
 21
61.262970
  0
LINE
  8
0
 10
-187.296600
 20
75.262970
 11
-187.296600
 21
73.262970
  0
LINE
  8
0
 10
-197.096588
 20
75.262970
 11
-197.096588
 21
73.262970
  0
LINE
  8
0
 10
-183.696594
 20
82.762970
 11
-198.696594
 21
82.762970
  0
LINE
  8
0
 10
-198.196594
 20
74.262970
 11
-186.196594
 21
74.262970
  0
LINE
  8
0
 10
-196.196594
 20
62.262970
 11
-184.196594
 21
62.262970
  0
LINE
  8
0
 10
-190.196594
 20
68.262970
 11
-190.196594
 21
56.262970
  0
LINE
  8
0
 10
-192.196594
 20
80.262970
 11
-192.196594
 21
68.262970
  0
LINE
  8
0
 10
-199.196594
 20
81.762970
 11
-183.196594
 21
81.762970
  0
CIRCLE
  8
0
 10
-192.196594
 20
74.262970
 40
3.000000
  0
CIRCLE
  8
0
 10
-190.196594
 20
62.262970
 40
3.000000
  0
ARC
  8
0
 10
-190.196594
 20
63.262970
 40
4.899994
 50
0.000000
 51
179.999954
  0
ARC
  8
0
 10
-190.196594
 20
61.262970
 40
4.899994
 50
179.999954
 51
0.000000
  0
ARC
  8
0
 10
-192.196594
 20
75.262970
 40
4.899994
 50
0.000000
 51
180.000000
  0
ARC
  8
0
 10
-192.196594
 20
73.262970
 40
4.899994
 50
180.000000
 51
0.000000
  0
TEXT
  8
0
 10
-197.232224
 20
56.462971
 40
2.000000
  1
A
 50
0.000000
 41
1.052632
 51
0.000000
  7
STANDARD
  0
TEXT
  8
0
 10
-187.232224
 20
78.462967
 40
2.000000
  1
B
 50
0.000000
 41
1.052632
 51
0.000000
  7
STANDARD
  0
POINT
  8
0
 10
-300.196564
 20
139.262970
  0
POINT
  8
0
 10
-320.196564
 20
139.262970
  0
LINE
  8
0
 10
-320.196564
 20
183.263016
 11
-296.196564
 21
183.263016
  0
LINE
  8
0
 10
-296.196564
 20
226.663132
 11
-296.196564
 21
147.762741
  0
LINE
  8
0
 10
-320.196564
 20
147.762741
 11
-296.196564
 21
147.762741
  0
LINE
  8
0
 10
-320.196564
 20
200.263123
 11
-296.196808
 21
200.263123
  0
LINE
  8
0
 10
-296.196564
 20
200.745743
 11
-290.696808
 21
200.937805
  0
LINE
  8
0
 10
-320.196564
 20
226.663132
 11
-290.696808
 21
226.663132
  0
LINE
  8
0
 10
-319.696747
 20
228.663132
 11
-297.196777
 21
228.663132
  0
LINE
  8
0
 10
-320.196564
 20
227.663574
 11
-319.696777
 21
228.663147
  0
LINE
  8
0
 10
-296.196808
 20
226.663147
 11
-297.196777
 21
228.663116
  0
LINE
  8
0
 10
-290.696808
 20
226.663132
 11
-290.696808
 21
200.937790
  0
LINE
  8
0
 10
-346.597046
 20
137.062973
 11
-346.597046
 21
135.862976
  0
LINE
  8
0
 10
-344.197052
 20
139.262970
 11
-344.197052
 21
137.062973
  0
LINE
  8
0
 10
-337.197052
 20
139.262970
 11
-337.197052
 21
137.062973
  0
LINE
  8
0
 10
-322.797058
 20
137.062973
 11
-322.797058
 21
135.862976
  0
LINE
  8
0
 10
-334.597046
 20
137.062973
 11
-334.597046
 21
135.862976
  0
LINE
  8
0
 10
-332.197052
 20
139.262970
 11
-332.197052
 21
137.062973
  0
LINE
  8
0
 10
-325.197052
 20
139.262970
 11
-325.197052
 21
137.062973
  0
LINE
  8
0
 10
-322.797058
 20
135.862976
 11
-346.597046
 21
135.862976
  0
LINE
  8
0
 10
-322.797058
 20
137.062973
 11
-346.597046
 21
137.062973
  0
POINT
  8
0
 10
60.512306
 20
139.262970
  0
POINT
  8
0
 10
76.512306
 20
139.262970
  0
LINE
  8
0
 10
60.512306
 20
237.262970
 11
76.512306
 21
237.262970
  0
LINE
  8
0
 10
60.512306
 20
139.262970
 11
76.512306
 21
139.262970
  0
LINE
  8
0
 10
60.512306
 20
200.262970
 11
76.512306
 21
200.262970
  0
LINE
  8
0
 10
63.012123
 20
202.062973
 11
74.012108
 21
202.062973
  0
LINE
  8
0
 10
63.012123
 20
216.262970
 11
74.012108
 21
216.262970
  0
LINE
  8
0
 10
63.012123
 20
223.762970
 11
74.012123
 21
223.762970
  0
LINE
  8
0
 10
63.012123
 20
223.762970
 11
63.012123
 21
216.262970
  0
LINE
  8
0
 10
74.012108
 20
223.762970
 11
74.012108
 21
216.262970
  0
LINE
  8
0
 10
72.012108
 20
209.262970
 11
72.012108
 21
205.262970
  0
LINE
  8
0
 10
65.012108
 20
209.262970
 11
65.012108
 21
205.262970
  0
LINE
  8
0
 10
63.012123
 20
214.562973
 11
63.012123
 21
202.062973
  0
LINE
  8
0
 10
74.012108
 20
214.562973
 11
74.012108
 21
202.062958
  0
LINE
  8
0
 10
63.012123
 20
214.562973
 11
74.012108
 21
214.562973
  0
LINE
  8
0
 10
65.012108
 20
205.262970
 11
72.012108
 21
205.262970
  0
LINE
  8
0
 10
65.012108
 20
209.262970
 11
72.012108
 21
209.262970
  0
LINE
  8
0
 10
60.512306
 20
226.662964
 11
76.512306
 21
226.662964
  0
LINE
  8
0
 10
62.289497
 20
228.662964
 11
74.734718
 21
228.662964
  0
LINE
  8
0
 10
61.012173
 20
226.662903
 11
62.026676
 21
228.507446
  0
LINE
  8
0
 10
74.997429
 20
228.507446
 11
76.011940
 21
226.662872
  0
LINE
  8
0
 10
61.362129
 20
139.262970
 11
61.362129
 21
137.462967
  0
LINE
  8
0
 10
63.612129
 20
132.762970
 11
63.612129
 21
134.762970
  0
LINE
  8
0
 10
71.412148
 20
132.762970
 11
71.412148
 21
134.762970
  0
LINE
  8
0
 10
61.362129
 20
137.462967
 11
64.697884
 21
137.462967
  0
LINE
  8
0
 10
65.512123
 20
127.762970
 11
65.512123
 21
126.763016
  0
LINE
  8
0
 10
73.512123
 20
127.762970
 11
73.512123
 21
126.762970
  0
LINE
  8
0
 10
65.512138
 20
126.762970
 11
66.163994
 21
126.762970
  0
LINE
  8
0
 10
73.362129
 20
137.462967
 11
73.362129
 21
139.262970
  0
LINE
  8
0
 10
73.362129
 20
137.762970
 11
75.362129
 21
137.762970
  0
LINE
  8
0
 10
64.412132
 20
127.762970
 11
67.020149
 21
127.762970
  0
LINE
  8
0
 10
74.612129
 20
137.762970
 11
74.612129
 21
127.762970
  0
LINE
  8
0
 10
64.412132
 20
130.396545
 11
64.412132
 21
127.762970
  0
LINE
  8
0
 10
63.512123
 20
137.462967
 11
63.512123
 21
136.462967
  0
LINE
  8
0
 10
71.512123
 20
137.462967
 11
71.512123
 21
136.462967
  0
LINE
  8
0
 10
63.512138
 20
136.462967
 11
64.002144
 21
136.462967
  0
LINE
  8
0
 10
75.362129
 20
139.262970
 11
75.362129
 21
137.762970
  0
LINE
  8
0
 10
65.612129
 20
122.762970
 11
65.612129
 21
124.762970
  0
LINE
  8
0
 10
73.412132
 20
122.762970
 11
73.412132
 21
124.762970
  0
LINE
  8
0
 10
71.022133
 20
136.462967
 11
71.512138
 21
136.462967
  0
LINE
  8
0
 10
70.326393
 20
137.462967
 11
73.362129
 21
137.462967
  0
LINE
  8
0
 10
72.860268
 20
126.762970
 11
73.512138
 21
126.762970
  0
LINE
  8
0
 10
72.004128
 20
127.762970
 11
74.612129
 21
127.762970
  0
LINE
  8
0
 10
76.512306
 20
237.262970
 11
76.512306
 21
139.262970
  0
LINE
  8
0
 10
60.512306
 20
155.262970
 11
76.512306
 21
155.262970
  0
LINE
  8
0
 10
60.512306
 20
147.762970
 11
76.512306
 21
147.762970
  0
LINE
  8
0
 10
60.512306
 20
183.262970
 11
76.512306
 21
183.262970
  0
LINE
  8
0
 10
68.512123
 20
239.262970
 11
68.512123
 21
137.762970
  0
LINE
  8
0
 10
65.246956
 20
196.762970
 11
71.826027
 21
196.762970
  0
LINE
  8
0
 10
67.512138
 20
139.762970
 11
67.512138
 21
127.762970
  0
LINE
  8
0
 10
69.512123
 20
129.762970
 11
69.512123
 21
117.762970
  0
LINE
  8
0
 10
61.512138
 20
133.762970
 11
73.512138
 21
133.762970
  0
LINE
  8
0
 10
63.512123
 20
123.762970
 11
75.512123
 21
123.762970
  0
CIRCLE
  8
0
 10
68.512123
 20
196.762970
 40
1.500000
  0
ARC
  8
0
 10
69.512123
 20
124.762970
 40
3.900002
 50
0.000000
 51
180.000000
  0
ARC
  8
0
 10
69.512123
 20
122.762970
 40
3.900002
 50
180.000000
 51
0.000000
  0
CIRCLE
  8
0
 10
67.512138
 20
133.762970
 40
2.000000
  0
ARC
  8
0
 10
67.512138
 20
134.762970
 40
3.900002
 50
0.000000
 51
180.000000
  0
ARC
  8
0
 10
67.512138
 20
132.762970
 40
3.900002
 50
180.000000
 51
0.000000
  0
CIRCLE
  8
0
 10
69.512123
 20
123.762970
 40
2.000000
  0
POINT
  8
0
 10
76.512306
 20
71.762970
  0
POINT
  8
0
 10
60.512306
 20
71.762970
  0
LINE
  8
0
 10
76.512306
 20
44.762970
 11
76.512306
 21
71.762970
  0
LINE
  8
0
 10
60.512306
 20
44.762970
 11
76.512306
 21
44.762970
  0
LINE
  8
0
 10
68.512306
 20
104.262970
 11
68.512306
 21
43.262970
  0
LINE
  8
0
 10
61.012306
 20
71.762970
 11
61.012306
 21
96.762970
  0
LINE
  8
0
 10
61.686867
 20
102.262970
 11
75.337555
 21
102.262970
  0
LINE
  8
0
 10
75.529594
 20
96.762970
 11
75.337524
 21
102.262962
  0
LINE
  8
0
 10
61.494793
 20
96.762962
 11
61.686859
 21
102.262962
  0
LINE
  8
0
 10
65.612297
 20
65.012970
 11
65.612297
 21
65.812973
  0
LINE
  8
0
 10
72.012306
 20
65.812973
 11
72.012306
 21
66.412964
  0
LINE
  8
0
 10
72.912300
 20
57.612976
 11
72.912300
 21
52.262970
  0
LINE
  8
0
 10
66.112297
 20
57.612976
 11
66.112297
 21
52.262970
  0
LINE
  8
0
 10
73.412300
 20
67.612976
 11
65.612297
 21
67.612976
  0
LINE
  8
0
 10
73.412300
 20
66.412964
 11
65.612297
 21
66.412964
  0
LINE
  8
0
 10
73.512306
 20
58.112976
 11
73.512306
 21
65.012970
  0
LINE
  8
0
 10
72.912300
 20
57.612976
 11
66.112297
 21
57.612976
  0
LINE
  8
0
 10
67.012306
 20
65.812973
 11
67.012306
 21
66.412964
  0
LINE
  8
0
 10
73.512306
 20
65.012970
 11
65.512306
 21
65.012970
  0
LINE
  8
0
 10
73.512306
 20
58.112976
 11
65.512306
 21
58.112976
  0
LINE
  8
0
 10
65.512306
 20
58.112953
 11
66.112305
 21
57.612957
  0
LINE
  8
0
 10
72.912292
 20
57.612984
 11
73.512283
 21
58.112980
  0
LINE
  8
0
 10
73.412300
 20
65.812973
 11
65.612312
 21
65.812973
  0
LINE
  8
0
 10
73.412300
 20
65.012970
 11
73.412300
 21
65.812973
  0
LINE
  8
0
 10
65.512306
 20
58.112976
 11
65.512306
 21
65.012970
  0
LINE
  8
0
 10
65.612297
 20
66.412964
 11
65.612297
 21
67.612976
  0
LINE
  8
0
 10
73.412300
 20
66.412964
 11
73.412300
 21
67.612976
  0
LINE
  8
0
 10
70.912300
 20
69.612976
 11
70.912300
 21
67.612976
  0
LINE
  8
0
 10
64.112297
 20
69.612976
 11
64.112297
 21
64.262970
  0
LINE
  8
0
 10
70.912300
 20
69.612976
 11
64.112297
 21
69.612976
  0
LINE
  8
0
 10
71.512306
 20
70.112976
 11
63.512306
 21
70.112976
  0
LINE
  8
0
 10
70.912292
 20
69.612953
 11
71.512291
 21
70.112953
  0
LINE
  8
0
 10
63.512318
 20
70.112968
 11
64.112328
 21
69.612961
  0
LINE
  8
0
 10
63.512306
 20
70.112976
 11
63.512306
 21
71.762970
  0
LINE
  8
0
 10
71.512306
 20
70.112976
 11
71.512306
 21
71.762970
  0
LINE
  8
0
 10
71.512306
 20
72.762970
 11
71.512306
 21
77.012970
  0
LINE
  8
0
 10
63.512306
 20
72.762970
 11
63.512306
 21
77.012970
  0
LINE
  8
0
 10
71.512306
 20
77.012970
 11
63.512306
 21
77.012970
  0
LINE
  8
0
 10
63.612297
 20
77.012970
 11
63.612297
 21
77.812958
  0
LINE
  8
0
 10
71.412300
 20
77.812973
 11
63.612312
 21
77.812973
  0
LINE
  8
0
 10
71.412300
 20
77.012970
 11
71.412300
 21
77.812958
  0
LINE
  8
0
 10
70.012306
 20
77.812958
 11
70.012306
 21
78.412964
  0
LINE
  8
0
 10
71.412300
 20
78.412964
 11
63.612297
 21
78.412964
  0
LINE
  8
0
 10
65.012306
 20
77.812958
 11
65.012306
 21
78.412964
  0
LINE
  8
0
 10
63.612297
 20
78.412964
 11
63.612297
 21
79.612961
  0
LINE
  8
0
 10
71.412300
 20
79.612961
 11
63.612297
 21
79.612961
  0
LINE
  8
0
 10
71.412300
 20
78.412964
 11
71.412300
 21
79.612961
  0
LINE
  8
0
 10
76.012306
 20
71.762970
 11
76.012306
 21
96.762970
  0
LINE
  8
0
 10
61.012306
 20
96.762970
 11
76.012306
 21
96.762970
  0
LINE
  8
0
 10
63.512306
 20
71.762970
 11
63.512306
 21
72.762970
  0
LINE
  8
0
 10
71.512306
 20
71.762970
 11
71.512306
 21
72.762970
  0
LINE
  8
0
 10
60.512306
 20
71.762970
 11
63.512306
 21
71.762970
  0
LINE
  8
0
 10
71.512306
 20
71.762970
 11
76.512306
 21
71.762970
  0
LINE
  8
0
 10
61.012306
 20
72.762970
 11
63.512306
 21
72.762970
  0
LINE
  8
0
 10
71.512306
 20
72.762970
 11
76.012306
 21
72.762970
  0
ARC
  8
0
 10
69.512306
 20
52.262970
 40
3.399999
 50
252.895355
 51
0.000000
  0
ARC
  8
0
 10
69.512306
 20
52.262970
 40
3.400002
 50
180.000000
 51
252.895355
  0
ARC
  8
0
 10
67.512306
 20
64.262970
 40
3.400002
 50
180.000000
 51
233.967941
  0
TEXT
  8
0
 10
72.476685
 20
68.462967
 40
2.000000
  1
B
 50
0.000000
 41
1.052632
 51
0.000000
  7
STANDARD
  0
TEXT
  8
0
 10
62.476681
 20
46.462971
 40
2.000000
  1
A
 50
0.000000
 41
1.052632
 51
0.000000
  7
STANDARD
  0
POINT
  8
0
 10
-40.487671
 20
139.262970
  0
POINT
  8
0
 10
-60.487671
 20
139.262970
  0
LINE
  8
0
 10
-60.487671
 20
183.263016
 11
-36.487427
 21
183.263016
  0
LINE
  8
0
 10
-60.487671
 20
155.262787
 11
-36.487442
 21
155.262787
  0
LINE
  8
0
 10
-60.487671
 20
147.762741
 11
-36.487671
 21
147.762741
  0
LINE
  8
0
 10
-60.487671
 20
200.263123
 11
-36.487671
 21
200.263123
  0
LINE
  8
0
 10
-60.487671
 20
226.663132
 11
-30.987671
 21
226.663132
  0
LINE
  8
0
 10
-59.987633
 20
228.663132
 11
-37.673080
 21
228.663132
  0
LINE
  8
0
 10
-60.487679
 20
227.663116
 11
-59.987659
 21
228.663147
  0
LINE
  8
0
 10
-36.487671
 20
226.663132
 11
-37.404747
 21
228.497284
  0
LINE
  8
0
 10
-30.987671
 20
226.663132
 11
-30.987671
 21
201.420578
  0
LINE
  8
0
 10
-36.487671
 20
226.663132
 11
-36.487671
 21
147.762741
  0
LINE
  8
0
 10
-75.137909
 20
139.262970
 11
-75.137909
 21
137.762970
  0
LINE
  8
0
 10
-84.987907
 20
128.162964
 11
-84.987907
 21
122.862968
  0
LINE
  8
0
 10
-76.987907
 20
128.162964
 11
-76.987907
 21
126.762970
  0
LINE
  8
0
 10
-87.137909
 20
139.262970
 11
-87.137909
 21
137.762970
  0
LINE
  8
0
 10
-63.137913
 20
138.462982
 11
-63.137913
 21
139.262970
  0
LINE
  8
0
 10
-63.137909
 20
138.462982
 11
-75.137909
 21
138.462982
  0
LINE
  8
0
 10
-81.887909
 20
119.762970
 11
-68.387901
 21
119.762970
  0
LINE
  8
0
 10
-75.287903
 20
127.762970
 11
-68.387909
 21
127.762970
  0
LINE
  8
0
 10
-76.987907
 20
126.662964
 11
-75.287910
 21
126.662964
  0
LINE
  8
0
 10
-75.287910
 20
127.762970
 11
-75.287910
 21
119.762970
  0
LINE
  8
0
 10
-68.387909
 20
127.762970
 11
-68.387909
 21
119.762970
  0
LINE
  8
0
 10
-65.787903
 20
128.662979
 11
-65.787903
 21
118.862976
  0
LINE
  8
0
 10
-66.987907
 20
128.662979
 11
-66.987907
 21
118.862976
  0
LINE
  8
0
 10
-68.387909
 20
126.262970
 11
-66.987900
 21
126.262970
  0
LINE
  8
0
 10
-68.387909
 20
121.262970
 11
-66.987900
 21
121.262970
  0
LINE
  8
0
 10
-66.987900
 20
128.662964
 11
-65.787903
 21
128.662964
  0
LINE
  8
0
 10
-66.987900
 20
118.862976
 11
-65.787903
 21
118.862976
  0
LINE
  8
0
 10
-87.137901
 20
137.762970
 11
-75.137909
 21
137.762970
  0
LINE
  8
0
 10
-75.887909
 20
137.762970
 11
-75.887909
 21
128.162964
  0
LINE
  8
0
 10
-86.087906
 20
137.762970
 11
-86.087906
 21
128.162964
  0
LINE
  8
0
 10
-86.087898
 20
128.162964
 11
-75.887909
 21
128.162964
  0
LINE
  8
0
 10
-56.387924
 20
131.262970
 11
-54.987911
 21
131.262970
  0
LINE
  8
0
 10
-54.987911
 20
138.662979
 11
-53.787914
 21
138.662979
  0
LINE
  8
0
 10
-54.987911
 20
128.862976
 11
-53.787914
 21
128.862976
  0
LINE
  8
0
 10
-72.987907
 20
138.462982
 11
-72.987907
 21
132.862976
  0
LINE
  8
0
 10
-64.987907
 20
138.462982
 11
-64.987907
 21
136.662979
  0
LINE
  8
0
 10
-69.887909
 20
129.762970
 11
-56.387920
 21
129.762970
  0
LINE
  8
0
 10
-63.287907
 20
137.762970
 11
-56.387920
 21
137.762970
  0
LINE
  8
0
 10
-64.987900
 20
136.662979
 11
-63.287910
 21
136.662979
  0
LINE
  8
0
 10
-63.287910
 20
137.762970
 11
-63.287910
 21
129.762970
  0
LINE
  8
0
 10
-56.387924
 20
137.762970
 11
-56.387924
 21
129.762970
  0
LINE
  8
0
 10
-53.787918
 20
138.662979
 11
-53.787918
 21
128.862976
  0
LINE
  8
0
 10
-54.987915
 20
138.662979
 11
-54.987915
 21
128.862976
  0
LINE
  8
0
 10
-56.387924
 20
136.262970
 11
-54.987911
 21
136.262970
  0
LINE
  8
0
 10
-30.987673
 20
201.420547
 11
-36.487671
 21
200.263092
  0
ARC
  8
0
 10
-81.887909
 20
122.862968
 40
3.099998
 50
180.000000
 51
270.000000
  0
ARC
  8
0
 10
-69.887909
 20
132.862976
 40
3.099998
 50
180.000000
 51
270.000000
  0
POINT
  8
0
 10
329.301483
 20
139.262970
  0
POINT
  8
0
 10
345.301483
 20
139.262970
  0
LINE
  8
0
 10
329.301483
 20
237.262970
 11
345.301483
 21
237.262970
  0
LINE
  8
0
 10
329.301483
 20
139.262970
 11
345.301483
 21
139.262970
  0
LINE
  8
0
 10
329.301483
 20
200.262970
 11
345.301483
 21
200.262970
  0
LINE
  8
0
 10
331.801300
 20
202.062973
 11
342.801270
 21
202.062973
  0
LINE
  8
0
 10
331.801300
 20
216.262970
 11
342.801270
 21
216.262970
  0
LINE
  8
0
 10
331.801300
 20
223.762970
 11
342.801300
 21
223.762970
  0
LINE
  8
0
 10
331.801300
 20
223.762970
 11
331.801300
 21
216.262970
  0
LINE
  8
0
 10
342.801270
 20
223.762970
 11
342.801270
 21
216.262970
  0
LINE
  8
0
 10
340.801270
 20
209.262970
 11
340.801270
 21
205.262970
  0
LINE
  8
0
 10
333.801270
 20
209.262970
 11
333.801270
 21
205.262970
  0
LINE
  8
0
 10
331.801300
 20
214.562973
 11
331.801300
 21
202.062973
  0
LINE
  8
0
 10
342.801270
 20
214.562973
 11
342.801270
 21
202.062958
  0
LINE
  8
0
 10
331.801300
 20
214.562973
 11
342.801270
 21
214.562973
  0
LINE
  8
0
 10
333.801270
 20
205.262970
 11
340.801270
 21
205.262970
  0
LINE
  8
0
 10
333.801270
 20
209.262970
 11
340.801270
 21
209.262970
  0
LINE
  8
0
 10
329.301483
 20
226.662964
 11
345.301483
 21
226.662964
  0
LINE
  8
0
 10
331.078674
 20
228.662964
 11
343.523895
 21
228.662964
  0
LINE
  8
0
 10
329.801331
 20
226.662918
 11
330.815857
 21
228.507477
  0
LINE
  8
0
 10
343.786591
 20
228.507416
 11
344.801086
 21
226.662842
  0
LINE
  8
0
 10
336.301300
 20
141.262970
 11
336.301300
 21
126.262970
  0
LINE
  8
0
 10
330.151306
 20
139.262970
 11
330.151306
 21
137.462967
  0
LINE
  8
0
 10
330.151306
 20
137.462967
 11
333.088837
 21
137.462967
  0
LINE
  8
0
 10
342.151306
 20
137.462967
 11
342.151306
 21
139.262970
  0
LINE
  8
0
 10
342.151306
 20
137.762970
 11
344.151306
 21
137.762970
  0
LINE
  8
0
 10
343.401306
 20
137.762970
 11
343.401306
 21
125.462967
  0
LINE
  8
0
 10
333.201294
 20
127.968231
 11
333.201294
 21
125.462967
  0
LINE
  8
0
 10
334.301300
 20
125.462967
 11
334.301300
 21
124.593170
  0
LINE
  8
0
 10
342.301300
 20
125.462967
 11
342.301300
 21
124.593170
  0
LINE
  8
0
 10
338.301300
 20
141.262970
 11
338.301300
 21
114.762970
  0
LINE
  8
0
 10
345.301483
 20
237.262970
 11
345.301483
 21
139.262970
  0
LINE
  8
0
 10
329.301483
 20
155.262970
 11
345.301483
 21
155.262970
  0
LINE
  8
0
 10
329.301483
 20
147.762970
 11
345.301483
 21
147.762970
  0
LINE
  8
0
 10
329.301483
 20
183.262970
 11
345.301483
 21
183.262970
  0
LINE
  8
0
 10
337.301300
 20
239.262970
 11
337.301300
 21
137.762970
  0
LINE
  8
0
 10
334.036133
 20
196.762970
 11
340.615204
 21
196.762970
  0
LINE
  8
0
 10
332.325226
 20
120.762970
 11
344.151306
 21
120.762970
  0
LINE
  8
0
 10
332.301300
 20
137.462967
 11
332.301300
 21
136.593170
  0
LINE
  8
0
 10
340.301300
 20
137.462967
 11
340.301300
 21
136.593170
  0
LINE
  8
0
 10
333.201294
 20
125.462967
 11
335.088837
 21
125.462967
  0
LINE
  8
0
 10
344.151306
 20
139.262970
 11
344.151306
 21
137.762970
  0
LINE
  8
0
 10
343.201294
 20
121.762970
 11
343.201294
 21
119.762970
  0
LINE
  8
0
 10
333.401306
 20
121.762970
 11
333.401306
 21
119.762970
  0
LINE
  8
0
 10
339.513794
 20
137.462967
 11
342.151306
 21
137.462967
  0
LINE
  8
0
 10
331.401306
 20
133.762970
 11
331.401306
 21
131.762970
  0
LINE
  8
0
 10
341.201294
 20
133.762970
 11
341.201294
 21
131.762970
  0
LINE
  8
0
 10
341.513794
 20
125.462967
 11
343.401306
 21
125.462967
  0
LINE
  8
0
 10
330.388275
 20
132.762970
 11
342.214355
 21
132.762970
  0
CIRCLE
  8
0
 10
336.301331
 20
132.762970
 40
3.000000
  0
ARC
  8
0
 10
336.301300
 20
131.762970
 40
4.899994
 50
180.000000
 51
0.000000
  0
CIRCLE
  8
0
 10
337.301300
 20
196.762970
 40
1.500000
  0
CIRCLE
  8
0
 10
338.301331
 20
120.762970
 40
3.000000
  0
ARC
  8
0
 10
338.301300
 20
121.762970
 40
4.899994
 50
0.000000
 51
180.000000
  0
ARC
  8
0
 10
338.301300
 20
119.762970
 40
4.899994
 50
180.000000
 51
0.000000
  0
ARC
  8
0
 10
336.301300
 20
133.762970
 40
4.899994
 50
0.000000
 51
180.000000
  0
POINT
  8
0
 10
329.301483
 20
68.762970
  0
POINT
  8
0
 10
345.301483
 20
68.762970
  0
LINE
  8
0
 10
345.301483
 20
69.762970
 11
341.551483
 21
69.762970
  0
LINE
  8
0
 10
345.301483
 20
41.762970
 11
345.301483
 21
69.762970
  0
LINE
  8
0
 10
329.301483
 20
41.762970
 11
345.301483
 21
41.762970
  0
LINE
  8
0
 10
337.301483
 20
101.262970
 11
337.301483
 21
40.262970
  0
LINE
  8
0
 10
329.801483
 20
69.762970
 11
329.801483
 21
93.762970
  0
LINE
  8
0
 10
330.476044
 20
99.262970
 11
344.126740
 21
99.262970
  0
LINE
  8
0
 10
344.318787
 20
93.762962
 11
344.126740
 21
99.262970
  0
LINE
  8
0
 10
330.283966
 20
93.762970
 11
330.476044
 21
99.262970
  0
LINE
  8
0
 10
344.801483
 20
69.762970
 11
344.801483
 21
93.762970
  0
LINE
  8
0
 10
329.801483
 20
93.762970
 11
344.801483
 21
93.762970
  0
LINE
  8
0
 10
343.201477
 20
65.662964
 11
333.401489
 21
65.662964
  0
LINE
  8
0
 10
343.201477
 20
64.462967
 11
333.401489
 21
64.462967
  0
LINE
  8
0
 10
333.401489
 20
64.462967
 11
333.401489
 21
65.662964
  0
LINE
  8
0
 10
343.201477
 20
64.462967
 11
343.201477
 21
65.662964
  0
LINE
  8
0
 10
334.801483
 20
62.812973
 11
334.801483
 21
64.462967
  0
LINE
  8
0
 10
341.801483
 20
62.812973
 11
341.801483
 21
64.462967
  0
LINE
  8
0
 10
333.051483
 20
62.812973
 11
343.551483
 21
62.812973
  0
LINE
  8
0
 10
333.051483
 20
55.612976
 11
343.551483
 21
55.612976
  0
LINE
  8
0
 10
334.351501
 20
55.012970
 11
342.251465
 21
55.012970
  0
LINE
  8
0
 10
343.551483
 20
55.612976
 11
343.551483
 21
56.912964
  0
LINE
  8
0
 10
333.051483
 20
55.612976
 11
333.051483
 21
56.912964
  0
LINE
  8
0
 10
333.051544
 20
55.613052
 11
334.351532
 21
55.013058
  0
LINE
  8
0
 10
342.251404
 20
55.013111
 11
343.551392
 21
55.613106
  0
LINE
  8
0
 10
333.051483
 20
57.912964
 11
333.051483
 21
62.812973
  0
LINE
  8
0
 10
333.051483
 20
56.912964
 11
333.051483
 21
57.912964
  0
LINE
  8
0
 10
343.551483
 20
57.912964
 11
343.551483
 21
62.812973
  0
LINE
  8
0
 10
343.551483
 20
56.912964
 11
343.551483
 21
57.912964
  0
LINE
  8
0
 10
334.351501
 20
52.012970
 11
334.351501
 21
55.012970
  0
LINE
  8
0
 10
342.251465
 20
52.012970
 11
342.251465
 21
55.012970
  0
LINE
  8
0
 10
335.401489
 20
51.012970
 11
341.201477
 21
51.012970
  0
LINE
  8
0
 10
335.401489
 20
49.412964
 11
335.401489
 21
51.012970
  0
LINE
  8
0
 10
341.551483
 20
69.762970
 11
341.551483
 21
74.662964
  0
LINE
  8
0
 10
340.251465
 20
65.662964
 11
340.251465
 21
66.862976
  0
LINE
  8
0
 10
332.351471
 20
63.862976
 11
332.351471
 21
66.862976
  0
LINE
  8
0
 10
341.201477
 20
77.512970
 11
331.401489
 21
77.512970
  0
LINE
  8
0
 10
341.201477
 20
76.312973
 11
331.401489
 21
76.312973
  0
LINE
  8
0
 10
331.401489
 20
76.312973
 11
331.401489
 21
77.512970
  0
LINE
  8
0
 10
341.201477
 20
76.312973
 11
341.201477
 21
77.512970
  0
LINE
  8
0
 10
332.801483
 20
74.662964
 11
332.801483
 21
76.312973
  0
LINE
  8
0
 10
339.801483
 20
74.662964
 11
339.801483
 21
76.312973
  0
LINE
  8
0
 10
331.051483
 20
74.662964
 11
341.551483
 21
74.662964
  0
LINE
  8
0
 10
331.051483
 20
67.462967
 11
341.551483
 21
67.462967
  0
LINE
  8
0
 10
341.551483
 20
67.462967
 11
341.551483
 21
68.762970
  0
LINE
  8
0
 10
331.051483
 20
67.462967
 11
331.051483
 21
68.762970
  0
LINE
  8
0
 10
332.351471
 20
66.862976
 11
340.251465
 21
66.862976
  0
LINE
  8
0
 10
331.051483
 20
67.463013
 11
332.351501
 21
66.863007
  0
LINE
  8
0
 10
340.251434
 20
66.863113
 11
341.551422
 21
67.463112
  0
LINE
  8
0
 10
331.051483
 20
69.762970
 11
331.051483
 21
74.662964
  0
LINE
  8
0
 10
341.201477
 20
51.012970
 11
341.201477
 21
49.412964
  0
LINE
  8
0
 10
329.301483
 20
69.762970
 11
331.051483
 21
69.762970
  0
LINE
  8
0
 10
331.051483
 20
68.762970
 11
331.051483
 21
69.762970
  0
LINE
  8
0
 10
341.551483
 20
68.762970
 11
341.551483
 21
69.762970
  0
LINE
  8
0
 10
333.351471
 20
62.862976
 11
334.801483
 21
62.862976
  0
LINE
  8
0
 10
333.351471
 20
62.862976
 11
333.351471
 21
62.812973
  0
LINE
  8
0
 10
329.301483
 20
68.762970
 11
331.051483
 21
68.762970
  0
LINE
  8
0
 10
341.551483
 20
68.762970
 11
345.301483
 21
68.762970
  0
ARC
  8
0
 10
338.301483
 20
49.412964
 40
2.899994
 50
180.000000
 51
270.000000
  0
ARC
  8
0
 10
335.351501
 20
52.012970
 40
1.000000
 50
180.000000
 51
270.000000
  0
ARC
  8
0
 10
333.351471
 20
63.862976
 40
1.000000
 50
180.000000
 51
270.000000
  0
ARC
  8
0
 10
341.251465
 20
52.012970
 40
1.000000
 50
270.000000
 51
0.000000
  0
ARC
  8
0
 10
338.301483
 20
49.412964
 40
2.900002
 50
270.000000
 51
0.000000
  0
TEXT
  8
0
 10
331.265869
 20
43.462971
 40
2.000000
  1
A
 50
0.000000
 41
1.052632
 51
0.000000
  7
STANDARD
  0
TEXT
  8
0
 10
341.265869
 20
65.962967
 40
2.000000
  1
B
 50
0.000000
 41
1.052632
 51
0.000000
  7
STANDARD
  0
POINT
  8
0
 10
228.301514
 20
139.262970
  0
POINT
  8
0
 10
208.301514
 20
139.262970
  0
LINE
  8
0
 10
208.301514
 20
183.263016
 11
232.301758
 21
183.263016
  0
LINE
  8
0
 10
208.301514
 20
155.262787
 11
232.301743
 21
155.262787
  0
LINE
  8
0
 10
208.301514
 20
147.762741
 11
232.301514
 21
147.762741
  0
LINE
  8
0
 10
208.301514
 20
200.263123
 11
232.301514
 21
200.263123
  0
LINE
  8
0
 10
232.801529
 20
200.763229
 11
237.801514
 21
200.937836
  0
LINE
  8
0
 10
208.301514
 20
226.663132
 11
237.801514
 21
226.663132
  0
LINE
  8
0
 10
208.801529
 20
228.663132
 11
231.116104
 21
228.663132
  0
LINE
  8
0
 10
208.301498
 20
227.663116
 11
208.801514
 21
228.663147
  0
LINE
  8
0
 10
232.301514
 20
226.663132
 11
231.384430
 21
228.497284
  0
LINE
  8
0
 10
237.801514
 20
226.663132
 11
237.801514
 21
200.937820
  0
LINE
  8
0
 10
232.301514
 20
226.663132
 11
232.301514
 21
147.762741
  0
LINE
  8
0
 10
216.051270
 20
138.662979
 11
216.051270
 21
126.862976
  0
LINE
  8
0
 10
214.851273
 20
138.662979
 11
214.851273
 21
126.862976
  0
LINE
  8
0
 10
214.851273
 20
126.862976
 11
216.051270
 21
126.862976
  0
LINE
  8
0
 10
214.851273
 20
138.662979
 11
216.051270
 21
138.662979
  0
LINE
  8
0
 10
201.051270
 20
117.262970
 11
202.851288
 21
117.262970
  0
LINE
  8
0
 10
201.051270
 20
124.262970
 11
202.851288
 21
124.262970
  0
LINE
  8
0
 10
201.051270
 20
126.012970
 11
201.051270
 21
115.512970
  0
LINE
  8
0
 10
193.851288
 20
126.012970
 11
201.051285
 21
126.012970
  0
LINE
  8
0
 10
186.801270
 20
115.512970
 11
201.051285
 21
115.512970
  0
LINE
  8
0
 10
193.851273
 20
126.012970
 11
193.851273
 21
115.512970
  0
LINE
  8
0
 10
193.851273
 20
124.712967
 11
191.801285
 21
124.712967
  0
LINE
  8
0
 10
204.051270
 20
126.662964
 11
204.051270
 21
114.862976
  0
LINE
  8
0
 10
202.851288
 20
114.862976
 11
204.051285
 21
114.862976
  0
LINE
  8
0
 10
202.851288
 20
126.662964
 11
204.051285
 21
126.662964
  0
LINE
  8
0
 10
202.851273
 20
126.662964
 11
202.851273
 21
114.862976
  0
LINE
  8
0
 10
205.851288
 20
138.012970
 11
213.051270
 21
138.012970
  0
LINE
  8
0
 10
213.051270
 20
129.262970
 11
214.851273
 21
129.262970
  0
LINE
  8
0
 10
213.051270
 20
136.262970
 11
214.851273
 21
136.262970
  0
LINE
  8
0
 10
213.051270
 20
138.012970
 11
213.051270
 21
127.512970
  0
LINE
  8
0
 10
198.801270
 20
127.512970
 11
213.051270
 21
127.512970
  0
LINE
  8
0
 10
205.851273
 20
138.012970
 11
205.851273
 21
127.512970
  0
LINE
  8
0
 10
205.851273
 20
136.712967
 11
203.801270
 21
136.712967
  0
LINE
  8
0
 10
205.651276
 20
138.462982
 11
205.651276
 21
139.262970
  0
LINE
  8
0
 10
205.651276
 20
138.462982
 11
193.651276
 21
138.462982
  0
LINE
  8
0
 10
203.801270
 20
138.462982
 11
203.801270
 21
136.712967
  0
LINE
  8
0
 10
195.801270
 20
138.462982
 11
195.801270
 21
130.512970
  0
LINE
  8
0
 10
181.651276
 20
137.762970
 11
193.651276
 21
137.762970
  0
LINE
  8
0
 10
193.651276
 20
139.262970
 11
193.651276
 21
137.762970
  0
LINE
  8
0
 10
192.901276
 20
137.762970
 11
192.901276
 21
125.762970
  0
LINE
  8
0
 10
182.701294
 20
125.762970
 11
192.901276
 21
125.762970
  0
LINE
  8
0
 10
183.801270
 20
125.762970
 11
183.801270
 21
118.512970
  0
LINE
  8
0
 10
182.701279
 20
137.762970
 11
182.701279
 21
125.762970
  0
LINE
  8
0
 10
181.651276
 20
139.262970
 11
181.651276
 21
137.762970
  0
LINE
  8
0
 10
191.801285
 20
125.762970
 11
191.801285
 21
124.712967
  0
ARC
  8
0
 10
186.801270
 20
118.512970
 40
3.000000
 50
180.000000
 51
270.000000
  0
ARC
  8
0
 10
198.801270
 20
130.512970
 40
3.000000
 50
180.000000
 51
270.000305
  0
POINT
  8
0
 10
-211.196594
 20
-121.296021
  0
POINT
  8
0
 10
-179.196594
 20
-121.296021
  0
LINE
  8
0
 10
-187.196777
 20
-21.296021
 11
-187.196777
 21
-127.985443
  0
LINE
  8
0
 10
-179.196594
 20
-23.296021
 11
-179.196594
 21
-121.296021
  0
LINE
  8
0
 10
-203.196777
 20
-21.296021
 11
-203.196777
 21
-128.165466
  0
LINE
  8
0
 10
-195.196594
 20
-23.296021
 11
-195.196594
 21
-77.296021
  0
LINE
  8
0
 10
-211.196594
 20
-23.296021
 11
-179.196594
 21
-23.296021
  0
LINE
  8
0
 10
-211.196594
 20
-105.296021
 11
-179.196594
 21
-105.296021
  0
LINE
  8
0
 10
-211.196594
 20
-112.796021
 11
-179.196594
 21
-112.796021
  0
LINE
  8
0
 10
-211.196594
 20
-77.296021
 11
-179.196594
 21
-77.296021
  0
LINE
  8
0
 10
-206.461761
 20
-63.796021
 11
-199.882706
 21
-63.796021
  0
LINE
  8
0
 10
-190.014099
 20
-63.796021
 11
-184.579224
 21
-63.796021
  0
LINE
  8
0
 10
-211.196594
 20
-60.296021
 11
-179.196594
 21
-60.296021
  0
LINE
  8
0
 10
-208.696609
 20
-58.496017
 11
-197.696625
 21
-58.496017
  0
LINE
  8
0
 10
-208.696609
 20
-44.296021
 11
-197.696625
 21
-44.296021
  0
LINE
  8
0
 10
-208.696594
 20
-36.796021
 11
-197.696609
 21
-36.796021
  0
LINE
  8
0
 10
-208.696609
 20
-36.796021
 11
-208.696609
 21
-44.296021
  0
LINE
  8
0
 10
-197.696625
 20
-36.796021
 11
-197.696625
 21
-44.296021
  0
LINE
  8
0
 10
-199.696625
 20
-51.296021
 11
-199.696625
 21
-55.296021
  0
LINE
  8
0
 10
-206.696625
 20
-51.296021
 11
-206.696625
 21
-55.296021
  0
LINE
  8
0
 10
-208.696609
 20
-45.996017
 11
-208.696609
 21
-58.496017
  0
LINE
  8
0
 10
-197.696625
 20
-45.996017
 11
-197.696625
 21
-58.496033
  0
LINE
  8
0
 10
-208.696609
 20
-45.996017
 11
-197.696625
 21
-45.996017
  0
LINE
  8
0
 10
-206.696625
 20
-55.296021
 11
-199.696625
 21
-55.296021
  0
LINE
  8
0
 10
-206.696625
 20
-51.296021
 11
-199.696625
 21
-51.296021
  0
LINE
  8
0
 10
-211.196594
 20
-33.896027
 11
-179.196594
 21
-33.896027
  0
LINE
  8
0
 10
-209.596527
 20
-31.896027
 11
-196.796692
 21
-31.896027
  0
LINE
  8
0
 10
-210.696518
 20
-33.896057
 11
-209.596512
 21
-31.896042
  0
LINE
  8
0
 10
-196.796738
 20
-31.896057
 11
-195.696716
 21
-33.896080
  0
LINE
  8
0
 10
-192.696609
 20
-58.496017
 11
-181.696625
 21
-58.496017
  0
LINE
  8
0
 10
-192.696609
 20
-44.296021
 11
-181.696625
 21
-44.296021
  0
LINE
  8
0
 10
-192.696609
 20
-36.796021
 11
-181.696609
 21
-36.796021
  0
LINE
  8
0
 10
-192.696609
 20
-36.796021
 11
-192.696609
 21
-44.296021
  0
LINE
  8
0
 10
-181.696625
 20
-36.796021
 11
-181.696625
 21
-44.296021
  0
LINE
  8
0
 10
-183.696625
 20
-51.296021
 11
-183.696625
 21
-55.296021
  0
LINE
  8
0
 10
-190.696625
 20
-51.296021
 11
-190.696625
 21
-55.296021
  0
LINE
  8
0
 10
-192.696609
 20
-45.996017
 11
-192.696609
 21
-58.496017
  0
LINE
  8
0
 10
-181.696625
 20
-45.996017
 11
-181.696625
 21
-58.496033
  0
LINE
  8
0
 10
-192.696609
 20
-45.996017
 11
-181.696625
 21
-45.996017
  0
LINE
  8
0
 10
-190.696625
 20
-55.296021
 11
-183.696625
 21
-55.296021
  0
LINE
  8
0
 10
-190.696625
 20
-51.296021
 11
-183.696625
 21
-51.296021
  0
LINE
  8
0
 10
-193.596558
 20
-31.896027
 11
-180.796707
 21
-31.896027
  0
LINE
  8
0
 10
-194.696564
 20
-33.896042
 11
-193.596558
 21
-31.896034
  0
LINE
  8
0
 10
-180.796738
 20
-31.896057
 11
-179.696716
 21
-33.896080
  0
LINE
  8
0
 10
-197.296768
 20
-123.496017
 11
-197.296768
 21
-124.696014
  0
LINE
  8
0
 10
-197.096771
 20
-121.296021
 11
-197.096771
 21
-122.196030
  0
LINE
  8
0
 10
-198.696777
 20
-122.196030
 11
-198.696777
 21
-123.496017
  0
LINE
  8
0
 10
-197.096771
 20
-122.196030
 11
-209.296783
 21
-122.196030
  0
LINE
  8
0
 10
-207.696777
 20
-122.196030
 11
-207.696777
 21
-123.496017
  0
LINE
  8
0
 10
-200.696777
 20
-122.196030
 11
-200.696777
 21
-123.496017
  0
LINE
  8
0
 10
-197.296768
 20
-124.696014
 11
-209.096771
 21
-124.696014
  0
LINE
  8
0
 10
-197.296768
 20
-123.496017
 11
-209.096771
 21
-123.496017
  0
LINE
  8
0
 10
-209.296783
 20
-121.296021
 11
-209.296783
 21
-122.196030
  0
LINE
  8
0
 10
-209.096771
 20
-123.496017
 11
-209.096771
 21
-124.696014
  0
LINE
  8
0
 10
-199.296768
 20
-123.496017
 11
-199.296768
 21
-124.696014
  0
LINE
  8
0
 10
-181.296768
 20
-123.496017
 11
-181.296768
 21
-124.696014
  0
LINE
  8
0
 10
-181.096771
 20
-121.296021
 11
-181.096771
 21
-122.196030
  0
LINE
  8
0
 10
-182.696777
 20
-122.196030
 11
-182.696777
 21
-123.496017
  0
LINE
  8
0
 10
-181.096771
 20
-122.196030
 11
-193.296783
 21
-122.196030
  0
LINE
  8
0
 10
-191.696777
 20
-122.196030
 11
-191.696777
 21
-123.496017
  0
LINE
  8
0
 10
-184.696777
 20
-122.196030
 11
-184.696777
 21
-123.496017
  0
LINE
  8
0
 10
-181.296768
 20
-124.696014
 11
-193.096771
 21
-124.696014
  0
LINE
  8
0
 10
-181.296768
 20
-123.496017
 11
-193.096771
 21
-123.496017
  0
LINE
  8
0
 10
-193.096771
 20
-123.496017
 11
-193.096771
 21
-124.696014
  0
LINE
  8
0
 10
-183.296768
 20
-123.496017
 11
-183.296768
 21
-124.696014
  0
LINE
  8
0
 10
-211.196594
 20
-121.296021
 11
-179.196594
 21
-121.296021
  0
LINE
  8
0
 10
-195.196594
 20
-112.796021
 11
-195.196594
 21
-121.296021
  0
LINE
  8
0
 10
-199.096771
 20
-121.296021
 11
-199.096771
 21
-122.196030
  0
LINE
  8
0
 10
-193.296783
 20
-121.296021
 11
-193.296783
 21
-122.196030
  0
LINE
  8
0
 10
-183.096771
 20
-121.296021
 11
-183.096771
 21
-122.196030
  0
CIRCLE
  8
0
 10
-187.196594
 20
-63.796021
 40
1.500000
  0
CIRCLE
  8
0
 10
-203.196594
 20
-63.796021
 40
1.500000
  0
POINT
  8
0
 10
-211.196594
 20
-194.796005
  0
POINT
  8
0
 10
-179.196594
 20
-194.796005
  0
LINE
  8
0
 10
-179.196594
 20
-221.796005
 11
-179.196594
 21
-194.796005
  0
LINE
  8
0
 10
-187.196594
 20
-162.296005
 11
-187.196594
 21
-223.296005
  0
LINE
  8
0
 10
-195.196594
 20
-221.796005
 11
-195.196594
 21
-194.796005
  0
LINE
  8
0
 10
-211.196594
 20
-221.796005
 11
-179.196594
 21
-221.796005
  0
LINE
  8
0
 10
-203.196594
 20
-162.296005
 11
-203.196594
 21
-223.296005
  0
LINE
  8
0
 10
-179.696594
 20
-169.796005
 11
-210.696594
 21
-169.796005
  0
LINE
  8
0
 10
-210.696594
 20
-194.796005
 11
-210.696594
 21
-169.796005
  0
LINE
  8
0
 10
-210.022003
 20
-164.296005
 11
-196.371292
 21
-164.296005
  0
LINE
  8
0
 10
-196.179260
 20
-169.796005
 11
-196.371323
 21
-164.296021
  0
LINE
  8
0
 10
-210.214081
 20
-169.796005
 11
-210.022018
 21
-164.296005
  0
LINE
  8
0
 10
-179.696594
 20
-194.796005
 11
-179.696594
 21
-169.796005
  0
LINE
  8
0
 10
-194.022064
 20
-164.296005
 11
-180.371338
 21
-164.296005
  0
LINE
  8
0
 10
-180.179306
 20
-169.796005
 11
-180.371368
 21
-164.296005
  0
LINE
  8
0
 10
-194.214142
 20
-169.796005
 11
-194.022064
 21
-164.296005
  0
LINE
  8
0
 10
-207.096588
 20
-212.881790
 11
-207.096588
 21
-215.296005
  0
LINE
  8
0
 10
-209.096588
 20
-201.296005
 11
-209.096588
 21
-203.296005
  0
LINE
  8
0
 10
-199.296600
 20
-201.296005
 11
-199.296600
 21
-203.296005
  0
LINE
  8
0
 10
-197.296600
 20
-213.296005
 11
-197.296600
 21
-215.296005
  0
LINE
  8
0
 10
-191.096603
 20
-212.881790
 11
-191.096603
 21
-215.296005
  0
LINE
  8
0
 10
-193.096603
 20
-201.296005
 11
-193.096603
 21
-203.296005
  0
LINE
  8
0
 10
-183.296600
 20
-201.296005
 11
-183.296600
 21
-203.296005
  0
LINE
  8
0
 10
-181.296600
 20
-213.296005
 11
-181.296600
 21
-215.296005
  0
LINE
  8
0
 10
-179.696594
 20
-193.796005
 11
-210.696594
 21
-193.796005
  0
LINE
  8
0
 10
-204.196594
 20
-194.796005
 11
-204.196594
 21
-209.796005
  0
LINE
  8
0
 10
-202.196594
 20
-206.796005
 11
-202.196594
 21
-221.796005
  0
LINE
  8
0
 10
-186.196594
 20
-206.796005
 11
-186.196594
 21
-221.796005
  0
LINE
  8
0
 10
-188.196594
 20
-194.796005
 11
-188.196594
 21
-209.796005
  0
LINE
  8
0
 10
-210.196594
 20
-202.296005
 11
-198.196594
 21
-202.296005
  0
LINE
  8
0
 10
-194.196594
 20
-202.296005
 11
-182.196594
 21
-202.296005
  0
LINE
  8
0
 10
-192.196594
 20
-214.296005
 11
-180.196594
 21
-214.296005
  0
LINE
  8
0
 10
-208.196594
 20
-214.296005
 11
-196.196594
 21
-214.296005
  0
LINE
  8
0
 10
-211.196594
 20
-194.796005
 11
-179.196594
 21
-194.796005
  0
ARC
  8
0
 10
-204.196594
 20
-203.296005
 40
4.899994
 50
180.000000
 51
0.000000
  0
ARC
  8
0
 10
-204.196594
 20
-201.296005
 40
4.899994
 50
0.000000
 51
180.000000
  0
ARC
  8
0
 10
-202.196594
 20
-215.296005
 40
4.899994
 50
180.000000
 51
0.000000
  0
ARC
  8
0
 10
-202.196594
 20
-213.296005
 40
4.899994
 50
0.000000
 51
180.000000
  0
CIRCLE
  8
0
 10
-202.196594
 20
-214.296005
 40
3.000000
  0
CIRCLE
  8
0
 10
-204.196594
 20
-202.296005
 40
3.000000
  0
ARC
  8
0
 10
-188.196594
 20
-203.296005
 40
4.899994
 50
180.000000
 51
0.000000
  0
ARC
  8
0
 10
-188.196594
 20
-201.296005
 40
4.899994
 50
0.000000
 51
180.000000
  0
ARC
  8
0
 10
-186.196594
 20
-215.296005
 40
4.899994
 50
180.000000
 51
0.000000
  0
ARC
  8
0
 10
-186.196594
 20
-213.296005
 40
4.899994
 50
0.000000
 51
180.000000
  0
CIRCLE
  8
0
 10
-186.196594
 20
-214.296005
 40
3.000000
  0
CIRCLE
  8
0
 10
-188.196594
 20
-202.296005
 40
3.000000
  0
TEXT
  8
0
 10
-199.232224
 20
-198.096008
 40
2.000000
  1
B
 50
0.000000
 41
1.052632
 51
0.000000
  7
STANDARD
  0
TEXT
  8
0
 10
-209.232224
 20
-220.096008
 40
2.000000
  1
A
 50
0.000000
 41
1.052632
 51
0.000000
  7
STANDARD
  0
TEXT
  8
0
 10
-183.232224
 20
-198.096008
 40
2.000000
  1
B
 50
0.000000
 41
1.052632
 51
0.000000
  7
STANDARD
  0
TEXT
  8
0
 10
-193.232224
 20
-220.096008
 40
2.000000
  1
A
 50
0.000000
 41
1.052632
 51
0.000000
  7
STANDARD
  0
POINT
  8
0
 10
-300.196564
 20
-121.295990
  0
POINT
  8
0
 10
-320.196564
 20
-121.295990
  0
LINE
  8
0
 10
-320.196564
 20
-77.295944
 11
-296.196564
 21
-77.295944
  0
LINE
  8
0
 10
-296.196564
 20
-33.895828
 11
-296.196564
 21
-112.796219
  0
LINE
  8
0
 10
-320.196564
 20
-105.296173
 11
-296.196594
 21
-105.296173
  0
LINE
  8
0
 10
-320.196564
 20
-112.796219
 11
-296.196564
 21
-112.796219
  0
LINE
  8
0
 10
-320.196564
 20
-60.295837
 11
-296.196808
 21
-60.295837
  0
LINE
  8
0
 10
-296.196564
 20
-59.813229
 11
-290.696808
 21
-59.621174
  0
LINE
  8
0
 10
-320.196564
 20
-33.895828
 11
-290.696808
 21
-33.895828
  0
LINE
  8
0
 10
-319.696747
 20
-31.895828
 11
-297.196777
 21
-31.895828
  0
LINE
  8
0
 10
-320.196564
 20
-32.895386
 11
-319.696777
 21
-31.895805
  0
LINE
  8
0
 10
-296.196808
 20
-33.895813
 11
-297.196777
 21
-31.895828
  0
LINE
  8
0
 10
-290.696808
 20
-33.895828
 11
-290.696808
 21
-59.621189
  0
LINE
  8
0
 10
-322.797058
 20
-124.695984
 11
-346.597046
 21
-124.695984
  0
LINE
  8
0
 10
-322.797058
 20
-123.495987
 11
-346.597046
 21
-123.495987
  0
LINE
  8
0
 10
-345.797058
 20
-121.295990
 11
-345.797058
 21
-122.195999
  0
LINE
  8
0
 10
-335.597046
 20
-121.295990
 11
-335.597046
 21
-122.195999
  0
LINE
  8
0
 10
-346.597046
 20
-123.495987
 11
-346.597046
 21
-124.695984
  0
LINE
  8
0
 10
-344.197052
 20
-122.195999
 11
-344.197052
 21
-123.495987
  0
LINE
  8
0
 10
-337.197052
 20
-122.195999
 11
-337.197052
 21
-123.495987
  0
LINE
  8
0
 10
-335.597046
 20
-122.195999
 11
-345.797058
 21
-122.195999
  0
LINE
  8
0
 10
-322.797058
 20
-123.495987
 11
-322.797058
 21
-124.695984
  0
LINE
  8
0
 10
-323.597046
 20
-122.195999
 11
-333.797058
 21
-122.195999
  0
LINE
  8
0
 10
-332.197052
 20
-122.195999
 11
-332.197052
 21
-123.495987
  0
LINE
  8
0
 10
-325.197052
 20
-122.195999
 11
-325.197052
 21
-123.495987
  0
LINE
  8
0
 10
-333.797058
 20
-121.295990
 11
-333.797058
 21
-122.195999
  0
LINE
  8
0
 10
-323.597046
 20
-121.295990
 11
-323.597046
 21
-122.195999
  0
LINE
  8
0
 10
-334.697052
 20
-123.495987
 11
-334.697052
 21
-124.695984
  0
POINT
  8
0
 10
48.512306
 20
-121.296021
  0
POINT
  8
0
 10
80.512306
 20
-121.296021
  0
LINE
  8
0
 10
65.362129
 20
-121.296021
 11
65.362129
 21
-123.096024
  0
LINE
  8
0
 10
67.612129
 20
-127.796021
 11
67.612129
 21
-125.796021
  0
LINE
  8
0
 10
75.412132
 20
-127.796021
 11
75.412132
 21
-125.796021
  0
LINE
  8
0
 10
65.362129
 20
-123.096024
 11
68.697884
 21
-123.096024
  0
LINE
  8
0
 10
69.512123
 20
-132.796021
 11
69.512123
 21
-133.795975
  0
LINE
  8
0
 10
77.512123
 20
-132.796021
 11
77.512123
 21
-133.796021
  0
LINE
  8
0
 10
69.512138
 20
-133.796021
 11
70.163994
 21
-133.796021
  0
LINE
  8
0
 10
77.362129
 20
-123.096024
 11
77.362129
 21
-121.296021
  0
LINE
  8
0
 10
77.362129
 20
-122.796021
 11
79.362129
 21
-122.796021
  0
LINE
  8
0
 10
68.412132
 20
-132.796021
 11
71.020134
 21
-132.796021
  0
LINE
  8
0
 10
78.612129
 20
-122.796021
 11
78.612129
 21
-132.796021
  0
LINE
  8
0
 10
68.412132
 20
-130.162445
 11
68.412132
 21
-132.796021
  0
LINE
  8
0
 10
67.512123
 20
-123.096024
 11
67.512123
 21
-124.096024
  0
LINE
  8
0
 10
75.512123
 20
-123.096024
 11
75.512123
 21
-124.096024
  0
LINE
  8
0
 10
67.512138
 20
-124.096024
 11
68.002144
 21
-124.096024
  0
LINE
  8
0
 10
79.362129
 20
-121.296021
 11
79.362129
 21
-122.796021
  0
LINE
  8
0
 10
69.612129
 20
-137.796021
 11
69.612129
 21
-135.796021
  0
LINE
  8
0
 10
77.412132
 20
-137.796021
 11
77.412132
 21
-135.796021
  0
LINE
  8
0
 10
75.022118
 20
-124.096024
 11
75.512138
 21
-124.096024
  0
LINE
  8
0
 10
74.326393
 20
-123.096024
 11
77.362129
 21
-123.096024
  0
LINE
  8
0
 10
76.860268
 20
-133.796021
 11
77.512138
 21
-133.796021
  0
LINE
  8
0
 10
76.004112
 20
-132.796021
 11
78.612129
 21
-132.796021
  0
LINE
  8
0
 10
80.512306
 20
-23.296021
 11
80.512306
 21
-121.296021
  0
LINE
  8
0
 10
72.512123
 20
-21.296021
 11
72.512123
 21
-122.796021
  0
LINE
  8
0
 10
48.512306
 20
-23.296021
 11
80.512306
 21
-23.296021
  0
LINE
  8
0
 10
48.512306
 20
-121.296021
 11
80.512306
 21
-121.296021
  0
LINE
  8
0
 10
49.362129
 20
-121.296021
 11
49.362129
 21
-123.096024
  0
LINE
  8
0
 10
51.612129
 20
-127.796021
 11
51.612129
 21
-125.796021
  0
LINE
  8
0
 10
59.412148
 20
-127.796021
 11
59.412148
 21
-125.796021
  0
LINE
  8
0
 10
49.362129
 20
-123.096024
 11
52.697884
 21
-123.096024
  0
LINE
  8
0
 10
53.512123
 20
-132.796021
 11
53.512123
 21
-133.795975
  0
LINE
  8
0
 10
61.512123
 20
-132.796021
 11
61.512123
 21
-133.796021
  0
LINE
  8
0
 10
53.512138
 20
-133.796021
 11
54.163994
 21
-133.796021
  0
LINE
  8
0
 10
61.362129
 20
-123.096024
 11
61.362129
 21
-121.296021
  0
LINE
  8
0
 10
61.362129
 20
-122.796021
 11
63.362129
 21
-122.796021
  0
LINE
  8
0
 10
52.412132
 20
-132.796021
 11
55.020149
 21
-132.796021
  0
LINE
  8
0
 10
62.612129
 20
-122.796021
 11
62.612129
 21
-132.796021
  0
LINE
  8
0
 10
52.412132
 20
-130.162445
 11
52.412132
 21
-132.796021
  0
LINE
  8
0
 10
51.512123
 20
-123.096024
 11
51.512123
 21
-124.096024
  0
LINE
  8
0
 10
59.512123
 20
-123.096024
 11
59.512123
 21
-124.096024
  0
LINE
  8
0
 10
51.512138
 20
-124.096024
 11
52.002144
 21
-124.096024
  0
LINE
  8
0
 10
63.362129
 20
-121.296021
 11
63.362129
 21
-122.796021
  0
LINE
  8
0
 10
53.612129
 20
-137.796021
 11
53.612129
 21
-135.796021
  0
LINE
  8
0
 10
61.412132
 20
-137.796021
 11
61.412132
 21
-135.796021
  0
LINE
  8
0
 10
59.022133
 20
-124.096024
 11
59.512138
 21
-124.096024
  0
LINE
  8
0
 10
58.326393
 20
-123.096024
 11
61.362129
 21
-123.096024
  0
LINE
  8
0
 10
60.860268
 20
-133.796021
 11
61.512138
 21
-133.796021
  0
LINE
  8
0
 10
60.004128
 20
-132.796021
 11
62.612129
 21
-132.796021
  0
LINE
  8
0
 10
64.512306
 20
-23.296021
 11
64.512306
 21
-77.296021
  0
LINE
  8
0
 10
56.512123
 20
-21.296021
 11
56.512123
 21
-122.796021
  0
LINE
  8
0
 10
48.512306
 20
-105.296021
 11
80.512306
 21
-105.296021
  0
LINE
  8
0
 10
48.512306
 20
-112.796021
 11
80.512306
 21
-112.796021
  0
LINE
  8
0
 10
48.512306
 20
-77.296021
 11
80.512306
 21
-77.296021
  0
LINE
  8
0
 10
53.246956
 20
-63.796021
 11
59.826027
 21
-63.796021
  0
LINE
  8
0
 10
69.694618
 20
-63.796021
 11
75.129494
 21
-63.796021
  0
LINE
  8
0
 10
48.512306
 20
-60.296021
 11
80.512306
 21
-60.296021
  0
LINE
  8
0
 10
51.012123
 20
-58.496017
 11
62.012108
 21
-58.496017
  0
LINE
  8
0
 10
51.012123
 20
-44.296021
 11
62.012108
 21
-44.296021
  0
LINE
  8
0
 10
51.012123
 20
-36.796021
 11
62.012123
 21
-36.796021
  0
LINE
  8
0
 10
51.012123
 20
-36.796021
 11
51.012123
 21
-44.296021
  0
LINE
  8
0
 10
62.012108
 20
-36.796021
 11
62.012108
 21
-44.296021
  0
LINE
  8
0
 10
60.012108
 20
-51.296021
 11
60.012108
 21
-55.296021
  0
LINE
  8
0
 10
53.012108
 20
-51.296021
 11
53.012108
 21
-55.296021
  0
LINE
  8
0
 10
51.012123
 20
-45.996017
 11
51.012123
 21
-58.496017
  0
LINE
  8
0
 10
62.012108
 20
-45.996017
 11
62.012108
 21
-58.496033
  0
LINE
  8
0
 10
51.012123
 20
-45.996017
 11
62.012108
 21
-45.996017
  0
LINE
  8
0
 10
53.012108
 20
-55.296021
 11
60.012108
 21
-55.296021
  0
LINE
  8
0
 10
53.012108
 20
-51.296021
 11
60.012108
 21
-51.296021
  0
LINE
  8
0
 10
48.512306
 20
-33.896027
 11
80.512306
 21
-33.896027
  0
LINE
  8
0
 10
50.112190
 20
-31.896027
 11
62.912029
 21
-31.896027
  0
LINE
  8
0
 10
49.012177
 20
-33.896072
 11
50.112194
 21
-31.896042
  0
LINE
  8
0
 10
62.912010
 20
-31.896049
 11
64.012016
 21
-33.896065
  0
LINE
  8
0
 10
67.012108
 20
-58.496017
 11
78.012108
 21
-58.496017
  0
LINE
  8
0
 10
67.012108
 20
-44.296021
 11
78.012108
 21
-44.296021
  0
LINE
  8
0
 10
67.012123
 20
-36.796021
 11
78.012108
 21
-36.796021
  0
LINE
  8
0
 10
67.012108
 20
-36.796021
 11
67.012108
 21
-44.296021
  0
LINE
  8
0
 10
78.012108
 20
-36.796021
 11
78.012108
 21
-44.296021
  0
LINE
  8
0
 10
76.012108
 20
-51.296021
 11
76.012108
 21
-55.296021
  0
LINE
  8
0
 10
69.012108
 20
-51.296021
 11
69.012108
 21
-55.296021
  0
LINE
  8
0
 10
67.012108
 20
-45.996017
 11
67.012108
 21
-58.496017
  0
LINE
  8
0
 10
78.012108
 20
-45.996017
 11
78.012108
 21
-58.496033
  0
LINE
  8
0
 10
67.012108
 20
-45.996017
 11
78.012108
 21
-45.996017
  0
LINE
  8
0
 10
69.012108
 20
-55.296021
 11
76.012108
 21
-55.296021
  0
LINE
  8
0
 10
69.012108
 20
-51.296021
 11
76.012108
 21
-51.296021
  0
LINE
  8
0
 10
66.112167
 20
-31.896027
 11
78.911980
 21
-31.896027
  0
LINE
  8
0
 10
65.012169
 20
-33.896042
 11
66.112167
 21
-31.896042
  0
LINE
  8
0
 10
78.911942
 20
-31.896057
 11
80.011948
 21
-33.896080
  0
LINE
  8
0
 10
64.512306
 20
-112.796021
 11
64.512306
 21
-121.296021
  0
LINE
  8
0
 10
49.512138
 20
-126.796021
 11
61.512138
 21
-126.796021
  0
LINE
  8
0
 10
65.512138
 20
-126.796021
 11
77.512138
 21
-126.796021
  0
LINE
  8
0
 10
67.512123
 20
-136.796021
 11
79.512123
 21
-136.796021
  0
LINE
  8
0
 10
51.512123
 20
-136.796021
 11
63.512123
 21
-136.796021
  0
LINE
  8
0
 10
57.512123
 20
-130.796021
 11
57.512123
 21
-142.796021
  0
LINE
  8
0
 10
55.512138
 20
-120.796021
 11
55.512138
 21
-132.796021
  0
LINE
  8
0
 10
71.512138
 20
-120.796021
 11
71.512138
 21
-132.796021
  0
LINE
  8
0
 10
73.512123
 20
-130.796021
 11
73.512123
 21
-142.796021
  0
CIRCLE
  8
0
 10
72.512123
 20
-63.796021
 40
1.500000
  0
CIRCLE
  8
0
 10
56.512123
 20
-63.796021
 40
1.500000
  0
ARC
  8
0
 10
73.512123
 20
-137.796021
 40
3.900002
 50
180.000000
 51
0.000000
  0
CIRCLE
  8
0
 10
71.512138
 20
-126.796021
 40
2.000000
  0
ARC
  8
0
 10
71.512138
 20
-125.796021
 40
3.900002
 50
0.000000
 51
180.000000
  0
ARC
  8
0
 10
71.512138
 20
-127.796021
 40
3.900002
 50
180.000000
 51
0.000000
  0
CIRCLE
  8
0
 10
73.512123
 20
-136.796021
 40
2.000000
  0
ARC
  8
0
 10
73.512123
 20
-135.796021
 40
3.900002
 50
0.000000
 51
180.000000
  0
ARC
  8
0
 10
57.512123
 20
-135.796021
 40
3.900002
 50
0.000000
 51
180.000000
  0
CIRCLE
  8
0
 10
57.512123
 20
-136.796021
 40
2.000000
  0
ARC
  8
0
 10
57.512123
 20
-137.796021
 40
3.900002
 50
180.000000
 51
0.000000
  0
CIRCLE
  8
0
 10
55.512138
 20
-126.796021
 40
2.000000
  0
ARC
  8
0
 10
55.512138
 20
-125.796021
 40
3.900002
 50
0.000000
 51
180.000000
  0
ARC
  8
0
 10
55.512138
 20
-127.796021
 40
3.900002
 50
180.000000
 51
0.000000
  0
POINT
  8
0
 10
48.512306
 20
-204.796005
  0
POINT
  8
0
 10
80.512306
 20
-204.796005
  0
LINE
  8
0
 10
80.512306
 20
-231.796005
 11
80.512306
 21
-204.796005
  0
LINE
  8
0
 10
72.512306
 20
-172.296005
 11
72.512306
 21
-233.296005
  0
LINE
  8
0
 10
76.012291
 20
-210.746002
 11
76.012291
 21
-210.146011
  0
LINE
  8
0
 10
76.912300
 20
-218.945999
 11
76.912300
 21
-224.296005
  0
LINE
  8
0
 10
70.112297
 20
-218.945999
 11
70.112297
 21
-224.296005
  0
LINE
  8
0
 10
77.412300
 20
-208.945999
 11
69.612297
 21
-208.945999
  0
LINE
  8
0
 10
77.412300
 20
-210.146011
 11
69.612297
 21
-210.146011
  0
LINE
  8
0
 10
77.512291
 20
-218.445999
 11
77.512291
 21
-210.746002
  0
LINE
  8
0
 10
71.012291
 20
-210.746002
 11
71.012291
 21
-210.146011
  0
LINE
  8
0
 10
76.912300
 20
-218.945999
 11
70.112297
 21
-218.945999
  0
LINE
  8
0
 10
77.512306
 20
-218.445999
 11
69.512306
 21
-218.445999
  0
LINE
  8
0
 10
69.512299
 20
-218.445999
 11
70.112297
 21
-218.945999
  0
LINE
  8
0
 10
76.912270
 20
-218.946014
 11
77.512276
 21
-218.445999
  0
LINE
  8
0
 10
77.512291
 20
-210.746002
 11
69.512291
 21
-210.746002
  0
LINE
  8
0
 10
69.512291
 20
-218.445999
 11
69.512291
 21
-210.746002
  0
LINE
  8
0
 10
69.612297
 20
-210.146011
 11
69.612297
 21
-208.945999
  0
LINE
  8
0
 10
77.412300
 20
-210.146011
 11
77.412300
 21
-208.945999
  0
LINE
  8
0
 10
74.912300
 20
-206.945999
 11
74.912300
 21
-208.945999
  0
LINE
  8
0
 10
68.112297
 20
-206.945999
 11
68.112297
 21
-212.296005
  0
LINE
  8
0
 10
74.912300
 20
-206.945999
 11
68.112297
 21
-206.945999
  0
LINE
  8
0
 10
75.512306
 20
-206.445999
 11
67.512306
 21
-206.445999
  0
LINE
  8
0
 10
74.912262
 20
-206.946014
 11
75.512276
 21
-206.446014
  0
LINE
  8
0
 10
67.512299
 20
-206.445999
 11
68.112312
 21
-206.946014
  0
LINE
  8
0
 10
67.512291
 20
-206.445999
 11
67.512291
 21
-204.796005
  0
LINE
  8
0
 10
75.512291
 20
-206.445999
 11
75.512291
 21
-204.796005
  0
LINE
  8
0
 10
75.512291
 20
-203.796005
 11
75.512291
 21
-198.746002
  0
LINE
  8
0
 10
67.512291
 20
-203.796005
 11
67.512291
 21
-198.746002
  0
LINE
  8
0
 10
75.512291
 20
-198.746002
 11
67.512291
 21
-198.746002
  0
LINE
  8
0
 10
74.012291
 20
-198.746017
 11
74.012291
 21
-198.146011
  0
LINE
  8
0
 10
75.412300
 20
-198.146011
 11
67.612297
 21
-198.146011
  0
LINE
  8
0
 10
69.012291
 20
-198.746017
 11
69.012291
 21
-198.146011
  0
LINE
  8
0
 10
67.612297
 20
-198.146011
 11
67.612297
 21
-196.946014
  0
LINE
  8
0
 10
75.412300
 20
-196.946014
 11
67.612297
 21
-196.946014
  0
LINE
  8
0
 10
75.412300
 20
-198.146011
 11
75.412300
 21
-196.946014
  0
LINE
  8
0
 10
64.512306
 20
-231.796005
 11
64.512306
 21
-204.796005
  0
LINE
  8
0
 10
48.512306
 20
-231.796005
 11
80.512306
 21
-231.796005
  0
LINE
  8
0
 10
56.512306
 20
-172.296005
 11
56.512306
 21
-233.296005
  0
LINE
  8
0
 10
60.012306
 20
-210.746002
 11
60.012306
 21
-210.146011
  0
LINE
  8
0
 10
60.912300
 20
-218.945999
 11
60.912300
 21
-224.296005
  0
LINE
  8
0
 10
54.112297
 20
-218.945999
 11
54.112297
 21
-224.296005
  0
LINE
  8
0
 10
61.412300
 20
-208.945999
 11
53.612297
 21
-208.945999
  0
LINE
  8
0
 10
61.412300
 20
-210.146011
 11
53.612297
 21
-210.146011
  0
LINE
  8
0
 10
61.512306
 20
-218.445999
 11
61.512306
 21
-210.746002
  0
LINE
  8
0
 10
55.012306
 20
-210.746002
 11
55.012306
 21
-210.146011
  0
LINE
  8
0
 10
60.912300
 20
-218.945999
 11
54.112312
 21
-218.945999
  0
LINE
  8
0
 10
61.512306
 20
-218.445999
 11
53.512306
 21
-218.445999
  0
LINE
  8
0
 10
53.512299
 20
-218.446014
 11
54.112297
 21
-218.946014
  0
LINE
  8
0
 10
60.912304
 20
-218.945999
 11
61.512299
 21
-218.445999
  0
LINE
  8
0
 10
61.412300
 20
-210.746002
 11
53.512306
 21
-210.746002
  0
LINE
  8
0
 10
53.512306
 20
-218.445999
 11
53.512306
 21
-210.746002
  0
LINE
  8
0
 10
53.612297
 20
-210.146011
 11
53.612297
 21
-208.945999
  0
LINE
  8
0
 10
61.412300
 20
-210.146011
 11
61.412300
 21
-208.945999
  0
LINE
  8
0
 10
58.912300
 20
-206.945999
 11
58.912300
 21
-208.945999
  0
LINE
  8
0
 10
52.112297
 20
-206.945999
 11
52.112297
 21
-212.296005
  0
LINE
  8
0
 10
58.912300
 20
-206.945999
 11
52.112312
 21
-206.945999
  0
LINE
  8
0
 10
59.512306
 20
-206.445999
 11
51.512306
 21
-206.445999
  0
LINE
  8
0
 10
58.912300
 20
-206.946014
 11
59.512287
 21
-206.446030
  0
LINE
  8
0
 10
51.512283
 20
-206.446014
 11
52.112289
 21
-206.946014
  0
LINE
  8
0
 10
51.512306
 20
-206.445999
 11
51.512306
 21
-204.796005
  0
LINE
  8
0
 10
59.512306
 20
-206.445999
 11
59.512306
 21
-204.796005
  0
LINE
  8
0
 10
59.512306
 20
-203.796005
 11
59.512306
 21
-198.746002
  0
LINE
  8
0
 10
51.512306
 20
-203.796005
 11
51.512306
 21
-198.746002
  0
LINE
  8
0
 10
59.512306
 20
-198.746002
 11
51.512306
 21
-198.746002
  0
LINE
  8
0
 10
58.012306
 20
-198.746017
 11
58.012306
 21
-198.146011
  0
LINE
  8
0
 10
59.412300
 20
-198.146011
 11
51.612297
 21
-198.146011
  0
LINE
  8
0
 10
53.012306
 20
-198.746017
 11
53.012306
 21
-198.146011
  0
LINE
  8
0
 10
51.612297
 20
-198.146011
 11
51.612297
 21
-196.946014
  0
LINE
  8
0
 10
59.412300
 20
-196.946014
 11
51.612297
 21
-196.946014
  0
LINE
  8
0
 10
59.412300
 20
-198.146011
 11
59.412300
 21
-196.946014
  0
LINE
  8
0
 10
80.012306
 20
-179.796005
 11
49.012306
 21
-179.796005
  0
LINE
  8
0
 10
59.512306
 20
-203.795990
 11
67.512291
 21
-203.795990
  0
LINE
  8
0
 10
49.012306
 20
-204.796005
 11
49.012306
 21
-179.796005
  0
LINE
  8
0
 10
49.686890
 20
-174.296005
 11
63.337582
 21
-174.296005
  0
LINE
  8
0
 10
63.529629
 20
-179.796005
 11
63.337563
 21
-174.296005
  0
LINE
  8
0
 10
49.494816
 20
-179.796005
 11
49.686882
 21
-174.296005
  0
LINE
  8
0
 10
80.012306
 20
-204.796005
 11
80.012306
 21
-179.796005
  0
LINE
  8
0
 10
65.686836
 20
-174.296005
 11
79.337593
 21
-174.296005
  0
LINE
  8
0
 10
79.529633
 20
-179.796021
 11
79.337570
 21
-174.296021
  0
LINE
  8
0
 10
65.494766
 20
-179.796005
 11
65.686829
 21
-174.296005
  0
LINE
  8
0
 10
48.512306
 20
-204.796005
 11
51.512306
 21
-204.796005
  0
LINE
  8
0
 10
51.512306
 20
-204.796005
 11
51.512306
 21
-203.796005
  0
LINE
  8
0
 10
59.512306
 20
-204.796005
 11
59.512306
 21
-203.796005
  0
LINE
  8
0
 10
49.012306
 20
-203.796005
 11
51.512306
 21
-203.796005
  0
LINE
  8
0
 10
59.512306
 20
-204.796005
 11
67.512306
 21
-204.796005
  0
LINE
  8
0
 10
75.512291
 20
-203.796005
 11
80.012306
 21
-203.796005
  0
LINE
  8
0
 10
67.512306
 20
-204.796005
 11
67.512306
 21
-203.796005
  0
LINE
  8
0
 10
75.512306
 20
-204.796005
 11
75.512306
 21
-203.796005
  0
LINE
  8
0
 10
75.512306
 20
-204.796005
 11
80.512306
 21
-204.796005
  0
LINE
  8
0
 10
48.512306
 20
-204.796005
 11
51.512306
 21
-204.796005
  0
LINE
  8
0
 10
59.512306
 20
-204.796005
 11
67.512291
 21
-204.796005
  0
LINE
  8
0
 10
75.512291
 20
-204.796005
 11
80.512306
 21
-204.796005
  0
ARC
  8
0
 10
73.512306
 20
-224.296005
 40
3.400003
 50
252.895386
 51
0.000000
  0
ARC
  8
0
 10
73.512306
 20
-224.296005
 40
3.400002
 50
180.000000
 51
252.895386
  0
ARC
  8
0
 10
71.512306
 20
-212.296005
 40
3.400002
 50
180.000000
 51
233.967987
  0
ARC
  8
0
 10
57.512306
 20
-224.296005
 40
3.400003
 50
252.895386
 51
0.000000
  0
ARC
  8
0
 10
57.512306
 20
-224.296005
 40
3.400002
 50
180.000000
 51
252.895386
  0
ARC
  8
0
 10
55.512306
 20
-212.296005
 40
3.400002
 50
180.000000
 51
233.967987
  0
TEXT
  8
0
 10
60.476681
 20
-208.096008
 40
2.000000
  1
B
 50
0.000000
 41
1.052632
 51
0.000000
  7
STANDARD
  0
TEXT
  8
0
 10
50.476681
 20
-230.096008
 40
2.000000
  1
A
 50
0.000000
 41
1.052632
 51
0.000000
  7
STANDARD
  0
TEXT
  8
0
 10
76.476685
 20
-208.096008
 40
2.000000
  1
B
 50
0.000000
 41
1.052632
 51
0.000000
  7
STANDARD
  0
TEXT
  8
0
 10
66.476685
 20
-230.096008
 40
2.000000
  1
A
 50
0.000000
 41
1.052632
 51
0.000000
  7
STANDARD
  0
POINT
  8
0
 10
-40.487671
 20
-121.295990
  0
POINT
  8
0
 10
-60.487671
 20
-121.295990
  0
LINE
  8
0
 10
-60.487671
 20
-77.295944
 11
-36.487671
 21
-77.295944
  0
LINE
  8
0
 10
-36.487671
 20
-33.895828
 11
-36.487671
 21
-112.796219
  0
LINE
  8
0
 10
-60.487671
 20
-105.296173
 11
-36.487671
 21
-105.296173
  0
LINE
  8
0
 10
-60.487671
 20
-112.796219
 11
-36.487671
 21
-112.796219
  0
LINE
  8
0
 10
-60.487671
 20
-60.295837
 11
-36.487915
 21
-60.295837
  0
LINE
  8
0
 10
-36.487671
 20
-59.813236
 11
-30.987921
 21
-59.621181
  0
LINE
  8
0
 10
-60.487671
 20
-33.895828
 11
-30.987915
 21
-33.895828
  0
LINE
  8
0
 10
-59.987858
 20
-31.895828
 11
-37.487888
 21
-31.895828
  0
LINE
  8
0
 10
-60.487671
 20
-32.895393
 11
-59.987881
 21
-31.895821
  0
LINE
  8
0
 10
-36.487900
 20
-33.895821
 11
-37.487900
 21
-31.895828
  0
LINE
  8
0
 10
-30.987915
 20
-33.895828
 11
-30.987915
 21
-59.621189
  0
LINE
  8
0
 10
-75.138153
 20
-121.295990
 11
-75.138153
 21
-122.795990
  0
LINE
  8
0
 10
-63.138157
 20
-122.095978
 11
-64.038162
 21
-123.095978
  0
LINE
  8
0
 10
-74.238174
 20
-123.095993
 11
-75.138176
 21
-122.095985
  0
LINE
  8
0
 10
-74.238144
 20
-123.095993
 11
-64.038147
 21
-123.095993
  0
LINE
  8
0
 10
-84.988152
 20
-132.795990
 11
-84.988152
 21
-137.695984
  0
LINE
  8
0
 10
-76.988152
 20
-132.795990
 11
-76.988152
 21
-133.795990
  0
LINE
  8
0
 10
-84.988152
 20
-133.795990
 11
-75.288155
 21
-133.795990
  0
LINE
  8
0
 10
-87.138153
 20
-121.295990
 11
-87.138153
 21
-122.795990
  0
LINE
  8
0
 10
-63.138153
 20
-122.095978
 11
-63.138153
 21
-121.295990
  0
LINE
  8
0
 10
-63.138153
 20
-122.095978
 11
-75.138153
 21
-122.095978
  0
LINE
  8
0
 10
-81.888145
 20
-140.795990
 11
-67.588150
 21
-140.795990
  0
LINE
  8
0
 10
-75.288147
 20
-132.795990
 11
-67.588150
 21
-132.795990
  0
LINE
  8
0
 10
-75.288155
 20
-132.795990
 11
-75.288155
 21
-140.795990
  0
LINE
  8
0
 10
-67.588150
 20
-132.795990
 11
-67.588150
 21
-140.795990
  0
LINE
  8
0
 10
-65.788147
 20
-131.895981
 11
-65.788147
 21
-141.695984
  0
LINE
  8
0
 10
-66.988152
 20
-131.895981
 11
-66.988152
 21
-141.695984
  0
LINE
  8
0
 10
-67.588150
 20
-134.295990
 11
-66.988144
 21
-134.295990
  0
LINE
  8
0
 10
-67.588150
 20
-139.295990
 11
-66.988144
 21
-139.295990
  0
LINE
  8
0
 10
-66.988144
 20
-131.895996
 11
-65.788147
 21
-131.895996
  0
LINE
  8
0
 10
-66.988144
 20
-141.695984
 11
-65.788147
 21
-141.695984
  0
LINE
  8
0
 10
-87.138145
 20
-122.795990
 11
-75.138153
 21
-122.795990
  0
LINE
  8
0
 10
-85.738152
 20
-132.795990
 11
-76.238144
 21
-132.795990
  0
LINE
  8
0
 10
-75.888153
 20
-122.795990
 11
-75.888153
 21
-132.395996
  0
LINE
  8
0
 10
-86.088150
 20
-122.795990
 11
-86.088150
 21
-132.395996
  0
LINE
  8
0
 10
-86.088142
 20
-132.395996
 11
-75.888153
 21
-132.395996
  0
LINE
  8
0
 10
-75.888138
 20
-132.395981
 11
-76.238136
 21
-132.795990
  0
LINE
  8
0
 10
-86.088142
 20
-132.395966
 11
-85.738144
 21
-132.795975
  0
LINE
  8
0
 10
-55.588150
 20
-129.295990
 11
-54.988144
 21
-129.295990
  0
LINE
  8
0
 10
-54.988144
 20
-121.895981
 11
-53.788147
 21
-121.895981
  0
LINE
  8
0
 10
-54.988144
 20
-131.695984
 11
-53.788147
 21
-131.695984
  0
LINE
  8
0
 10
-72.988152
 20
-123.095993
 11
-72.988152
 21
-127.695984
  0
LINE
  8
0
 10
-64.988152
 20
-123.095993
 11
-64.988152
 21
-123.895981
  0
LINE
  8
0
 10
-69.888153
 20
-130.795990
 11
-55.588150
 21
-130.795990
  0
LINE
  8
0
 10
-63.288147
 20
-122.795990
 11
-55.588150
 21
-122.795990
  0
LINE
  8
0
 10
-64.988152
 20
-123.895981
 11
-63.288155
 21
-123.895981
  0
LINE
  8
0
 10
-63.288155
 20
-122.795990
 11
-63.288155
 21
-130.795990
  0
LINE
  8
0
 10
-55.588150
 20
-122.795990
 11
-55.588150
 21
-130.795990
  0
LINE
  8
0
 10
-53.788147
 20
-121.895981
 11
-53.788147
 21
-131.695984
  0
LINE
  8
0
 10
-54.988144
 20
-121.895981
 11
-54.988144
 21
-131.695984
  0
LINE
  8
0
 10
-55.588150
 20
-124.295990
 11
-54.988144
 21
-124.295990
  0
ARC
  8
0
 10
-81.888145
 20
-137.695984
 40
3.099998
 50
180.000000
 51
270.000000
  0
ARC
  8
0
 10
-69.888153
 20
-127.695984
 40
3.099998
 50
180.000000
 51
270.000000
  0
POINT
  8
0
 10
321.301483
 20
-111.296021
  0
POINT
  8
0
 10
353.301483
 20
-111.296021
  0
LINE
  8
0
 10
351.401306
 20
-111.296021
 11
351.401306
 21
-125.096024
  0
LINE
  8
0
 10
341.201294
 20
-111.296021
 11
341.201294
 21
-113.001282
  0
LINE
  8
0
 10
353.301483
 20
-13.296021
 11
353.301483
 21
-111.296021
  0
LINE
  8
0
 10
345.301300
 20
-11.296021
 11
345.301300
 21
-112.796021
  0
LINE
  8
0
 10
341.201294
 20
-125.096024
 11
343.088806
 21
-125.096024
  0
LINE
  8
0
 10
351.201294
 20
-128.796021
 11
351.201294
 21
-130.796021
  0
LINE
  8
0
 10
341.401306
 20
-128.796021
 11
341.401306
 21
-130.796021
  0
LINE
  8
0
 10
339.401306
 20
-116.796021
 11
339.401306
 21
-118.796021
  0
LINE
  8
0
 10
349.201294
 20
-116.796021
 11
349.201294
 21
-118.796021
  0
LINE
  8
0
 10
349.513794
 20
-125.096024
 11
351.401306
 21
-125.096024
  0
LINE
  8
0
 10
321.301483
 20
-13.296021
 11
353.301483
 21
-13.296021
  0
LINE
  8
0
 10
321.301483
 20
-111.296021
 11
353.301483
 21
-111.296021
  0
LINE
  8
0
 10
335.401306
 20
-111.296021
 11
335.401306
 21
-125.096024
  0
LINE
  8
0
 10
325.201294
 20
-111.296021
 11
325.201294
 21
-113.001282
  0
LINE
  8
0
 10
337.301483
 20
-13.296021
 11
337.301483
 21
-67.296021
  0
LINE
  8
0
 10
329.301300
 20
-11.296021
 11
329.301300
 21
-112.796021
  0
LINE
  8
0
 10
325.201294
 20
-125.096024
 11
327.088837
 21
-125.096024
  0
LINE
  8
0
 10
335.201294
 20
-128.796021
 11
335.201294
 21
-130.796021
  0
LINE
  8
0
 10
325.401306
 20
-128.796021
 11
325.401306
 21
-130.796021
  0
LINE
  8
0
 10
323.401306
 20
-116.796021
 11
323.401306
 21
-118.796021
  0
LINE
  8
0
 10
333.201294
 20
-116.796021
 11
333.201294
 21
-118.796021
  0
LINE
  8
0
 10
333.513794
 20
-125.096024
 11
335.401306
 21
-125.096024
  0
LINE
  8
0
 10
321.301483
 20
-95.296021
 11
353.301483
 21
-95.296021
  0
LINE
  8
0
 10
321.301483
 20
-102.796021
 11
353.301483
 21
-102.796021
  0
LINE
  8
0
 10
321.301483
 20
-67.296021
 11
353.301483
 21
-67.296021
  0
LINE
  8
0
 10
326.036133
 20
-53.796021
 11
332.615204
 21
-53.796021
  0
LINE
  8
0
 10
342.483795
 20
-53.796021
 11
347.918671
 21
-53.796021
  0
LINE
  8
0
 10
321.301483
 20
-50.296021
 11
353.301483
 21
-50.296021
  0
LINE
  8
0
 10
323.801300
 20
-48.496017
 11
334.801270
 21
-48.496017
  0
LINE
  8
0
 10
323.801300
 20
-34.296021
 11
334.801270
 21
-34.296021
  0
LINE
  8
0
 10
323.801300
 20
-26.796021
 11
334.801300
 21
-26.796021
  0
LINE
  8
0
 10
323.801300
 20
-26.796021
 11
323.801300
 21
-34.296021
  0
LINE
  8
0
 10
334.801270
 20
-26.796021
 11
334.801270
 21
-34.296021
  0
LINE
  8
0
 10
332.801270
 20
-41.296021
 11
332.801270
 21
-45.296021
  0
LINE
  8
0
 10
325.801270
 20
-41.296021
 11
325.801270
 21
-45.296021
  0
LINE
  8
0
 10
323.801300
 20
-35.996017
 11
323.801300
 21
-48.496017
  0
LINE
  8
0
 10
334.801270
 20
-35.996017
 11
334.801270
 21
-48.496033
  0
LINE
  8
0
 10
323.801300
 20
-35.996017
 11
334.801270
 21
-35.996017
  0
LINE
  8
0
 10
325.801270
 20
-45.296021
 11
332.801270
 21
-45.296021
  0
LINE
  8
0
 10
325.801270
 20
-41.296021
 11
332.801270
 21
-41.296021
  0
LINE
  8
0
 10
321.301483
 20
-23.896027
 11
353.301483
 21
-23.896027
  0
LINE
  8
0
 10
322.901367
 20
-21.896027
 11
335.701202
 21
-21.896027
  0
LINE
  8
0
 10
321.801361
 20
-23.896057
 11
322.901367
 21
-21.896042
  0
LINE
  8
0
 10
335.701172
 20
-21.896049
 11
336.801208
 21
-23.896080
  0
LINE
  8
0
 10
339.801270
 20
-48.496017
 11
350.801270
 21
-48.496017
  0
LINE
  8
0
 10
339.801270
 20
-34.296021
 11
350.801270
 21
-34.296021
  0
LINE
  8
0
 10
339.801300
 20
-26.796021
 11
350.801270
 21
-26.796021
  0
LINE
  8
0
 10
339.801270
 20
-26.796021
 11
339.801270
 21
-34.296021
  0
LINE
  8
0
 10
350.801270
 20
-26.796021
 11
350.801270
 21
-34.296021
  0
LINE
  8
0
 10
348.801270
 20
-41.296021
 11
348.801270
 21
-45.296021
  0
LINE
  8
0
 10
341.801270
 20
-41.296021
 11
341.801270
 21
-45.296021
  0
LINE
  8
0
 10
339.801270
 20
-35.996017
 11
339.801270
 21
-48.496017
  0
LINE
  8
0
 10
350.801270
 20
-35.996017
 11
350.801270
 21
-48.496033
  0
LINE
  8
0
 10
339.801270
 20
-35.996017
 11
350.801270
 21
-35.996017
  0
LINE
  8
0
 10
341.801270
 20
-45.296021
 11
348.801270
 21
-45.296021
  0
LINE
  8
0
 10
341.801270
 20
-41.296021
 11
348.801270
 21
-41.296021
  0
LINE
  8
0
 10
338.901337
 20
-21.896027
 11
351.701172
 21
-21.896027
  0
LINE
  8
0
 10
337.801331
 20
-23.896042
 11
338.901337
 21
-21.896042
  0
LINE
  8
0
 10
351.701141
 20
-21.896057
 11
352.801147
 21
-23.896080
  0
LINE
  8
0
 10
341.201294
 20
-122.590759
 11
341.201294
 21
-125.096024
  0
LINE
  8
0
 10
325.201294
 20
-122.590759
 11
325.201294
 21
-125.096024
  0
LINE
  8
0
 10
328.301331
 20
-110.296021
 11
328.301331
 21
-125.296021
  0
LINE
  8
0
 10
344.301331
 20
-110.296021
 11
344.301331
 21
-125.296021
  0
LINE
  8
0
 10
346.301331
 20
-122.296021
 11
346.301331
 21
-137.296021
  0
LINE
  8
0
 10
330.301331
 20
-122.296021
 11
330.301331
 21
-137.296021
  0
LINE
  8
0
 10
322.301331
 20
-117.796021
 11
334.301331
 21
-117.796021
  0
LINE
  8
0
 10
338.301331
 20
-117.796021
 11
350.301331
 21
-117.796021
  0
LINE
  8
0
 10
340.301331
 20
-129.796021
 11
352.301331
 21
-129.796021
  0
LINE
  8
0
 10
324.301331
 20
-129.796021
 11
336.301331
 21
-129.796021
  0
LINE
  8
0
 10
337.301483
 20
-102.796021
 11
337.301483
 21
-111.296021
  0
CIRCLE
  8
0
 10
345.301300
 20
-53.796021
 40
1.500000
  0
CIRCLE
  8
0
 10
329.301300
 20
-53.796021
 40
1.500000
  0
CIRCLE
  8
0
 10
346.301331
 20
-129.796021
 40
3.000000
  0
ARC
  8
0
 10
346.301300
 20
-128.796021
 40
4.899994
 50
0.000000
 51
180.000000
  0
ARC
  8
0
 10
346.301300
 20
-130.796021
 40
4.899994
 50
180.000000
 51
0.000000
  0
ARC
  8
0
 10
344.301300
 20
-116.796021
 40
4.899994
 50
0.000000
 51
180.000000
  0
ARC
  8
0
 10
344.301300
 20
-118.796021
 40
4.899994
 50
180.000000
 51
0.000000
  0
CIRCLE
  8
0
 10
344.301331
 20
-117.796021
 40
3.000000
  0
CIRCLE
  8
0
 10
328.301331
 20
-117.796021
 40
3.000000
  0
ARC
  8
0
 10
328.301300
 20
-118.796021
 40
4.899994
 50
180.000000
 51
0.000000
  0
CIRCLE
  8
0
 10
330.301331
 20
-129.796021
 40
3.000000
  0
ARC
  8
0
 10
330.301300
 20
-128.796021
 40
4.899994
 50
0.000000
 51
180.000000
  0
ARC
  8
0
 10
330.301300
 20
-130.796021
 40
4.899994
 50
180.000000
 51
0.000000
  0
ARC
  8
0
 10
328.301300
 20
-116.796021
 40
4.899994
 50
0.000000
 51
180.000000
  0
POINT
  8
0
 10
321.301483
 20
-191.796005
  0
POINT
  8
0
 10
353.301483
 20
-191.796005
  0
LINE
  8
0
 10
353.301483
 20
-218.796005
 11
353.301483
 21
-191.796005
  0
LINE
  8
0
 10
345.301483
 20
-159.296005
 11
345.301483
 21
-220.296005
  0
LINE
  8
0
 10
351.201477
 20
-194.896011
 11
341.401489
 21
-194.896011
  0
LINE
  8
0
 10
351.201477
 20
-196.096008
 11
341.401489
 21
-196.096008
  0
LINE
  8
0
 10
341.401489
 20
-196.096008
 11
341.401489
 21
-194.896011
  0
LINE
  8
0
 10
351.201477
 20
-196.096008
 11
351.201477
 21
-194.896011
  0
LINE
  8
0
 10
342.801483
 20
-197.746002
 11
342.801483
 21
-196.096008
  0
LINE
  8
0
 10
349.801483
 20
-197.746002
 11
349.801483
 21
-196.096008
  0
LINE
  8
0
 10
341.051483
 20
-197.746002
 11
351.551483
 21
-197.746002
  0
LINE
  8
0
 10
341.051483
 20
-204.945999
 11
351.551483
 21
-204.945999
  0
LINE
  8
0
 10
341.051483
 20
-204.945999
 11
341.051483
 21
-197.746002
  0
LINE
  8
0
 10
351.551483
 20
-204.945999
 11
351.551483
 21
-197.746002
  0
LINE
  8
0
 10
342.351501
 20
-208.546005
 11
342.351501
 21
-204.945999
  0
LINE
  8
0
 10
350.251465
 20
-208.546005
 11
350.251465
 21
-204.945999
  0
LINE
  8
0
 10
343.351501
 20
-209.546005
 11
349.201477
 21
-209.546005
  0
LINE
  8
0
 10
343.401489
 20
-211.146011
 11
343.401489
 21
-209.546005
  0
LINE
  8
0
 10
349.551453
 20
-193.096008
 11
349.551453
 21
-185.896011
  0
LINE
  8
0
 10
348.251465
 20
-194.896011
 11
348.251465
 21
-193.096008
  0
LINE
  8
0
 10
340.351471
 20
-196.695999
 11
340.351471
 21
-193.096008
  0
LINE
  8
0
 10
349.201477
 20
-183.046005
 11
339.401489
 21
-183.046005
  0
LINE
  8
0
 10
349.201477
 20
-184.246002
 11
339.401489
 21
-184.246002
  0
LINE
  8
0
 10
339.401489
 20
-184.246002
 11
339.401489
 21
-183.046005
  0
LINE
  8
0
 10
349.201477
 20
-184.246002
 11
349.201477
 21
-183.046005
  0
LINE
  8
0
 10
340.801453
 20
-185.896011
 11
340.801453
 21
-184.246002
  0
LINE
  8
0
 10
347.801453
 20
-185.896011
 11
347.801453
 21
-184.246002
  0
LINE
  8
0
 10
339.051453
 20
-185.896011
 11
349.551453
 21
-185.896011
  0
LINE
  8
0
 10
339.051453
 20
-193.096008
 11
349.551453
 21
-193.096008
  0
LINE
  8
0
 10
339.051453
 20
-193.096008
 11
339.051453
 21
-185.896011
  0
LINE
  8
0
 10
349.201477
 20
-209.546005
 11
349.201477
 21
-211.146011
  0
LINE
  8
0
 10
337.301483
 20
-218.796005
 11
337.301483
 21
-191.796005
  0
LINE
  8
0
 10
321.301483
 20
-218.796005
 11
353.301483
 21
-218.796005
  0
LINE
  8
0
 10
329.301483
 20
-159.296005
 11
329.301483
 21
-220.296005
  0
LINE
  8
0
 10
335.201477
 20
-194.896011
 11
325.401489
 21
-194.896011
  0
LINE
  8
0
 10
335.201477
 20
-196.096008
 11
325.401489
 21
-196.096008
  0
LINE
  8
0
 10
325.401489
 20
-196.096008
 11
325.401489
 21
-194.896011
  0
LINE
  8
0
 10
335.201477
 20
-196.096008
 11
335.201477
 21
-194.896011
  0
LINE
  8
0
 10
326.801483
 20
-197.746002
 11
326.801483
 21
-196.096008
  0
LINE
  8
0
 10
333.801483
 20
-197.746002
 11
333.801483
 21
-196.096008
  0
LINE
  8
0
 10
325.051483
 20
-197.746002
 11
335.551483
 21
-197.746002
  0
LINE
  8
0
 10
325.051483
 20
-204.945999
 11
335.551483
 21
-204.945999
  0
LINE
  8
0
 10
325.051483
 20
-204.945999
 11
325.051483
 21
-197.746002
  0
LINE
  8
0
 10
335.551483
 20
-204.945999
 11
335.551483
 21
-197.746002
  0
LINE
  8
0
 10
326.351501
 20
-208.546005
 11
326.351501
 21
-204.945999
  0
LINE
  8
0
 10
334.251465
 20
-208.546005
 11
334.251465
 21
-204.945999
  0
LINE
  8
0
 10
327.401489
 20
-211.146011
 11
327.401489
 21
-209.546005
  0
LINE
  8
0
 10
333.551483
 20
-193.096008
 11
333.551483
 21
-185.896011
  0
LINE
  8
0
 10
332.251465
 20
-194.896011
 11
332.251465
 21
-193.096008
  0
LINE
  8
0
 10
324.351471
 20
-196.695999
 11
324.351471
 21
-193.096008
  0
LINE
  8
0
 10
333.201477
 20
-183.046005
 11
323.401489
 21
-183.046005
  0
LINE
  8
0
 10
333.201477
 20
-184.246002
 11
323.401489
 21
-184.246002
  0
LINE
  8
0
 10
323.401489
 20
-184.246002
 11
323.401489
 21
-183.046005
  0
LINE
  8
0
 10
333.201477
 20
-184.246002
 11
333.201477
 21
-183.046005
  0
LINE
  8
0
 10
324.801483
 20
-185.896011
 11
324.801483
 21
-184.246002
  0
LINE
  8
0
 10
331.801483
 20
-185.896011
 11
331.801483
 21
-184.246002
  0
LINE
  8
0
 10
323.051483
 20
-185.896011
 11
333.551483
 21
-185.896011
  0
LINE
  8
0
 10
323.051483
 20
-193.096008
 11
333.551483
 21
-193.096008
  0
LINE
  8
0
 10
323.051483
 20
-193.096008
 11
323.051483
 21
-185.896011
  0
LINE
  8
0
 10
327.401489
 20
-209.546005
 11
333.251465
 21
-209.546005
  0
LINE
  8
0
 10
333.201477
 20
-209.546005
 11
333.201477
 21
-211.146011
  0
LINE
  8
0
 10
352.801483
 20
-166.796005
 11
321.801483
 21
-166.796005
  0
LINE
  8
0
 10
321.801483
 20
-191.796005
 11
321.801483
 21
-166.796005
  0
LINE
  8
0
 10
322.476044
 20
-161.296005
 11
336.126770
 21
-161.296005
  0
LINE
  8
0
 10
336.318817
 20
-166.796005
 11
336.126770
 21
-161.296005
  0
LINE
  8
0
 10
322.283966
 20
-166.796005
 11
322.476044
 21
-161.296005
  0
LINE
  8
0
 10
352.801483
 20
-191.796005
 11
352.801483
 21
-166.796005
  0
LINE
  8
0
 10
338.476013
 20
-161.296005
 11
352.126770
 21
-161.296005
  0
LINE
  8
0
 10
352.318787
 20
-166.796021
 11
352.126740
 21
-161.296021
  0
LINE
  8
0
 10
338.283936
 20
-166.796005
 11
338.475983
 21
-161.296005
  0
LINE
  8
0
 10
321.301483
 20
-191.796005
 11
323.051483
 21
-191.796005
  0
LINE
  8
0
 10
333.551483
 20
-191.796005
 11
339.051453
 21
-191.796005
  0
LINE
  8
0
 10
349.551453
 20
-191.796005
 11
353.301483
 21
-191.796005
  0
LINE
  8
0
 10
321.801483
 20
-190.796005
 11
323.051483
 21
-190.796005
  0
LINE
  8
0
 10
333.551483
 20
-190.796005
 11
339.051453
 21
-190.796005
  0
LINE
  8
0
 10
349.551453
 20
-190.796005
 11
352.801483
 21
-190.796005
  0
ARC
  8
0
 10
346.301483
 20
-211.146011
 40
2.899994
 50
180.000000
 51
260.071808
  0
ARC
  8
0
 10
343.351501
 20
-208.546005
 40
1.000000
 50
180.000000
 51
270.000000
  0
ARC
  8
0
 10
341.351471
 20
-196.695999
 40
1.000000
 50
180.000000
 51
267.134705
  0
ARC
  8
0
 10
349.251465
 20
-208.546005
 40
1.000000
 50
270.000000
 51
0.000000
  0
ARC
  8
0
 10
346.301483
 20
-211.146011
 40
2.899991
 50
249.828659
 51
0.000000
  0
ARC
  8
0
 10
330.301483
 20
-211.146011
 40
2.899991
 50
249.828659
 51
0.000000
  0
ARC
  8
0
 10
330.301483
 20
-211.146011
 40
2.899994
 50
180.000000
 51
260.071808
  0
ARC
  8
0
 10
327.351501
 20
-208.546005
 40
1.000000
 50
180.000000
 51
270.000000
  0
ARC
  8
0
 10
325.351471
 20
-196.695999
 40
1.000000
 50
180.000000
 51
267.134705
  0
ARC
  8
0
 10
333.251465
 20
-208.546005
 40
1.000000
 50
270.000000
 51
0.000000
  0
TEXT
  8
0
 10
333.265869
 20
-194.596008
 40
2.000000
  1
B
 50
0.000000
 41
1.052632
 51
0.000000
  7
STANDARD
  0
TEXT
  8
0
 10
323.265869
 20
-217.096008
 40
2.000000
  1
A
 50
0.000000
 41
1.052632
 51
0.000000
  7
STANDARD
  0
TEXT
  8
0
 10
349.265869
 20
-194.596008
 40
2.000000
  1
B
 50
0.000000
 41
1.052632
 51
0.000000
  7
STANDARD
  0
TEXT
  8
0
 10
339.265869
 20
-217.096008
 40
2.000000
  1
A
 50
0.000000
 41
1.052632
 51
0.000000
  7
STANDARD
  0
POINT
  8
0
 10
220.301514
 20
-111.295990
  0
POINT
  8
0
 10
200.301514
 20
-111.295990
  0
LINE
  8
0
 10
200.301514
 20
-67.295944
 11
224.301514
 21
-67.295944
  0
LINE
  8
0
 10
224.301514
 20
-23.895828
 11
224.301514
 21
-102.796219
  0
LINE
  8
0
 10
200.301514
 20
-95.296173
 11
224.301498
 21
-95.296173
  0
LINE
  8
0
 10
200.301514
 20
-102.796219
 11
224.301514
 21
-102.796219
  0
LINE
  8
0
 10
200.301514
 20
-50.295837
 11
224.301270
 21
-50.295837
  0
LINE
  8
0
 10
200.301514
 20
-23.895828
 11
229.801270
 21
-23.895828
  0
LINE
  8
0
 10
200.801315
 20
-21.895828
 11
223.301300
 21
-21.895828
  0
LINE
  8
0
 10
200.301514
 20
-22.895378
 11
200.801300
 21
-21.895805
  0
LINE
  8
0
 10
224.301285
 20
-23.895805
 11
223.301285
 21
-21.895828
  0
LINE
  8
0
 10
229.801270
 20
-23.895828
 11
229.801270
 21
-49.138382
  0
LINE
  8
0
 10
208.051025
 20
-111.895981
 11
208.051025
 21
-123.695984
  0
LINE
  8
0
 10
206.851028
 20
-111.895981
 11
206.851028
 21
-123.695984
  0
LINE
  8
0
 10
206.851028
 20
-123.695984
 11
208.051025
 21
-123.695984
  0
LINE
  8
0
 10
206.851028
 20
-111.895981
 11
208.051025
 21
-111.895981
  0
LINE
  8
0
 10
193.051025
 20
-133.295990
 11
194.851044
 21
-133.295990
  0
LINE
  8
0
 10
193.051025
 20
-126.295990
 11
194.851044
 21
-126.295990
  0
LINE
  8
0
 10
193.051025
 20
-124.545990
 11
193.051025
 21
-135.045990
  0
LINE
  8
0
 10
185.851044
 20
-124.545990
 11
193.051041
 21
-124.545990
  0
LINE
  8
0
 10
178.801025
 20
-135.045990
 11
193.051041
 21
-135.045990
  0
LINE
  8
0
 10
185.851028
 20
-124.545990
 11
185.851028
 21
-135.045990
  0
LINE
  8
0
 10
185.851028
 20
-125.845993
 11
183.801041
 21
-125.845993
  0
LINE
  8
0
 10
196.051025
 20
-123.895996
 11
196.051025
 21
-135.695984
  0
LINE
  8
0
 10
194.851044
 20
-135.695984
 11
196.051041
 21
-135.695984
  0
LINE
  8
0
 10
194.851044
 20
-123.895996
 11
196.051041
 21
-123.895996
  0
LINE
  8
0
 10
194.851028
 20
-123.895996
 11
194.851028
 21
-135.695984
  0
LINE
  8
0
 10
197.851044
 20
-112.545990
 11
205.051025
 21
-112.545990
  0
LINE
  8
0
 10
205.051025
 20
-121.295990
 11
206.851028
 21
-121.295990
  0
LINE
  8
0
 10
205.051025
 20
-114.295990
 11
206.851028
 21
-114.295990
  0
LINE
  8
0
 10
205.051025
 20
-112.545990
 11
205.051025
 21
-123.045990
  0
LINE
  8
0
 10
190.801041
 20
-123.045990
 11
205.051025
 21
-123.045990
  0
LINE
  8
0
 10
197.851028
 20
-112.545990
 11
197.851028
 21
-123.045990
  0
LINE
  8
0
 10
197.851028
 20
-113.845993
 11
195.801041
 21
-113.845993
  0
LINE
  8
0
 10
195.801025
 20
-111.295990
 11
195.801025
 21
-113.845993
  0
LINE
  8
0
 10
187.801025
 20
-111.295990
 11
187.801025
 21
-120.045990
  0
LINE
  8
0
 10
184.901031
 20
-111.295990
 11
184.901031
 21
-124.795990
  0
LINE
  8
0
 10
174.701050
 20
-124.795990
 11
184.901031
 21
-124.795990
  0
LINE
  8
0
 10
183.801025
 20
-124.795990
 11
183.801025
 21
-125.845993
  0
LINE
  8
0
 10
175.801025
 20
-124.795990
 11
175.801025
 21
-132.045990
  0
LINE
  8
0
 10
174.701035
 20
-111.295990
 11
174.701035
 21
-124.795990
  0
LINE
  8
0
 10
229.801270
 20
-49.138401
 11
224.301270
 21
-50.295856
  0
ARC
  8
0
 10
178.801025
 20
-132.045990
 40
3.000000
 50
180.000000
 51
270.000000
  0
ARC
  8
0
 10
190.801041
 20
-120.045990
 40
3.000000
 50
180.000000
 51
270.000000
  0
ENDSEC
  0
EOF
