  0
SECTION
  2
HEADER
  0
ENDSEC
  0
SECTION
  2
TABLES
  0
TABLE
  2
LTYPE
 70
     4
  0
LTYPE
  2
CONTINUOUS
 70
    64
  3
Solid line
 72
    65
 73
     0
 40
0.000000
  0
LTYPE
  2
DASHED
 70
    64
  3
__ __ __ __ __ __ __ __ __ __ __ __ __ __ __
 72
    65
 73
     2
 40
3.500000
 49
2.000000
 49
-1.500000
  0
LTYPE
  2
CENTER
 70
    64
  3
____ _ ____ _ ____ _ ____ _ ____ _ ____ _ ____
 72
    65
 73
     4
 40
17.500000
 49
13.000000
 49
-1.500000
 49
1.500000
 49
-1.500000
  0
LTYPE
  2
PHANTOM
 70
    64
  3
_____ _ _ _____ _ _ _____ _ _ _____ _ _ ____  
 72
    65
 73
     6
 40
15.500000
 49
8.000000
 49
-1.500000
 49
1.500000
 49
-1.500000
 49
1.500000
 49
-1.500000
  0
LTYPE
  2
DASHED1
 70
    64
  3
__ __ __ __ __ __ __ __ __ __ __ __ __ __ __
 72
    65
 73
     2
 40
1.500000
 49
1.000000
 49
-0.500000
  0
LTYPE
  2
DASHED2
 70
    64
  3
__ __ __ __ __ __ __ __ __ __ __ __ __ __ __
 72
    65
 73
     2
 40
3.500000
 49
2.500000
 49
-1.000000
  0
LTYPE
  2
DASHED3
 70
    64
  3
__ __ __ __ __ __ __ __ __ __ __ __ __ __ __
 72
    65
 73
     2
 40
6.000000
 49
4.000000
 49
-2.000000
  0
LTYPE
  2
DASHED4
 70
    64
  3
__ __ __ __ __ __ __ __ __ __ __ __ __ __ __
 72
    65
 73
     2
 40
12.000000
 49
10.000000
 49
-2.000000
  0
LTYPE
  2
DASHED5
 70
    64
  3
__ __ __ __ __ __ __ __ __ __ __ __ __ __ __
 72
    65
 73
     2
 40
17.000000
 49
15.000000
 49
-2.000000
  0
LTYPE
  2
DASHED6
 70
    64
  3
__ __ __ __ __ __ __ __ __ __ __ __ __ __ __
 72
    65
 73
     2
 40
29.000000
 49
27.000000
 49
-2.000000
  0
LTYPE
  2
PHANTOM1
 70
    64
  3
_____ _ _ _____ _ _ _____ _ _ _____ _ _ ____  
 72
    65
 73
     6
 40
31.000000
 49
25.000000
 49
-1.500000
 49
1.000000
 49
-1.000000
 49
1.000000
 49
-1.500000
  0
LTYPE
  2
PHANTOM2
 70
    64
  3
_____ _ _ _____ _ _ _____ _ _ _____ _ _ ____  
 72
    65
 73
     6
 40
36.000000
 49
27.000000
 49
-1.500000
 49
2.500000
 49
-1.000000
 49
2.500000
 49
-1.500000
  0
LTYPE
  2
PHANTOM3
 70
    64
  3
_____ _ _ _____ _ _ _____ _ _ _____ _ _ ____  
 72
    65
 73
     6
 40
78.000000
 49
64.000000
 49
-2.000000
 49
4.000000
 49
-2.000000
 49
4.000000
 49
-2.000000
  0
LTYPE
  2
CENTER1
 70
    64
  3
____ _ ____ _ ____ _ ____ _ ____ _ ____ _ ____
 72
    65
 73
     4
 40
19.000000
 49
14.000000
 49
-1.000000
 49
3.000000
 49
-1.000000
  0
LTYPE
  2
CENTER2
 70
    64
  3
____ _ ____ _ ____ _ ____ _ ____ _ ____ _ ____
 72
    65
 73
     4
 40
28.500000
 49
25.000000
 49
-1.000000
 49
1.500000
 49
-1.000000
  0
LTYPE
  2
CENTER3
 70
    64
  3
____ _ ____ _ ____ _ ____ _ ____ _ ____ _ ____
 72
    65
 73
     4
 40
31.500000
 49
27.000000
 49
-1.000000
 49
2.500000
 49
-1.000000
  0
LTYPE
  2
CENTER4
 70
    64
  3
____ _ ____ _ ____ _ ____ _ ____ _ ____ _ ____
 72
    65
 73
     4
 40
50.000000
 49
45.000000
 49
-1.000000
 49
3.000000
 49
-1.000000
  0
LTYPE
  2
CENTER5
 70
    64
  3
____ _ ____ _ ____ _ ____ _ ____ _ ____ _ ____
 72
    65
 73
     4
 40
100.000000
 49
92.000000
 49
-2.000000
 49
4.000000
 49
-2.000000
  0
LTYPE
  2
SBK1
 70
    64
  3
______ _ _ _ ______ _ _ _ ______ _ _ _ _____  
 72
    65
 73
     8
 40
60.500000
 49
45.000000
 49
-2.000000
 49
2.500000
 49
-2.000000
 49
2.500000
 49
-2.000000
 49
2.500000
 49
-2.000000
  0
LTYPE
  2
SBK2
 70
    64
  3
______ _ _ _ ______ _ _ _ ______ _ _ _ _____  
 72
    65
 73
     8
 40
84.000000
 49
64.000000
 49
-2.000000
 49
4.000000
 49
-2.000000
 49
4.000000
 49
-2.000000
 49
4.000000
 49
-2.000000
  0
LTYPE
  2
STCH
 70
    64
  3
__ __ __ __ __ __ __ __ __ __ __ __ __ __ __
 72
    65
 73
     2
 40
3.000000
 49
1.000000
 49
-2.000000
  0
LTYPE
  2
MTCH
 70
    64
  3
_____ _ _ _____ _ _ _____ _ _ _____ _ _ ____  
 72
    65
 73
     6
 40
80.000000
 49
66.000000
 49
-2.000000
 49
4.000000
 49
-2.000000
 49
4.000000
 49
-2.000000
  0
ENDTAB
  0
TABLE
  2
LAYER
 70
     1
  0
LAYER
  2
0
 70
     0
 62
     7
  6
CONTINUOUS
  0
ENDTAB
  0
TABLE
  2
STYLE
 70
     1
  0
STYLE
  2
STANDARD
 70
     0
 40
0.000000
 41
1.000000
 50
0.000000
 71
     0
 42
0.200000
  3
txt
  4
BIGFONT
  0
ENDTAB
  0
TABLE
  2
VIEW
 70
     0
  0
ENDTAB
  0
ENDSEC
  0
SECTION
  2
BLOCKS
  0
ENDSEC
  0
SECTION
  2
ENTITIES
  0
LINE
  8
0
 10
-420.500000
 20
297.000000
 11
420.500000
 21
297.000000
  0
LINE
  8
0
 10
-420.500000
 20
-297.000000
 11
420.500000
 21
-297.000000
  0
LINE
  8
0
 10
420.500000
 20
297.000000
 11
420.500000
 21
-297.000000
  0
LINE
  8
0
 10
-420.500000
 20
297.000000
 11
-420.500000
 21
-297.000000
  0
LINE
  8
0
 10
399.799988
 20
276.250000
 11
399.799988
 21
-276.750000
  0
LINE
  8
0
 10
-399.250000
 20
276.250000
 11
-399.250000
 21
-276.750000
  0
LINE
  8
0
 10
-399.250000
 20
276.250000
 11
399.799988
 21
276.250000
  0
LINE
  8
0
 10
-399.250000
 20
-276.750000
 11
399.799988
 21
-276.750000
  0
LINE
  8
0
 10
133.449997
 20
-251.750000
 11
399.799988
 21
-251.750000
  0
LINE
  8
0
 10
239.799988
 20
251.250000
 11
399.799988
 21
251.250000
  0
LINE
  8
0
 10
-399.250000
 20
251.250000
 11
-239.250000
 21
251.250000
  0
LINE
  8
0
 10
239.799988
 20
-251.750000
 11
239.799988
 21
-276.750000
  0
LINE
  8
0
 10
239.799988
 20
251.250000
 11
239.799988
 21
276.250000
  0
LINE
  8
0
 10
-239.250000
 20
276.250000
 11
-239.250000
 21
251.250000
  0
LINE
  8
0
 10
-399.250000
 20
-0.250000
 11
399.799988
 21
-0.250000
  0
LINE
  8
0
 10
-399.250000
 20
-261.750000
 11
133.449997
 21
-261.750000
  0
LINE
  8
0
 10
-399.250000
 20
14.750000
 11
399.799988
 21
14.750000
  0
LINE
  8
0
 10
-132.900009
 20
276.250000
 11
-132.900009
 21
-276.750000
  0
LINE
  8
0
 10
133.449997
 20
276.250000
 11
133.449997
 21
-276.750000
  0
LINE
  8
0
 10
133.449997
 20
-236.750000
 11
399.799988
 21
-236.750000
  0
LINE
  8
0
  6
PHANTOM
 10
-356.196564
 20
227.262970
 11
-328.196564
 21
227.262970
  0
LINE
  8
0
  6
PHANTOM
 10
-356.196564
 20
129.262970
 11
-328.196564
 21
129.262970
  0
LINE
  8
0
  6
PHANTOM
 10
-356.196564
 20
227.262970
 11
-356.196564
 21
129.262970
  0
LINE
  8
0
  6
PHANTOM
 10
-328.196564
 20
227.262970
 11
-328.196564
 21
129.262970
  0
LINE
  8
0
  6
PHANTOM
 10
-58.987671
 20
242.262970
 11
-86.987671
 21
242.262970
  0
LINE
  8
0
  6
PHANTOM
 10
-86.987671
 20
242.262970
 11
-86.987671
 21
144.262970
  0
LINE
  8
0
  6
PHANTOM
 10
-86.987671
 20
144.262970
 11
-58.987671
 21
144.262970
  0
LINE
  8
0
  6
PHANTOM
 10
-58.987671
 20
144.262970
 11
-58.987671
 21
242.262970
  0
LINE
  8
0
  6
PHANTOM
 10
206.801514
 20
242.262970
 11
178.801514
 21
242.262970
  0
LINE
  8
0
  6
PHANTOM
 10
178.801514
 20
242.262970
 11
178.801514
 21
144.262970
  0
LINE
  8
0
  6
PHANTOM
 10
178.801514
 20
144.262970
 11
206.801514
 21
144.262970
  0
LINE
  8
0
  6
PHANTOM
 10
206.801514
 20
242.262970
 11
206.801514
 21
144.262970
  0
LINE
  8
0
  6
PHANTOM
 10
-327.696564
 20
-30.295990
 11
-355.696564
 21
-30.295990
  0
LINE
  8
0
  6
PHANTOM
 10
-355.696564
 20
-30.295990
 11
-355.696564
 21
-128.295990
  0
LINE
  8
0
  6
PHANTOM
 10
-355.696564
 20
-128.295990
 11
-327.696564
 21
-128.295990
  0
LINE
  8
0
  6
PHANTOM
 10
-327.696564
 20
-128.295990
 11
-327.696564
 21
-30.295990
  0
LINE
  8
0
  6
PHANTOM
 10
-86.987671
 20
-30.295990
 11
-58.987671
 21
-30.295990
  0
LINE
  8
0
  6
PHANTOM
 10
-86.987671
 20
-30.295990
 11
-86.987671
 21
-128.295990
  0
LINE
  8
0
  6
PHANTOM
 10
-86.987671
 20
-128.295990
 11
-58.987671
 21
-128.295990
  0
LINE
  8
0
  6
PHANTOM
 10
-58.987671
 20
-128.295990
 11
-58.987671
 21
-30.295990
  0
LINE
  8
0
  6
PHANTOM
 10
206.801514
 20
-19.295990
 11
178.801514
 21
-19.295990
  0
LINE
  8
0
  6
PHANTOM
 10
178.801514
 20
-19.295990
 11
178.801514
 21
-117.295990
  0
LINE
  8
0
  6
PHANTOM
 10
178.801514
 20
-117.295990
 11
206.801514
 21
-117.295990
  0
LINE
  8
0
  6
PHANTOM
 10
206.801514
 20
-117.295990
 11
206.801514
 21
-19.295990
  0
TEXT
  8
0
 10
-345.785156
 20
253.500000
 40
12.500000
  1
X88M
 50
0.000000
 41
1.052632
 51
0.000000
  7
STANDARD
  0
TEXT
  8
0
 10
242.014816
 20
-274.500000
 40
12.500000
  1
KOGANEI CORP.
 50
0.000000
 41
1.052632
 51
0.000000
  7
STANDARD
  0
TEXT
  8
0
 10
251.264664
 20
256.649994
 40
9.000000
  1
DATE: SEP ,1992
 50
0.000000
 41
1.052632
 51
0.000000
  7
STANDARD
  0
TEXT
  8
0
 10
-366.110718
 20
0.150000
 40
9.000000
  1
MODEL : FMW180-4E1-J6S
 50
0.000000
 41
1.052632
 51
0.000000
  7
STANDARD
  0
TEXT
  8
0
 10
-99.760719
 20
0.150000
 40
9.000000
  1
MODEL : FMW180-4E1-J4U
 50
0.000000
 41
1.052632
 51
0.000000
  7
STANDARD
  0
TEXT
  8
0
 10
166.589279
 20
0.150000
 40
9.000000
  1
MODEL : FMW180-4E1-J6U
 50
0.000000
 41
1.052632
 51
0.000000
  7
STANDARD
  0
TEXT
  8
0
 10
-370.610718
 20
-276.350006
 40
9.000000
  1
MODEL : FMW180-4KE2-J6S
 50
0.000000
 41
1.052632
 51
0.000000
  7
STANDARD
  0
TEXT
  8
0
 10
-104.260712
 20
-276.350006
 40
9.000000
  1
MODEL : FMW180-4KE2-J4U
 50
0.000000
 41
1.052632
 51
0.000000
  7
STANDARD
  0
TEXT
  8
0
 10
162.089294
 20
-251.350006
 40
9.000000
  1
MODEL : FMW180-4KE2-J6U
 50
0.000000
 41
1.052632
 51
0.000000
  7
STANDARD
  0
POINT
  8
0
 10
-207.196564
 20
129.763031
  0
POINT
  8
0
 10
-188.196564
 20
129.763031
  0
LINE
  8
0
 10
-188.196564
 20
227.763031
 11
-188.196564
 21
129.763031
  0
LINE
  8
0
 10
-207.196564
 20
129.763031
 11
-188.196564
 21
129.763031
  0
LINE
  8
0
 10
-197.696564
 20
230.763046
 11
-197.696564
 21
125.346375
  0
LINE
  8
0
 10
-207.196564
 20
180.763031
 11
-188.196564
 21
180.763031
  0
LINE
  8
0
 10
-207.196564
 20
138.763046
 11
-188.196564
 21
138.763046
  0
LINE
  8
0
 10
-200.618286
 20
195.463028
 11
-194.786880
 21
195.463028
  0
LINE
  8
0
 10
-207.196564
 20
198.963028
 11
-188.196564
 21
198.963028
  0
LINE
  8
0
 10
-203.196579
 20
200.763031
 11
-192.196579
 21
200.763031
  0
LINE
  8
0
 10
-203.196579
 20
214.963058
 11
-192.196579
 21
214.963058
  0
LINE
  8
0
 10
-203.196579
 20
222.463058
 11
-192.196579
 21
222.463058
  0
LINE
  8
0
 10
-203.196579
 20
222.463058
 11
-203.196579
 21
214.963058
  0
LINE
  8
0
 10
-192.196579
 20
222.463058
 11
-192.196579
 21
214.963058
  0
LINE
  8
0
 10
-194.196579
 20
207.963043
 11
-194.196579
 21
203.963043
  0
LINE
  8
0
 10
-201.196579
 20
207.963058
 11
-201.196579
 21
203.963058
  0
LINE
  8
0
 10
-203.196579
 20
213.263062
 11
-203.196579
 21
200.763046
  0
LINE
  8
0
 10
-192.196579
 20
213.263062
 11
-192.196579
 21
200.763046
  0
LINE
  8
0
 10
-203.196579
 20
213.263046
 11
-192.196579
 21
213.263046
  0
LINE
  8
0
 10
-201.196579
 20
203.963043
 11
-194.196579
 21
203.963043
  0
LINE
  8
0
 10
-201.196579
 20
207.963043
 11
-194.196579
 21
207.963043
  0
LINE
  8
0
 10
-207.196564
 20
225.363052
 11
-188.196564
 21
225.363052
  0
LINE
  8
0
 10
-205.196487
 20
225.362976
 11
-204.096451
 21
227.363037
  0
LINE
  8
0
 10
-191.296631
 20
227.363007
 11
-190.196609
 21
225.362976
  0
LINE
  8
0
 10
-190.096558
 20
128.863022
 11
-205.296570
 21
128.863022
  0
LINE
  8
0
 10
-203.696564
 20
128.863022
 11
-203.696564
 21
127.563034
  0
LINE
  8
0
 10
-196.696564
 20
128.863022
 11
-196.696564
 21
127.563034
  0
LINE
  8
0
 10
-190.296570
 20
126.363037
 11
-205.096558
 21
126.363037
  0
LINE
  8
0
 10
-190.296570
 20
127.563034
 11
-205.096558
 21
127.563034
  0
LINE
  8
0
 10
-205.296570
 20
129.763031
 11
-205.296570
 21
128.863022
  0
LINE
  8
0
 10
-205.096558
 20
127.563034
 11
-205.096558
 21
126.363037
  0
LINE
  8
0
 10
-195.296570
 20
127.563034
 11
-195.296570
 21
126.363037
  0
LINE
  8
0
 10
-191.696564
 20
128.863022
 11
-191.696564
 21
127.563034
  0
LINE
  8
0
 10
-190.096558
 20
129.763031
 11
-190.096558
 21
128.863022
  0
LINE
  8
0
 10
-190.296570
 20
127.563034
 11
-190.296570
 21
126.363037
  0
LINE
  8
0
 10
-207.196564
 20
227.763031
 11
-188.196564
 21
227.763031
  0
LINE
  8
0
 10
-204.096466
 20
227.363052
 11
-191.296570
 21
227.363052
  0
CIRCLE
  8
0
 10
-197.696594
 20
195.463028
 40
1.650000
  0
POINT
  8
0
 10
-207.196564
 20
74.263031
  0
POINT
  8
0
 10
-188.196564
 20
74.263031
  0
LINE
  8
0
 10
-188.196564
 20
74.263031
 11
-188.196564
 21
47.263031
  0
LINE
  8
0
 10
-207.196564
 20
47.263031
 11
-188.196564
 21
47.263031
  0
LINE
  8
0
 10
-188.696564
 20
74.263031
 11
-188.696564
 21
102.263031
  0
LINE
  8
0
 10
-206.696564
 20
74.263031
 11
-206.696564
 21
102.263031
  0
LINE
  8
0
 10
-206.696564
 20
102.263031
 11
-188.696564
 21
102.263031
  0
LINE
  8
0
 10
-190.871140
 20
106.263031
 11
-204.521942
 21
106.263031
  0
LINE
  8
0
 10
-204.661621
 20
102.263031
 11
-204.521942
 21
106.263023
  0
LINE
  8
0
 10
-190.731445
 20
102.263031
 11
-190.871124
 21
106.263039
  0
LINE
  8
0
 10
-195.296570
 20
66.263031
 11
-195.296570
 21
64.263031
  0
LINE
  8
0
 10
-205.096558
 20
66.263031
 11
-205.096558
 21
64.263031
  0
LINE
  8
0
 10
-190.296570
 20
55.263031
 11
-190.296570
 21
53.263031
  0
LINE
  8
0
 10
-200.096558
 20
55.263031
 11
-200.096558
 21
53.263031
  0
LINE
  8
0
 10
-207.196564
 20
74.263031
 11
-188.196564
 21
74.263031
  0
LINE
  8
0
 10
-206.196564
 20
65.263031
 11
-194.196564
 21
65.263031
  0
LINE
  8
0
 10
-201.196564
 20
54.263031
 11
-189.196564
 21
54.263031
  0
LINE
  8
0
 10
-200.196564
 20
72.763031
 11
-200.196564
 21
57.763031
  0
LINE
  8
0
 10
-195.196564
 20
61.763031
 11
-195.196564
 21
46.763031
  0
LINE
  8
0
 10
-206.696564
 20
75.263031
 11
-188.696564
 21
75.263031
  0
CIRCLE
  8
0
 10
-200.196564
 20
65.263031
 40
3.000000
  0
ARC
  8
0
 10
-200.196564
 20
66.263031
 40
4.899994
 50
0.000000
 51
180.000000
  0
ARC
  8
0
 10
-200.196564
 20
64.263031
 40
4.899994
 50
180.000000
 51
0.000000
  0
CIRCLE
  8
0
 10
-195.196564
 20
54.263031
 40
3.000000
  0
ARC
  8
0
 10
-195.196564
 20
55.263031
 40
4.899994
 50
0.000000
 51
179.999954
  0
ARC
  8
0
 10
-195.196564
 20
53.263031
 40
4.899994
 50
179.999954
 51
0.000000
  0
TEXT
  8
0
 10
-192.875000
 20
63.563030
 40
3.000000
  1
B
 50
0.000000
 41
1.052632
 51
0.000000
  7
STANDARD
  0
TEXT
  8
0
 10
-205.875000
 20
52.563030
 40
3.000000
  1
A
 50
0.000000
 41
1.052632
 51
0.000000
  7
STANDARD
  0
POINT
  8
0
 10
-328.196533
 20
129.263000
  0
POINT
  8
0
 10
-308.196564
 20
129.263000
  0
LINE
  8
0
 10
-301.196533
 20
198.462967
 11
-301.196594
 21
129.862991
  0
LINE
  8
0
 10
-328.196564
 20
129.863007
 11
-301.196594
 21
129.862991
  0
LINE
  8
0
 10
-328.196503
 20
198.462982
 11
-301.196533
 21
198.462967
  0
LINE
  8
0
 10
-328.196564
 20
138.263000
 11
-301.196594
 21
138.262985
  0
LINE
  8
0
 10
-328.196533
 20
180.263000
 11
-301.196564
 21
180.262985
  0
LINE
  8
0
 10
-302.696594
 20
198.945587
 11
-297.679138
 21
199.120819
  0
LINE
  8
0
 10
-328.196503
 20
224.863007
 11
-297.496521
 21
224.862991
  0
LINE
  8
0
 10
-326.011108
 20
226.863007
 11
-303.881958
 21
226.863007
  0
LINE
  8
0
 10
-327.196533
 20
224.863007
 11
-326.279449
 21
226.697174
  0
LINE
  8
0
 10
-302.696533
 20
224.862946
 11
-303.613586
 21
226.697083
  0
LINE
  8
0
 10
-297.196533
 20
224.562973
 11
-297.196533
 21
199.620438
  0
LINE
  8
0
 10
-302.696533
 20
224.862991
 11
-302.696533
 21
198.462967
  0
LINE
  8
0
 10
-332.296539
 20
127.062988
 11
-332.296539
 21
125.862991
  0
LINE
  8
0
 10
-333.096558
 20
128.362991
 11
-343.296570
 21
128.363007
  0
LINE
  8
0
 10
-344.096558
 20
127.063004
 11
-344.096558
 21
125.863007
  0
LINE
  8
0
 10
-338.196533
 20
131.263000
 11
-338.196533
 21
123.862999
  0
LINE
  8
0
 10
-341.696533
 20
128.363007
 11
-341.696533
 21
127.062996
  0
LINE
  8
0
 10
-334.696533
 20
128.362991
 11
-334.696533
 21
127.062996
  0
LINE
  8
0
 10
-332.296539
 20
125.862991
 11
-355.096558
 21
125.863014
  0
LINE
  8
0
 10
-332.296539
 20
127.062988
 11
-355.096558
 21
127.063011
  0
LINE
  8
0
 10
-343.296570
 20
129.263016
 11
-343.296570
 21
128.363007
  0
LINE
  8
0
 10
-333.096558
 20
129.263000
 11
-333.096558
 21
128.362991
  0
LINE
  8
0
 10
-344.096558
 20
128.363007
 11
-354.296570
 21
128.363007
  0
LINE
  8
0
 10
-355.096558
 20
127.063011
 11
-355.096558
 21
125.863014
  0
LINE
  8
0
 10
-349.196533
 20
131.263016
 11
-349.196533
 21
123.863007
  0
LINE
  8
0
 10
-352.696533
 20
128.363007
 11
-352.696533
 21
127.063004
  0
LINE
  8
0
 10
-345.696533
 20
128.363007
 11
-345.696533
 21
127.063004
  0
LINE
  8
0
 10
-354.296570
 20
129.263016
 11
-354.296570
 21
128.363007
  0
LINE
  8
0
 10
-344.096558
 20
129.263016
 11
-344.096558
 21
128.363007
  0
ARC
  8
0
 10
-355.593842
 20
223.463013
 40
0.199988
 50
214.417557
 51
270.000000
  0
ARC
  8
0
 10
-303.881958
 20
226.562988
 40
0.300008
 50
26.562445
 51
90.000000
  0
ARC
  8
0
 10
-297.496521
 20
224.562973
 40
0.300018
 50
0.000000
 51
90.000000
  0
ARC
  8
0
 10
-297.696533
 20
199.620407
 40
0.500000
 50
272.000732
 51
0.000000
  0
ARC
  8
0
 10
-326.011108
 20
226.562988
 40
0.300018
 50
90.000000
 51
153.432343
  0
POINT
  8
0
 10
62.012337
 20
144.262970
  0
POINT
  8
0
 10
81.012337
 20
144.262970
  0
LINE
  8
0
 10
81.012337
 20
242.262970
 11
81.012337
 21
144.262970
  0
LINE
  8
0
 10
62.012337
 20
242.262970
 11
81.012337
 21
242.262970
  0
LINE
  8
0
 10
62.012337
 20
144.262970
 11
81.012337
 21
144.262970
  0
LINE
  8
0
 10
71.512337
 20
245.262985
 11
71.512337
 21
139.846313
  0
LINE
  8
0
 10
62.012337
 20
195.262970
 11
81.012337
 21
195.262970
  0
LINE
  8
0
 10
62.012337
 20
153.262985
 11
81.012337
 21
153.262985
  0
LINE
  8
0
 10
68.590614
 20
209.962967
 11
74.422020
 21
209.962967
  0
LINE
  8
0
 10
62.012337
 20
212.462967
 11
81.012337
 21
212.462967
  0
LINE
  8
0
 10
66.012321
 20
215.262970
 11
77.012321
 21
215.262970
  0
LINE
  8
0
 10
66.012321
 20
229.462997
 11
77.012321
 21
229.462997
  0
LINE
  8
0
 10
66.012321
 20
236.962997
 11
77.012321
 21
236.962997
  0
LINE
  8
0
 10
66.012321
 20
236.962997
 11
66.012321
 21
229.462997
  0
LINE
  8
0
 10
77.012321
 20
236.962997
 11
77.012321
 21
229.462997
  0
LINE
  8
0
 10
75.012321
 20
222.462982
 11
75.012321
 21
218.462982
  0
LINE
  8
0
 10
68.012321
 20
222.462997
 11
68.012321
 21
218.462997
  0
LINE
  8
0
 10
66.012321
 20
227.763000
 11
66.012321
 21
215.262985
  0
LINE
  8
0
 10
77.012321
 20
227.763000
 11
77.012321
 21
215.262985
  0
LINE
  8
0
 10
66.012321
 20
227.762985
 11
77.012321
 21
227.762985
  0
LINE
  8
0
 10
68.012321
 20
218.462982
 11
75.012321
 21
218.462982
  0
LINE
  8
0
 10
68.012321
 20
222.462982
 11
75.012321
 21
222.462982
  0
LINE
  8
0
 10
62.012337
 20
239.862991
 11
81.012337
 21
239.862991
  0
LINE
  8
0
 10
65.112442
 20
241.862991
 11
77.912277
 21
241.862991
  0
LINE
  8
0
 10
64.012405
 20
239.862915
 11
65.112442
 21
241.862976
  0
LINE
  8
0
 10
77.912231
 20
241.862946
 11
79.012253
 21
239.862915
  0
LINE
  8
0
 10
62.862343
 20
144.262970
 11
62.862343
 21
143.462982
  0
LINE
  8
0
 10
65.112343
 20
137.762970
 11
65.112343
 21
139.762970
  0
LINE
  8
0
 10
72.912346
 20
137.762970
 11
72.912346
 21
139.762970
  0
LINE
  8
0
 10
74.862343
 20
143.462982
 11
74.862343
 21
144.262970
  0
LINE
  8
0
 10
74.862343
 20
143.462982
 11
70.245216
 21
143.462982
  0
LINE
  8
0
 10
65.012337
 20
143.462982
 11
65.012337
 21
141.462967
  0
LINE
  8
0
 10
73.012337
 20
143.462982
 11
73.012337
 21
141.462967
  0
LINE
  8
0
 10
65.012337
 20
141.462967
 11
65.502357
 21
141.462967
  0
LINE
  8
0
 10
72.522331
 20
141.462967
 11
73.012337
 21
141.462967
  0
LINE
  8
0
 10
67.779472
 20
143.462982
 11
62.862343
 21
143.462982
  0
LINE
  8
0
 10
70.012337
 20
133.162979
 11
70.012337
 21
131.763016
  0
LINE
  8
0
 10
78.012337
 20
133.162979
 11
78.012337
 21
131.762970
  0
LINE
  8
0
 10
73.012337
 20
142.762970
 11
79.862343
 21
142.762970
  0
LINE
  8
0
 10
79.112328
 20
142.762970
 11
79.112328
 21
133.162979
  0
LINE
  8
0
 10
68.912331
 20
133.864258
 11
68.912331
 21
133.162979
  0
LINE
  8
0
 10
68.912346
 20
133.162979
 11
72.101845
 21
133.162979
  0
LINE
  8
0
 10
79.862328
 20
144.262970
 11
79.862328
 21
142.762970
  0
LINE
  8
0
 10
70.112343
 20
127.762970
 11
70.112343
 21
129.762970
  0
LINE
  8
0
 10
77.912331
 20
127.762970
 11
77.912331
 21
129.762970
  0
LINE
  8
0
 10
77.360481
 20
131.762970
 11
78.012337
 21
131.762970
  0
LINE
  8
0
 10
70.012337
 20
131.762970
 11
70.664200
 21
131.762970
  0
LINE
  8
0
 10
75.922821
 20
133.162979
 11
79.112328
 21
133.162979
  0
LINE
  8
0
 10
74.012337
 20
136.262970
 11
74.012337
 21
121.262970
  0
LINE
  8
0
 10
69.012337
 20
146.262970
 11
69.012337
 21
131.262970
  0
LINE
  8
0
 10
63.012337
 20
138.762970
 11
75.012337
 21
138.762970
  0
LINE
  8
0
 10
68.012337
 20
128.762970
 11
80.012337
 21
128.762970
  0
CIRCLE
  8
0
 10
71.512306
 20
209.962967
 40
1.650000
  0
ARC
  8
0
 10
69.012337
 20
137.762970
 40
3.900002
 50
180.000000
 51
0.000000
  0
CIRCLE
  8
0
 10
69.012337
 20
138.762970
 40
2.000000
  0
ARC
  8
0
 10
69.012337
 20
139.762970
 40
3.900002
 50
0.000000
 51
180.000000
  0
ARC
  8
0
 10
74.012337
 20
127.762970
 40
3.900002
 50
180.000000
 51
0.000000
  0
CIRCLE
  8
0
 10
74.012337
 20
128.762970
 40
2.000000
  0
ARC
  8
0
 10
74.012337
 20
129.762970
 40
3.900002
 50
0.000000
 51
180.000000
  0
POINT
  8
0
 10
62.012337
 20
63.762970
  0
POINT
  8
0
 10
81.012337
 20
63.762970
  0
LINE
  8
0
 10
81.012337
 20
63.762970
 11
81.012337
 21
36.762970
  0
LINE
  8
0
 10
62.012337
 20
36.762970
 11
81.012337
 21
36.762970
  0
LINE
  8
0
 10
71.512337
 20
35.762970
 11
71.512337
 21
96.762970
  0
LINE
  8
0
 10
80.512337
 20
63.762970
 11
80.512337
 21
91.762970
  0
LINE
  8
0
 10
62.512337
 20
63.762970
 11
62.512337
 21
91.762970
  0
LINE
  8
0
 10
62.512337
 20
91.762970
 11
80.512337
 21
91.762970
  0
LINE
  8
0
 10
78.337746
 20
95.762970
 11
64.686966
 21
95.762970
  0
LINE
  8
0
 10
64.547287
 20
91.762970
 11
64.686966
 21
95.762970
  0
LINE
  8
0
 10
78.477448
 20
91.762947
 11
78.337761
 21
95.762970
  0
LINE
  8
0
 10
76.512337
 20
56.512970
 11
76.512337
 21
57.912964
  0
LINE
  8
0
 10
77.412331
 20
49.612976
 11
77.412331
 21
43.762970
  0
LINE
  8
0
 10
70.612328
 20
49.612976
 11
70.612328
 21
43.762970
  0
LINE
  8
0
 10
77.912331
 20
57.912979
 11
70.112328
 21
57.912979
  0
LINE
  8
0
 10
78.012337
 20
49.612961
 11
78.012337
 21
56.512970
  0
LINE
  8
0
 10
71.512337
 20
57.312973
 11
71.512337
 21
57.912964
  0
LINE
  8
0
 10
78.012337
 20
56.512970
 11
70.012337
 21
56.512970
  0
LINE
  8
0
 10
78.012337
 20
49.612976
 11
70.012337
 21
49.612976
  0
LINE
  8
0
 10
70.012337
 20
49.612961
 11
70.012337
 21
56.512970
  0
LINE
  8
0
 10
70.112328
 20
57.912979
 11
70.112328
 21
59.112976
  0
LINE
  8
0
 10
77.912331
 20
57.912979
 11
77.912331
 21
59.112976
  0
LINE
  8
0
 10
77.912331
 20
59.112976
 11
70.112328
 21
59.112976
  0
LINE
  8
0
 10
72.412331
 20
60.612961
 11
72.412331
 21
59.112976
  0
LINE
  8
0
 10
65.612343
 20
60.612961
 11
65.612343
 21
54.762970
  0
LINE
  8
0
 10
73.012337
 20
60.612961
 11
65.012337
 21
60.612961
  0
LINE
  8
0
 10
73.012337
 20
67.512970
 11
65.012337
 21
67.512970
  0
LINE
  8
0
 10
71.512337
 20
67.512970
 11
71.512337
 21
68.912964
  0
LINE
  8
0
 10
72.912331
 20
68.912964
 11
65.112343
 21
68.912964
  0
LINE
  8
0
 10
66.512337
 20
67.512970
 11
66.512337
 21
68.912964
  0
LINE
  8
0
 10
65.112343
 20
68.912964
 11
65.112343
 21
70.112961
  0
LINE
  8
0
 10
72.912331
 20
70.112961
 11
65.112343
 21
70.112961
  0
LINE
  8
0
 10
72.912331
 20
68.912964
 11
72.912331
 21
70.112961
  0
LINE
  8
0
 10
65.012337
 20
60.612961
 11
65.012337
 21
67.512955
  0
LINE
  8
0
 10
73.012337
 20
60.612961
 11
73.012337
 21
67.512955
  0
LINE
  8
0
 10
62.012337
 20
63.762970
 11
65.012337
 21
63.762970
  0
LINE
  8
0
 10
73.012337
 20
63.762970
 11
81.012337
 21
63.762970
  0
LINE
  8
0
 10
62.512337
 20
64.762970
 11
65.012337
 21
64.762970
  0
LINE
  8
0
 10
73.012337
 20
64.762970
 11
80.512337
 21
64.762970
  0
ARC
  8
0
 10
74.012337
 20
43.762970
 40
3.400002
 50
180.000000
 51
270.000000
  0
ARC
  8
0
 10
74.012337
 20
43.762970
 40
3.400002
 50
270.000000
 51
0.000000
  0
ARC
  8
0
 10
69.012337
 20
54.762970
 40
3.400002
 50
180.000000
 51
278.674805
  0
ARC
  8
0
 10
69.012337
 20
54.762970
 40
3.399998
 50
278.428833
 51
287.104492
  0
TEXT
  8
0
 10
76.528343
 20
59.577221
 40
3.000000
  1
B
 50
0.000000
 41
1.052632
 51
0.000000
  7
STANDARD
  0
TEXT
  8
0
 10
63.333900
 20
42.062969
 40
3.000000
  1
A
 50
0.000000
 41
1.052632
 51
0.000000
  7
STANDARD
  0
POINT
  8
0
 10
-38.987671
 20
144.262970
  0
POINT
  8
0
 10
-58.987671
 20
144.262970
  0
LINE
  8
0
 10
-31.987717
 20
213.462982
 11
-31.987717
 21
144.862991
  0
LINE
  8
0
 10
-58.987671
 20
144.862991
 11
-31.987717
 21
144.862991
  0
LINE
  8
0
 10
-58.987671
 20
213.462982
 11
-31.987717
 21
213.462982
  0
LINE
  8
0
 10
-58.987671
 20
153.262985
 11
-31.987717
 21
153.262985
  0
LINE
  8
0
 10
-58.987671
 20
195.262985
 11
-31.987717
 21
195.262985
  0
LINE
  8
0
 10
-32.987705
 20
213.963043
 11
-28.470255
 21
214.120789
  0
LINE
  8
0
 10
-32.987717
 20
213.462982
 11
-32.987717
 21
239.862991
  0
LINE
  8
0
 10
-58.987671
 20
239.862991
 11
-28.287704
 21
239.862991
  0
LINE
  8
0
 10
-56.802292
 20
241.862991
 11
-34.673111
 21
241.862991
  0
LINE
  8
0
 10
-57.987659
 20
239.862976
 11
-57.070576
 21
241.697128
  0
LINE
  8
0
 10
-33.487682
 20
239.862976
 11
-34.404766
 21
241.697144
  0
LINE
  8
0
 10
-27.987717
 20
239.562973
 11
-27.987717
 21
214.620438
  0
LINE
  8
0
 10
-56.387665
 20
136.262985
 11
-54.987671
 21
136.262985
  0
LINE
  8
0
 10
-54.987671
 20
143.662979
 11
-53.787659
 21
143.662979
  0
LINE
  8
0
 10
-72.987656
 20
144.262970
 11
-72.987656
 21
137.862976
  0
LINE
  8
0
 10
-64.987656
 20
144.262970
 11
-64.987656
 21
141.662979
  0
LINE
  8
0
 10
-69.887650
 20
134.762985
 11
-56.387665
 21
134.762985
  0
LINE
  8
0
 10
-63.287655
 20
142.762985
 11
-56.387665
 21
142.762985
  0
LINE
  8
0
 10
-64.987656
 20
141.662979
 11
-63.287659
 21
141.662979
  0
LINE
  8
0
 10
-63.287659
 20
142.762985
 11
-63.287659
 21
134.762985
  0
LINE
  8
0
 10
-56.387665
 20
142.762985
 11
-56.387665
 21
134.762985
  0
LINE
  8
0
 10
-53.787659
 20
143.662979
 11
-53.787659
 21
133.862976
  0
LINE
  8
0
 10
-54.987671
 20
143.662979
 11
-54.987671
 21
133.862976
  0
LINE
  8
0
 10
-56.387665
 20
141.262985
 11
-54.987671
 21
141.262985
  0
LINE
  8
0
 10
-54.987671
 20
133.862976
 11
-53.787659
 21
133.862976
  0
LINE
  8
0
 10
-83.987656
 20
133.162979
 11
-83.987656
 21
127.862976
  0
LINE
  8
0
 10
-75.987656
 20
133.162979
 11
-75.987656
 21
131.662979
  0
LINE
  8
0
 10
-80.887657
 20
124.762985
 11
-67.387650
 21
124.762985
  0
LINE
  8
0
 10
-74.287659
 20
132.762985
 11
-67.387650
 21
132.762985
  0
LINE
  8
0
 10
-75.987656
 20
131.662979
 11
-74.287659
 21
131.662979
  0
LINE
  8
0
 10
-74.287659
 20
132.762985
 11
-74.287659
 21
124.762985
  0
LINE
  8
0
 10
-67.387657
 20
132.762985
 11
-67.387657
 21
124.762985
  0
LINE
  8
0
 10
-64.787659
 20
133.662979
 11
-64.787659
 21
123.862976
  0
LINE
  8
0
 10
-65.987656
 20
133.662979
 11
-65.987656
 21
123.862976
  0
LINE
  8
0
 10
-67.387657
 20
131.262985
 11
-65.987656
 21
131.262985
  0
LINE
  8
0
 10
-67.387657
 20
126.262985
 11
-65.987656
 21
126.262985
  0
LINE
  8
0
 10
-65.987656
 20
133.662979
 11
-64.787651
 21
133.662979
  0
LINE
  8
0
 10
-65.987656
 20
123.862976
 11
-64.787651
 21
123.862976
  0
LINE
  8
0
 10
-74.887657
 20
144.262970
 11
-74.887657
 21
133.162979
  0
LINE
  8
0
 10
-85.087654
 20
144.262970
 11
-85.087654
 21
133.162979
  0
LINE
  8
0
 10
-85.087654
 20
133.162979
 11
-74.887650
 21
133.162979
  0
ARC
  8
0
 10
-86.385017
 20
238.462967
 40
0.200003
 50
214.419937
 51
270.000000
  0
ARC
  8
0
 10
-28.487717
 20
214.620422
 40
0.499999
 50
272.000061
 51
0.000000
  0
ARC
  8
0
 10
-56.802292
 20
241.562973
 40
0.300003
 50
90.000000
 51
153.433975
  0
ARC
  8
0
 10
-28.287704
 20
239.562973
 40
0.299999
 50
0.000000
 51
90.000000
  0
ARC
  8
0
 10
-34.673111
 20
241.562973
 40
0.300001
 50
26.566355
 51
90.000000
  0
ARC
  8
0
 10
-69.887650
 20
137.862976
 40
3.100006
 50
180.000000
 51
270.000000
  0
ARC
  8
0
 10
-80.887657
 20
127.862976
 40
3.099998
 50
180.000000
 51
270.000000
  0
POINT
  8
0
 10
327.801514
 20
144.763000
  0
POINT
  8
0
 10
346.801514
 20
144.763000
  0
LINE
  8
0
 10
346.801514
 20
242.763000
 11
346.801514
 21
144.763000
  0
LINE
  8
0
 10
327.801514
 20
242.763000
 11
346.801514
 21
242.763000
  0
LINE
  8
0
 10
327.801514
 20
144.763000
 11
346.801514
 21
144.763000
  0
LINE
  8
0
 10
337.301514
 20
245.763016
 11
337.301514
 21
140.346344
  0
LINE
  8
0
 10
327.801514
 20
195.763000
 11
346.801514
 21
195.763000
  0
LINE
  8
0
 10
327.801514
 20
153.763016
 11
346.801514
 21
153.763016
  0
LINE
  8
0
 10
334.379791
 20
210.462997
 11
340.211182
 21
210.462997
  0
LINE
  8
0
 10
327.801514
 20
212.962997
 11
346.801514
 21
212.962997
  0
LINE
  8
0
 10
331.801514
 20
215.763000
 11
342.801514
 21
215.763000
  0
LINE
  8
0
 10
331.801514
 20
229.963028
 11
342.801514
 21
229.963028
  0
LINE
  8
0
 10
331.801514
 20
237.463028
 11
342.801514
 21
237.463028
  0
LINE
  8
0
 10
331.801514
 20
237.463028
 11
331.801514
 21
229.963028
  0
LINE
  8
0
 10
342.801514
 20
237.463028
 11
342.801514
 21
229.963028
  0
LINE
  8
0
 10
340.801514
 20
222.963013
 11
340.801514
 21
218.963013
  0
LINE
  8
0
 10
333.801514
 20
222.963028
 11
333.801514
 21
218.963028
  0
LINE
  8
0
 10
331.801514
 20
228.263031
 11
331.801514
 21
215.763016
  0
LINE
  8
0
 10
342.801514
 20
228.263031
 11
342.801514
 21
215.763016
  0
LINE
  8
0
 10
331.801514
 20
228.263016
 11
342.801514
 21
228.263016
  0
LINE
  8
0
 10
333.801514
 20
218.963013
 11
340.801514
 21
218.963013
  0
LINE
  8
0
 10
333.801514
 20
222.963013
 11
340.801514
 21
222.963013
  0
LINE
  8
0
 10
327.801514
 20
240.363022
 11
346.801514
 21
240.363022
  0
LINE
  8
0
 10
330.901611
 20
242.363022
 11
343.701508
 21
242.363022
  0
LINE
  8
0
 10
329.801605
 20
240.362961
 11
330.901611
 21
242.363007
  0
LINE
  8
0
 10
343.701447
 20
242.362976
 11
344.801453
 21
240.362961
  0
LINE
  8
0
 10
328.651520
 20
144.763000
 11
328.651520
 21
143.963013
  0
LINE
  8
0
 10
340.651520
 20
143.963013
 11
340.651520
 21
144.763000
  0
LINE
  8
0
 10
340.651520
 20
143.963013
 11
336.187134
 21
143.963013
  0
LINE
  8
0
 10
330.801514
 20
143.963013
 11
330.801514
 21
142.093201
  0
LINE
  8
0
 10
338.801514
 20
143.963013
 11
338.801514
 21
142.093201
  0
LINE
  8
0
 10
333.415894
 20
143.963013
 11
328.651520
 21
143.963013
  0
LINE
  8
0
 10
329.901520
 20
139.263000
 11
329.901520
 21
137.263000
  0
LINE
  8
0
 10
339.701508
 20
139.263000
 11
339.701508
 21
137.263000
  0
LINE
  8
0
 10
338.801514
 20
143.263000
 11
345.651520
 21
143.263000
  0
LINE
  8
0
 10
344.901489
 20
143.263000
 11
344.901489
 21
131.263000
  0
LINE
  8
0
 10
334.701508
 20
132.364029
 11
334.701508
 21
131.263000
  0
LINE
  8
0
 10
335.801514
 20
131.263000
 11
335.801514
 21
130.093201
  0
LINE
  8
0
 10
343.801514
 20
131.263000
 11
343.801514
 21
130.093201
  0
LINE
  8
0
 10
334.701538
 20
131.263000
 11
336.971313
 21
131.263000
  0
LINE
  8
0
 10
345.651489
 20
144.763000
 11
345.651489
 21
143.263000
  0
LINE
  8
0
 10
344.701508
 20
127.263000
 11
344.701508
 21
125.263000
  0
LINE
  8
0
 10
334.901520
 20
127.263000
 11
334.901520
 21
125.263000
  0
LINE
  8
0
 10
342.631714
 20
131.263000
 11
344.901520
 21
131.263000
  0
LINE
  8
0
 10
333.801514
 20
126.263000
 11
345.801514
 21
126.263000
  0
LINE
  8
0
 10
328.801514
 20
138.263000
 11
340.801514
 21
138.263000
  0
LINE
  8
0
 10
334.801514
 20
145.763000
 11
334.801514
 21
130.763000
  0
LINE
  8
0
 10
339.801514
 20
133.763000
 11
339.801514
 21
118.763000
  0
CIRCLE
  8
0
 10
337.301483
 20
210.462997
 40
1.650000
  0
ARC
  8
0
 10
334.801514
 20
139.263000
 40
4.899994
 50
0.000000
 51
180.000000
  0
ARC
  8
0
 10
334.801514
 20
137.263000
 40
4.899994
 50
180.000000
 51
0.000000
  0
CIRCLE
  8
0
 10
334.801514
 20
138.263000
 40
3.000000
  0
CIRCLE
  8
0
 10
339.801514
 20
126.263000
 40
3.000000
  0
ARC
  8
0
 10
339.801514
 20
127.263000
 40
4.899994
 50
0.000000
 51
180.000000
  0
ARC
  8
0
 10
339.801514
 20
125.263000
 40
4.899994
 50
180.000000
 51
0.000000
  0
POINT
  8
0
 10
327.801514
 20
62.263000
  0
POINT
  8
0
 10
346.801514
 20
62.263000
  0
LINE
  8
0
 10
346.801514
 20
62.263000
 11
346.801514
 21
35.263000
  0
LINE
  8
0
 10
327.801514
 20
35.263000
 11
346.801514
 21
35.263000
  0
LINE
  8
0
 10
327.801514
 20
62.263000
 11
329.551514
 21
62.263000
  0
LINE
  8
0
 10
337.301514
 20
34.263000
 11
337.301514
 21
95.263000
  0
LINE
  8
0
 10
346.301514
 20
62.263000
 11
346.301514
 21
90.263000
  0
LINE
  8
0
 10
328.301514
 20
62.263000
 11
328.301514
 21
90.263000
  0
LINE
  8
0
 10
328.301514
 20
90.263000
 11
346.301514
 21
90.263000
  0
LINE
  8
0
 10
344.126923
 20
94.263000
 11
330.476135
 21
94.263000
  0
LINE
  8
0
 10
330.336456
 20
90.263000
 11
330.476135
 21
94.263000
  0
LINE
  8
0
 10
344.266632
 20
90.262985
 11
344.126953
 21
94.263000
  0
LINE
  8
0
 10
344.701508
 20
58.663010
 11
334.901520
 21
58.663010
  0
LINE
  8
0
 10
344.701508
 20
57.462997
 11
334.901520
 21
57.462997
  0
LINE
  8
0
 10
334.901520
 20
57.462997
 11
334.901520
 21
58.663010
  0
LINE
  8
0
 10
344.701508
 20
57.462997
 11
344.701508
 21
58.663010
  0
LINE
  8
0
 10
336.301514
 20
55.813004
 11
336.301514
 21
57.462997
  0
LINE
  8
0
 10
343.301514
 20
55.813004
 11
343.301514
 21
57.462997
  0
LINE
  8
0
 10
334.551514
 20
55.813004
 11
345.051514
 21
55.813004
  0
LINE
  8
0
 10
334.551514
 20
48.612991
 11
345.051514
 21
48.612991
  0
LINE
  8
0
 10
334.551514
 20
48.612991
 11
334.551514
 21
55.813004
  0
LINE
  8
0
 10
345.051514
 20
48.612991
 11
345.051514
 21
55.813004
  0
LINE
  8
0
 10
335.851501
 20
45.013000
 11
335.851501
 21
48.612991
  0
LINE
  8
0
 10
343.751526
 20
45.013000
 11
343.751526
 21
48.612991
  0
LINE
  8
0
 10
336.851501
 20
44.013000
 11
342.751526
 21
44.013000
  0
LINE
  8
0
 10
336.901520
 20
42.413010
 11
336.901520
 21
44.013000
  0
LINE
  8
0
 10
342.701538
 20
44.013000
 11
342.701538
 21
42.413010
  0
LINE
  8
0
 10
340.051514
 20
59.462997
 11
340.051514
 21
66.662994
  0
LINE
  8
0
 10
330.851501
 20
55.862991
 11
330.851501
 21
59.462997
  0
LINE
  8
0
 10
339.701508
 20
69.513000
 11
329.901520
 21
69.513000
  0
LINE
  8
0
 10
339.701508
 20
68.312988
 11
329.901520
 21
68.312988
  0
LINE
  8
0
 10
329.901520
 20
68.312988
 11
329.901520
 21
69.513000
  0
LINE
  8
0
 10
339.701508
 20
68.312988
 11
339.701508
 21
69.513000
  0
LINE
  8
0
 10
331.301514
 20
66.662994
 11
331.301514
 21
68.312988
  0
LINE
  8
0
 10
338.301514
 20
66.662994
 11
338.301514
 21
68.312988
  0
LINE
  8
0
 10
329.551514
 20
66.662994
 11
340.051514
 21
66.662994
  0
LINE
  8
0
 10
329.551514
 20
59.462997
 11
340.051514
 21
59.462997
  0
LINE
  8
0
 10
331.851501
 20
54.862991
 11
334.551514
 21
54.862991
  0
LINE
  8
0
 10
331.901520
 20
53.263000
 11
331.901520
 21
54.862991
  0
LINE
  8
0
 10
329.551514
 20
59.462997
 11
329.551514
 21
66.662994
  0
LINE
  8
0
 10
340.051514
 20
62.263000
 11
346.801514
 21
62.263000
  0
LINE
  8
0
 10
328.301514
 20
63.263000
 11
329.551514
 21
63.263000
  0
LINE
  8
0
 10
340.051514
 20
63.263000
 11
346.301514
 21
63.263000
  0
ARC
  8
0
 10
339.801514
 20
42.413010
 40
2.900004
 50
279.928192
 51
0.000000
  0
ARC
  8
0
 10
342.751526
 20
45.013000
 40
1.000000
 50
270.000000
 51
0.000000
  0
ARC
  8
0
 10
339.801514
 20
42.413010
 40
2.899994
 50
180.000000
 51
281.472687
  0
ARC
  8
0
 10
336.851501
 20
45.013000
 40
1.000000
 50
180.000000
 51
270.000000
  0
ARC
  8
0
 10
331.851501
 20
55.862991
 40
1.000000
 50
180.000000
 51
267.134705
  0
ARC
  8
0
 10
334.801514
 20
53.263000
 40
2.899994
 50
180.000000
 51
265.054565
  0
TEXT
  8
0
 10
342.317535
 20
58.777248
 40
3.000000
  1
B
 50
0.000000
 41
1.052632
 51
0.000000
  7
STANDARD
  0
TEXT
  8
0
 10
329.123077
 20
40.563000
 40
3.000000
  1
A
 50
0.000000
 41
1.052632
 51
0.000000
  7
STANDARD
  0
POINT
  8
0
 10
226.801514
 20
144.262970
  0
POINT
  8
0
 10
206.801514
 20
144.262970
  0
LINE
  8
0
 10
233.801468
 20
213.462982
 11
233.801468
 21
144.862991
  0
LINE
  8
0
 10
206.801514
 20
144.862991
 11
233.801468
 21
144.862991
  0
LINE
  8
0
 10
206.801514
 20
213.462982
 11
233.801468
 21
213.462982
  0
LINE
  8
0
 10
206.801514
 20
153.262985
 11
233.801468
 21
153.262985
  0
LINE
  8
0
 10
206.801514
 20
195.262985
 11
233.801468
 21
195.262985
  0
LINE
  8
0
 10
232.301468
 20
213.945587
 11
237.318924
 21
214.120789
  0
LINE
  8
0
 10
206.801514
 20
239.862991
 11
237.489410
 21
239.862991
  0
LINE
  8
0
 10
208.986893
 20
241.862991
 11
231.116074
 21
241.862991
  0
LINE
  8
0
 10
207.801529
 20
239.862976
 11
208.718613
 21
241.697128
  0
LINE
  8
0
 10
232.301498
 20
239.862976
 11
231.384415
 21
241.697144
  0
LINE
  8
0
 10
237.801468
 20
239.562973
 11
237.801468
 21
214.620438
  0
LINE
  8
0
 10
232.301468
 20
239.862991
 11
232.301468
 21
213.462982
  0
LINE
  8
0
 10
213.051514
 20
143.662979
 11
213.051514
 21
131.862976
  0
LINE
  8
0
 10
211.851517
 20
143.662979
 11
211.851517
 21
131.862976
  0
LINE
  8
0
 10
211.851517
 20
131.862976
 11
213.051514
 21
131.862976
  0
LINE
  8
0
 10
211.851517
 20
143.662979
 11
213.051514
 21
143.662979
  0
LINE
  8
0
 10
202.851532
 20
143.012985
 11
210.051514
 21
143.012985
  0
LINE
  8
0
 10
210.051514
 20
134.262985
 11
211.851517
 21
134.262985
  0
LINE
  8
0
 10
210.051514
 20
141.262985
 11
211.851517
 21
141.262985
  0
LINE
  8
0
 10
210.051514
 20
143.012985
 11
210.051514
 21
132.512985
  0
LINE
  8
0
 10
195.801529
 20
132.512985
 11
210.051514
 21
132.512985
  0
LINE
  8
0
 10
202.851532
 20
143.012985
 11
202.851532
 21
132.512985
  0
LINE
  8
0
 10
202.851532
 20
141.712982
 11
200.801529
 21
141.712982
  0
LINE
  8
0
 10
200.801529
 20
144.262970
 11
200.801529
 21
141.712982
  0
LINE
  8
0
 10
192.801529
 20
144.262970
 11
192.801529
 21
135.512985
  0
LINE
  8
0
 10
199.051529
 20
122.262985
 11
200.851532
 21
122.262985
  0
LINE
  8
0
 10
199.051529
 20
129.262985
 11
200.851532
 21
129.262985
  0
LINE
  8
0
 10
199.051529
 20
131.012985
 11
199.051529
 21
120.512985
  0
LINE
  8
0
 10
191.851532
 20
131.012985
 11
199.051529
 21
131.012985
  0
LINE
  8
0
 10
184.801544
 20
120.512985
 11
199.051529
 21
120.512985
  0
LINE
  8
0
 10
191.851532
 20
131.012985
 11
191.851532
 21
120.512985
  0
LINE
  8
0
 10
191.851532
 20
129.712982
 11
189.801529
 21
129.712982
  0
LINE
  8
0
 10
202.051529
 20
131.662979
 11
202.051529
 21
119.862976
  0
LINE
  8
0
 10
200.851532
 20
119.862976
 11
202.051529
 21
119.862976
  0
LINE
  8
0
 10
200.851532
 20
131.662979
 11
202.051529
 21
131.662979
  0
LINE
  8
0
 10
200.851532
 20
131.662979
 11
200.851532
 21
119.862976
  0
LINE
  8
0
 10
190.901520
 20
144.262970
 11
190.901520
 21
130.762985
  0
LINE
  8
0
 10
180.701538
 20
130.762985
 11
190.901535
 21
130.762985
  0
LINE
  8
0
 10
189.801529
 20
130.762985
 11
189.801529
 21
129.712982
  0
LINE
  8
0
 10
181.801529
 20
130.762985
 11
181.801529
 21
123.512985
  0
LINE
  8
0
 10
180.701538
 20
144.262970
 11
180.701538
 21
130.762985
  0
ARC
  8
0
 10
179.404175
 20
238.462967
 40
0.200009
 50
214.418701
 51
270.000000
  0
ARC
  8
0
 10
237.301468
 20
214.620422
 40
0.500000
 50
272.000732
 51
0.000000
  0
ARC
  8
0
 10
208.986893
 20
241.562973
 40
0.300003
 50
90.000000
 51
153.433640
  0
ARC
  8
0
 10
237.501480
 20
239.562973
 40
0.300003
 50
0.000000
 51
90.000000
  0
ARC
  8
0
 10
231.116074
 20
241.562973
 40
0.300001
 50
26.566355
 51
90.000000
  0
ARC
  8
0
 10
195.801529
 20
135.512985
 40
3.000000
 50
180.000000
 51
270.000000
  0
ARC
  8
0
 10
184.801544
 20
123.512985
 40
3.000000
 50
180.000000
 51
270.000000
  0
POINT
  8
0
 10
-224.696564
 20
-128.296021
  0
POINT
  8
0
 10
-186.696564
 20
-128.296021
  0
LINE
  8
0
 10
-198.696564
 20
-126.296021
 11
-198.696564
 21
-133.696014
  0
LINE
  8
0
 10
-202.196564
 20
-128.996017
 11
-202.196564
 21
-130.496017
  0
LINE
  8
0
 10
-195.196564
 20
-128.996017
 11
-195.196564
 21
-130.496017
  0
LINE
  8
0
 10
-188.796570
 20
-131.696014
 11
-203.596573
 21
-131.696014
  0
LINE
  8
0
 10
-188.796570
 20
-130.496017
 11
-203.596573
 21
-130.496017
  0
LINE
  8
0
 10
-203.796570
 20
-128.296021
 11
-203.796570
 21
-128.996017
  0
LINE
  8
0
 10
-193.596558
 20
-128.296021
 11
-193.596558
 21
-128.996017
  0
LINE
  8
0
 10
-188.596558
 20
-128.996017
 11
-203.796570
 21
-128.996017
  0
LINE
  8
0
 10
-203.596573
 20
-130.496017
 11
-203.596573
 21
-131.696014
  0
LINE
  8
0
 10
-193.796570
 20
-130.496017
 11
-193.796570
 21
-131.696014
  0
LINE
  8
0
 10
-193.696564
 20
-126.296021
 11
-193.696564
 21
-133.696014
  0
LINE
  8
0
 10
-190.196564
 20
-128.996017
 11
-190.196564
 21
-130.496017
  0
LINE
  8
0
 10
-188.596558
 20
-128.296021
 11
-188.596558
 21
-128.996017
  0
LINE
  8
0
 10
-188.796570
 20
-130.496017
 11
-188.796570
 21
-131.696014
  0
LINE
  8
0
 10
-186.696564
 20
-30.296021
 11
-186.696564
 21
-128.296021
  0
LINE
  8
0
 10
-196.196564
 20
-27.296005
 11
-196.196564
 21
-132.712677
  0
LINE
  8
0
 10
-201.696579
 20
-57.296021
 11
-190.696594
 21
-57.296021
  0
LINE
  8
0
 10
-201.696579
 20
-43.096008
 11
-190.696594
 21
-43.096008
  0
LINE
  8
0
 10
-201.696579
 20
-35.596008
 11
-190.696594
 21
-35.596008
  0
LINE
  8
0
 10
-201.696579
 20
-35.595993
 11
-201.696579
 21
-43.095993
  0
LINE
  8
0
 10
-190.696594
 20
-35.596008
 11
-190.696594
 21
-43.096008
  0
LINE
  8
0
 10
-192.696594
 20
-50.096008
 11
-192.696594
 21
-54.096008
  0
LINE
  8
0
 10
-199.696579
 20
-50.095993
 11
-199.696579
 21
-54.095993
  0
LINE
  8
0
 10
-201.696579
 20
-44.795990
 11
-201.696579
 21
-57.296005
  0
LINE
  8
0
 10
-190.696594
 20
-44.796005
 11
-190.696594
 21
-57.296005
  0
LINE
  8
0
 10
-201.696579
 20
-44.796021
 11
-190.696594
 21
-44.796021
  0
LINE
  8
0
 10
-199.696579
 20
-54.096008
 11
-192.696594
 21
-54.096008
  0
LINE
  8
0
 10
-199.696579
 20
-50.096008
 11
-192.696594
 21
-50.096008
  0
LINE
  8
0
 10
-202.596481
 20
-30.695999
 11
-189.796646
 21
-30.695999
  0
LINE
  8
0
 10
-203.696503
 20
-32.696053
 11
-202.596481
 21
-30.696014
  0
LINE
  8
0
 10
-189.796707
 20
-30.696045
 11
-188.696686
 21
-32.696106
  0
LINE
  8
0
 10
-205.696564
 20
-30.296021
 11
-205.696564
 21
-77.296021
  0
LINE
  8
0
 10
-224.696564
 20
-30.296021
 11
-186.696564
 21
-30.296021
  0
LINE
  8
0
 10
-224.696564
 20
-128.296021
 11
-186.696564
 21
-128.296021
  0
LINE
  8
0
 10
-215.196564
 20
-27.296005
 11
-215.196564
 21
-132.712677
  0
LINE
  8
0
 10
-220.696579
 20
-57.296021
 11
-209.696579
 21
-57.296021
  0
LINE
  8
0
 10
-220.696579
 20
-43.096008
 11
-209.696579
 21
-43.096008
  0
LINE
  8
0
 10
-220.696579
 20
-35.596008
 11
-209.696579
 21
-35.596008
  0
LINE
  8
0
 10
-220.696579
 20
-35.595993
 11
-220.696579
 21
-43.095993
  0
LINE
  8
0
 10
-209.696579
 20
-35.596008
 11
-209.696579
 21
-43.096008
  0
LINE
  8
0
 10
-211.696579
 20
-50.096008
 11
-211.696579
 21
-54.096008
  0
LINE
  8
0
 10
-218.696579
 20
-50.095993
 11
-218.696579
 21
-54.095993
  0
LINE
  8
0
 10
-220.696579
 20
-44.795990
 11
-220.696579
 21
-57.296005
  0
LINE
  8
0
 10
-209.696579
 20
-44.796005
 11
-209.696579
 21
-57.296005
  0
LINE
  8
0
 10
-220.696579
 20
-44.796021
 11
-209.696579
 21
-44.796021
  0
LINE
  8
0
 10
-218.696579
 20
-54.096008
 11
-211.696579
 21
-54.096008
  0
LINE
  8
0
 10
-218.696579
 20
-50.096008
 11
-211.696579
 21
-50.096008
  0
LINE
  8
0
 10
-224.696564
 20
-32.695999
 11
-186.696564
 21
-32.695999
  0
LINE
  8
0
 10
-221.596466
 20
-30.695999
 11
-208.796600
 21
-30.695999
  0
LINE
  8
0
 10
-222.696472
 20
-32.696068
 11
-221.596451
 21
-30.696022
  0
LINE
  8
0
 10
-208.796661
 20
-30.696045
 11
-207.696655
 21
-32.696060
  0
LINE
  8
0
 10
-224.696564
 20
-77.296021
 11
-186.696564
 21
-77.296021
  0
LINE
  8
0
 10
-224.696564
 20
-119.296021
 11
-186.696564
 21
-119.296021
  0
LINE
  8
0
 10
-224.696564
 20
-60.096024
 11
-186.696564
 21
-60.096024
  0
LINE
  8
0
 10
-218.434937
 20
-62.596024
 11
-212.156189
 21
-62.596024
  0
LINE
  8
0
 10
-199.313263
 20
-62.596024
 11
-193.748016
 21
-62.596024
  0
LINE
  8
0
 10
-217.696564
 20
-126.296021
 11
-217.696564
 21
-133.696014
  0
LINE
  8
0
 10
-221.196564
 20
-128.996017
 11
-221.196564
 21
-130.496017
  0
LINE
  8
0
 10
-214.196564
 20
-128.996017
 11
-214.196564
 21
-130.496017
  0
LINE
  8
0
 10
-207.796570
 20
-131.696014
 11
-222.596558
 21
-131.696014
  0
LINE
  8
0
 10
-207.796570
 20
-130.496017
 11
-222.596558
 21
-130.496017
  0
LINE
  8
0
 10
-222.796570
 20
-128.296021
 11
-222.796570
 21
-128.996017
  0
LINE
  8
0
 10
-212.596558
 20
-128.296021
 11
-212.596558
 21
-128.996017
  0
LINE
  8
0
 10
-207.596558
 20
-128.996017
 11
-222.796570
 21
-128.996017
  0
LINE
  8
0
 10
-222.596558
 20
-130.496017
 11
-222.596558
 21
-131.696014
  0
LINE
  8
0
 10
-212.796570
 20
-130.496017
 11
-212.796570
 21
-131.696014
  0
LINE
  8
0
 10
-212.696564
 20
-126.296021
 11
-212.696564
 21
-133.696014
  0
LINE
  8
0
 10
-209.196564
 20
-128.996017
 11
-209.196564
 21
-130.496017
  0
LINE
  8
0
 10
-207.596558
 20
-128.296021
 11
-207.596558
 21
-128.996017
  0
LINE
  8
0
 10
-207.796570
 20
-130.496017
 11
-207.796570
 21
-131.696014
  0
CIRCLE
  8
0
 10
-196.196564
 20
-62.596024
 40
1.500000
  0
CIRCLE
  8
0
 10
-215.196564
 20
-62.596024
 40
1.500000
  0
POINT
  8
0
 10
-224.696564
 20
-203.796005
  0
POINT
  8
0
 10
-186.696564
 20
-203.796005
  0
LINE
  8
0
 10
-186.696564
 20
-203.796005
 11
-186.696564
 21
-230.796005
  0
LINE
  8
0
 10
-196.196564
 20
-231.796005
 11
-196.196564
 21
-170.796005
  0
LINE
  8
0
 10
-193.796570
 20
-211.796005
 11
-193.796570
 21
-213.796005
  0
LINE
  8
0
 10
-203.596573
 20
-211.796005
 11
-203.596573
 21
-213.796005
  0
LINE
  8
0
 10
-198.596573
 20
-222.796005
 11
-198.596573
 21
-224.796005
  0
LINE
  8
0
 10
-205.696564
 20
-203.796005
 11
-205.696564
 21
-230.796005
  0
LINE
  8
0
 10
-224.696564
 20
-230.796005
 11
-186.696564
 21
-230.796005
  0
LINE
  8
0
 10
-215.196564
 20
-231.796005
 11
-215.196564
 21
-170.796005
  0
LINE
  8
0
 10
-212.796570
 20
-211.796005
 11
-212.796570
 21
-213.796005
  0
LINE
  8
0
 10
-222.596558
 20
-211.796005
 11
-222.596558
 21
-213.796005
  0
LINE
  8
0
 10
-207.796570
 20
-222.796005
 11
-207.796570
 21
-224.796005
  0
LINE
  8
0
 10
-217.596558
 20
-222.796005
 11
-217.596558
 21
-224.796005
  0
LINE
  8
0
 10
-187.196564
 20
-175.796005
 11
-187.196564
 21
-203.796005
  0
LINE
  8
0
 10
-224.196564
 20
-175.796005
 11
-224.196564
 21
-203.796005
  0
LINE
  8
0
 10
-187.196564
 20
-175.796005
 11
-224.196564
 21
-175.796005
  0
LINE
  8
0
 10
-189.371155
 20
-171.796005
 11
-203.021942
 21
-171.796005
  0
LINE
  8
0
 10
-203.161606
 20
-175.796021
 11
-203.021927
 21
-171.796005
  0
LINE
  8
0
 10
-189.231445
 20
-175.796021
 11
-189.371124
 21
-171.796005
  0
LINE
  8
0
 10
-222.161636
 20
-175.795990
 11
-222.021957
 21
-171.796005
  0
LINE
  8
0
 10
-208.371155
 20
-171.796005
 11
-222.021957
 21
-171.796005
  0
LINE
  8
0
 10
-208.231461
 20
-175.796005
 11
-208.371140
 21
-171.796005
  0
LINE
  8
0
 10
-224.696564
 20
-203.796005
 11
-186.696564
 21
-203.796005
  0
LINE
  8
0
 10
-188.796539
 20
-222.796005
 11
-188.796539
 21
-224.796005
  0
LINE
  8
0
 10
-212.696564
 20
-216.296005
 11
-212.696564
 21
-231.296005
  0
LINE
  8
0
 10
-217.696564
 20
-205.296005
 11
-217.696564
 21
-220.296005
  0
LINE
  8
0
 10
-198.696564
 20
-205.296005
 11
-198.696564
 21
-220.296005
  0
LINE
  8
0
 10
-193.696564
 20
-216.296005
 11
-193.696564
 21
-231.296005
  0
LINE
  8
0
 10
-223.696564
 20
-212.796005
 11
-211.696564
 21
-212.796005
  0
LINE
  8
0
 10
-218.696564
 20
-223.796005
 11
-206.696564
 21
-223.796005
  0
LINE
  8
0
 10
-204.696564
 20
-212.796005
 11
-192.696564
 21
-212.796005
  0
LINE
  8
0
 10
-199.696564
 20
-223.796005
 11
-187.696564
 21
-223.796005
  0
LINE
  8
0
 10
-224.196564
 20
-202.796005
 11
-187.196564
 21
-202.796005
  0
CIRCLE
  8
0
 10
-198.696564
 20
-212.796005
 40
3.000000
  0
ARC
  8
0
 10
-198.696564
 20
-211.796005
 40
4.899994
 50
0.000000
 51
180.000000
  0
ARC
  8
0
 10
-198.696564
 20
-213.796005
 40
4.899994
 50
180.000000
 51
0.000000
  0
CIRCLE
  8
0
 10
-193.696564
 20
-223.796005
 40
3.000000
  0
ARC
  8
0
 10
-193.696564
 20
-222.796005
 40
4.900009
 50
0.000000
 51
180.000000
  0
ARC
  8
0
 10
-193.696564
 20
-224.796005
 40
4.899994
 50
180.000000
 51
0.000000
  0
CIRCLE
  8
0
 10
-217.696564
 20
-212.796005
 40
3.000000
  0
ARC
  8
0
 10
-217.696564
 20
-211.796005
 40
4.899994
 50
0.000000
 51
180.000000
  0
ARC
  8
0
 10
-217.696564
 20
-213.796005
 40
4.899994
 50
180.000000
 51
0.000000
  0
CIRCLE
  8
0
 10
-212.696564
 20
-223.796005
 40
3.000000
  0
ARC
  8
0
 10
-212.696564
 20
-222.796005
 40
4.899994
 50
0.000000
 51
180.000000
  0
ARC
  8
0
 10
-212.696564
 20
-224.796005
 40
4.899994
 50
180.000000
 51
0.000000
  0
TEXT
  8
0
 10
-191.375000
 20
-214.496002
 40
3.000000
  1
B
 50
0.000000
 41
1.052632
 51
0.000000
  7
STANDARD
  0
TEXT
  8
0
 10
-204.375000
 20
-225.496002
 40
3.000000
  1
A
 50
0.000000
 41
1.052632
 51
0.000000
  7
STANDARD
  0
TEXT
  8
0
 10
-223.375000
 20
-225.496002
 40
3.000000
  1
A
 50
0.000000
 41
1.052632
 51
0.000000
  7
STANDARD
  0
TEXT
  8
0
 10
-210.375000
 20
-214.496002
 40
3.000000
  1
B
 50
0.000000
 41
1.052632
 51
0.000000
  7
STANDARD
  0
POINT
  8
0
 10
-307.696564
 20
-128.295990
  0
POINT
  8
0
 10
-327.696564
 20
-128.295990
  0
LINE
  8
0
 10
-300.696594
 20
-59.095978
 11
-300.696594
 21
-127.695969
  0
LINE
  8
0
 10
-327.696564
 20
-127.695969
 11
-300.696594
 21
-127.695969
  0
LINE
  8
0
 10
-327.696564
 20
-59.095978
 11
-300.696594
 21
-59.095978
  0
LINE
  8
0
 10
-327.696564
 20
-119.295975
 11
-300.696594
 21
-119.295975
  0
LINE
  8
0
 10
-327.696564
 20
-77.295975
 11
-300.696594
 21
-77.295975
  0
LINE
  8
0
 10
-302.196625
 20
-58.613380
 11
-297.179138
 21
-58.438171
  0
LINE
  8
0
 10
-327.696564
 20
-32.695969
 11
-296.696594
 21
-32.695969
  0
LINE
  8
0
 10
-325.511169
 20
-30.695969
 11
-303.382019
 21
-30.695969
  0
LINE
  8
0
 10
-326.696564
 20
-32.695999
 11
-325.779480
 21
-30.861832
  0
LINE
  8
0
 10
-302.196594
 20
-32.696014
 11
-303.113678
 21
-30.861847
  0
LINE
  8
0
 10
-296.696594
 20
-32.695969
 11
-296.696594
 21
-57.938522
  0
LINE
  8
0
 10
-302.196594
 20
-32.695969
 11
-302.196594
 21
-59.095978
  0
LINE
  8
0
 10
-331.796539
 20
-130.495987
 11
-331.796539
 21
-131.695984
  0
LINE
  8
0
 10
-343.596558
 20
-130.495987
 11
-343.596558
 21
-131.695984
  0
LINE
  8
0
 10
-337.696533
 20
-126.295975
 11
-337.696533
 21
-133.695984
  0
LINE
  8
0
 10
-341.196533
 20
-128.995987
 11
-341.196533
 21
-130.495987
  0
LINE
  8
0
 10
-334.196533
 20
-128.995987
 11
-334.196533
 21
-130.495987
  0
LINE
  8
0
 10
-331.796539
 20
-131.695984
 11
-354.596558
 21
-131.695984
  0
LINE
  8
0
 10
-331.796539
 20
-130.495987
 11
-354.596558
 21
-130.495987
  0
LINE
  8
0
 10
-342.796570
 20
-128.295975
 11
-342.796570
 21
-128.995987
  0
LINE
  8
0
 10
-332.596558
 20
-128.295975
 11
-332.596558
 21
-128.995972
  0
LINE
  8
0
 10
-332.596558
 20
-128.995987
 11
-342.796570
 21
-128.995987
  0
LINE
  8
0
 10
-354.596558
 20
-130.495987
 11
-354.596558
 21
-131.695984
  0
LINE
  8
0
 10
-348.696533
 20
-126.295975
 11
-348.696533
 21
-133.695984
  0
LINE
  8
0
 10
-352.196533
 20
-128.995987
 11
-352.196533
 21
-130.495987
  0
LINE
  8
0
 10
-345.196533
 20
-128.995987
 11
-345.196533
 21
-130.495987
  0
LINE
  8
0
 10
-353.796570
 20
-128.295975
 11
-353.796570
 21
-128.995987
  0
LINE
  8
0
 10
-343.596558
 20
-128.295975
 11
-343.596558
 21
-128.995972
  0
LINE
  8
0
 10
-343.596558
 20
-128.995987
 11
-353.796570
 21
-128.995987
  0
ARC
  8
0
 10
-355.093903
 20
-34.095993
 40
0.200017
 50
214.414429
 51
270.000000
  0
ARC
  8
0
 10
-297.196594
 20
-57.938538
 40
0.499999
 50
271.997223
 51
0.000000
  0
ARC
  8
0
 10
-325.511169
 20
-30.995987
 40
0.300003
 50
90.000000
 51
153.436249
  0
ARC
  8
0
 10
-303.382019
 20
-30.995987
 40
0.300011
 50
26.563747
 51
90.000000
  0
POINT
  8
0
 10
41.012337
 20
-128.296021
  0
POINT
  8
0
 10
79.012344
 20
-128.296021
  0
LINE
  8
0
 10
79.012344
 20
-30.296021
 11
79.012344
 21
-128.296021
  0
LINE
  8
0
 10
69.512344
 20
-27.296005
 11
69.512344
 21
-132.712677
  0
LINE
  8
0
 10
64.012321
 20
-57.296021
 11
75.012314
 21
-57.296021
  0
LINE
  8
0
 10
64.012321
 20
-43.096008
 11
75.012314
 21
-43.096008
  0
LINE
  8
0
 10
64.012321
 20
-35.596008
 11
75.012314
 21
-35.596008
  0
LINE
  8
0
 10
64.012321
 20
-35.595993
 11
64.012321
 21
-43.095993
  0
LINE
  8
0
 10
75.012314
 20
-35.596008
 11
75.012314
 21
-43.096008
  0
LINE
  8
0
 10
73.012314
 20
-50.096008
 11
73.012314
 21
-54.096008
  0
LINE
  8
0
 10
66.012321
 20
-50.095993
 11
66.012321
 21
-54.095993
  0
LINE
  8
0
 10
64.012321
 20
-44.795990
 11
64.012321
 21
-57.296005
  0
LINE
  8
0
 10
75.012314
 20
-44.796005
 11
75.012314
 21
-57.296005
  0
LINE
  8
0
 10
64.012321
 20
-44.796021
 11
75.012314
 21
-44.796021
  0
LINE
  8
0
 10
66.012321
 20
-54.096008
 11
73.012314
 21
-54.096008
  0
LINE
  8
0
 10
66.012321
 20
-50.096008
 11
73.012314
 21
-50.096008
  0
LINE
  8
0
 10
63.112419
 20
-30.695999
 11
75.912285
 21
-30.695999
  0
LINE
  8
0
 10
62.012398
 20
-32.696053
 11
63.112415
 21
-30.696014
  0
LINE
  8
0
 10
75.912231
 20
-30.696037
 11
77.012238
 21
-32.696060
  0
LINE
  8
0
 10
60.862328
 20
-128.296021
 11
60.862328
 21
-129.096008
  0
LINE
  8
0
 10
63.112343
 20
-134.796021
 11
63.112343
 21
-132.796021
  0
LINE
  8
0
 10
70.912338
 20
-134.796021
 11
70.912338
 21
-132.796021
  0
LINE
  8
0
 10
72.862320
 20
-129.096008
 11
72.862320
 21
-128.296021
  0
LINE
  8
0
 10
72.862320
 20
-129.096008
 11
68.245216
 21
-129.096008
  0
LINE
  8
0
 10
63.012337
 20
-129.096008
 11
63.012337
 21
-131.096024
  0
LINE
  8
0
 10
71.012344
 20
-129.096008
 11
71.012344
 21
-131.096024
  0
LINE
  8
0
 10
63.012337
 20
-131.096024
 11
63.502357
 21
-131.096024
  0
LINE
  8
0
 10
70.522324
 20
-131.096024
 11
71.012344
 21
-131.096024
  0
LINE
  8
0
 10
65.779472
 20
-129.096008
 11
60.862343
 21
-129.096008
  0
LINE
  8
0
 10
68.012337
 20
-139.396011
 11
68.012337
 21
-140.795975
  0
LINE
  8
0
 10
76.012344
 20
-139.396011
 11
76.012344
 21
-140.796021
  0
LINE
  8
0
 10
68.012337
 20
-140.796021
 11
68.664200
 21
-140.796021
  0
LINE
  8
0
 10
71.012344
 20
-129.796021
 11
77.862350
 21
-129.796021
  0
LINE
  8
0
 10
77.112320
 20
-129.796021
 11
77.112320
 21
-139.396011
  0
LINE
  8
0
 10
66.912331
 20
-138.694733
 11
66.912331
 21
-139.396011
  0
LINE
  8
0
 10
66.912346
 20
-139.396011
 11
70.101868
 21
-139.396011
  0
LINE
  8
0
 10
77.862320
 20
-128.296021
 11
77.862320
 21
-129.796021
  0
LINE
  8
0
 10
68.112328
 20
-144.796021
 11
68.112328
 21
-142.796021
  0
LINE
  8
0
 10
75.912338
 20
-144.796021
 11
75.912338
 21
-142.796021
  0
LINE
  8
0
 10
75.360458
 20
-140.796021
 11
76.012344
 21
-140.796021
  0
LINE
  8
0
 10
73.922806
 20
-139.396011
 11
77.112350
 21
-139.396011
  0
LINE
  8
0
 10
60.012337
 20
-30.796021
 11
60.012337
 21
-77.296021
  0
LINE
  8
0
 10
41.012337
 20
-30.296021
 11
79.012344
 21
-30.296021
  0
LINE
  8
0
 10
41.012337
 20
-128.296021
 11
79.012344
 21
-128.296021
  0
LINE
  8
0
 10
50.512337
 20
-27.296005
 11
50.512337
 21
-132.712677
  0
LINE
  8
0
 10
45.012321
 20
-57.296021
 11
56.012321
 21
-57.296021
  0
LINE
  8
0
 10
45.012321
 20
-43.096008
 11
56.012321
 21
-43.096008
  0
LINE
  8
0
 10
45.012321
 20
-35.596008
 11
56.012321
 21
-35.596008
  0
LINE
  8
0
 10
45.012321
 20
-35.595993
 11
45.012321
 21
-43.095993
  0
LINE
  8
0
 10
56.012321
 20
-35.596008
 11
56.012321
 21
-43.096008
  0
LINE
  8
0
 10
54.012321
 20
-50.096008
 11
54.012321
 21
-54.096008
  0
LINE
  8
0
 10
47.012321
 20
-50.095993
 11
47.012321
 21
-54.095993
  0
LINE
  8
0
 10
45.012321
 20
-44.795990
 11
45.012321
 21
-57.296005
  0
LINE
  8
0
 10
56.012321
 20
-44.796005
 11
56.012321
 21
-57.296005
  0
LINE
  8
0
 10
45.012321
 20
-44.796021
 11
56.012321
 21
-44.796021
  0
LINE
  8
0
 10
47.012321
 20
-54.096008
 11
54.012321
 21
-54.096008
  0
LINE
  8
0
 10
47.012321
 20
-50.096008
 11
54.012321
 21
-50.096008
  0
LINE
  8
0
 10
41.012337
 20
-32.695999
 11
79.012344
 21
-32.695999
  0
LINE
  8
0
 10
44.112438
 20
-30.695999
 11
56.912319
 21
-30.695999
  0
LINE
  8
0
 10
43.012428
 20
-32.696075
 11
44.112457
 21
-30.696022
  0
LINE
  8
0
 10
56.912270
 20
-30.696045
 11
58.012276
 21
-32.696045
  0
LINE
  8
0
 10
41.862343
 20
-128.296021
 11
41.862343
 21
-129.096008
  0
LINE
  8
0
 10
44.112343
 20
-134.796021
 11
44.112343
 21
-132.796021
  0
LINE
  8
0
 10
51.912346
 20
-134.796021
 11
51.912346
 21
-132.796021
  0
LINE
  8
0
 10
53.862343
 20
-129.096008
 11
53.862343
 21
-128.296021
  0
LINE
  8
0
 10
53.862343
 20
-129.096008
 11
49.245216
 21
-129.096008
  0
LINE
  8
0
 10
44.012337
 20
-129.096008
 11
44.012337
 21
-131.096024
  0
LINE
  8
0
 10
52.012337
 20
-129.096008
 11
52.012337
 21
-131.096024
  0
LINE
  8
0
 10
44.012337
 20
-131.096024
 11
44.502357
 21
-131.096024
  0
LINE
  8
0
 10
51.522331
 20
-131.096024
 11
52.012337
 21
-131.096024
  0
LINE
  8
0
 10
46.779472
 20
-129.096008
 11
41.862343
 21
-129.096008
  0
LINE
  8
0
 10
49.012337
 20
-139.396011
 11
49.012337
 21
-140.796021
  0
LINE
  8
0
 10
57.012337
 20
-139.396011
 11
57.012337
 21
-140.796021
  0
LINE
  8
0
 10
49.012337
 20
-140.796021
 11
49.664192
 21
-140.796021
  0
LINE
  8
0
 10
52.012337
 20
-129.796021
 11
58.862343
 21
-129.796021
  0
LINE
  8
0
 10
58.112328
 20
-129.796021
 11
58.112328
 21
-139.396011
  0
LINE
  8
0
 10
47.912346
 20
-139.396011
 11
51.101845
 21
-139.396011
  0
LINE
  8
0
 10
58.862328
 20
-128.296021
 11
58.862328
 21
-129.796021
  0
LINE
  8
0
 10
49.112343
 20
-144.796021
 11
49.112343
 21
-142.796021
  0
LINE
  8
0
 10
56.912331
 20
-144.796021
 11
56.912331
 21
-142.796021
  0
LINE
  8
0
 10
56.360481
 20
-140.796021
 11
57.012337
 21
-140.796021
  0
LINE
  8
0
 10
54.922829
 20
-139.396011
 11
58.112343
 21
-139.396011
  0
LINE
  8
0
 10
41.012337
 20
-77.296021
 11
79.012344
 21
-77.296021
  0
LINE
  8
0
 10
41.012337
 20
-119.296021
 11
79.012344
 21
-119.296021
  0
LINE
  8
0
 10
41.012337
 20
-60.096024
 11
79.012344
 21
-60.096024
  0
LINE
  8
0
 10
47.273964
 20
-62.596024
 11
53.552711
 21
-62.596024
  0
LINE
  8
0
 10
66.395638
 20
-62.596024
 11
71.960892
 21
-62.596024
  0
LINE
  8
0
 10
47.912346
 20
-138.694733
 11
47.912346
 21
-139.396011
  0
LINE
  8
0
 10
43.012337
 20
-133.796021
 11
53.012337
 21
-133.796021
  0
LINE
  8
0
 10
48.012337
 20
-143.796021
 11
58.012337
 21
-143.796021
  0
LINE
  8
0
 10
62.012337
 20
-133.796021
 11
72.012337
 21
-133.796021
  0
LINE
  8
0
 10
67.012344
 20
-143.796021
 11
77.012344
 21
-143.796021
  0
LINE
  8
0
 10
48.012337
 20
-127.796021
 11
48.012337
 21
-139.796021
  0
LINE
  8
0
 10
53.012337
 20
-137.796021
 11
53.012337
 21
-149.796021
  0
LINE
  8
0
 10
67.012337
 20
-127.796021
 11
67.012337
 21
-139.796021
  0
LINE
  8
0
 10
72.012344
 20
-137.796021
 11
72.012344
 21
-149.796021
  0
ARC
  8
0
 10
67.012337
 20
-134.796021
 40
3.900002
 50
180.000000
 51
0.000000
  0
CIRCLE
  8
0
 10
67.012337
 20
-133.796021
 40
2.000000
  0
ARC
  8
0
 10
67.012337
 20
-132.796021
 40
3.900002
 50
0.000000
 51
180.000000
  0
ARC
  8
0
 10
72.012344
 20
-144.796021
 40
3.900002
 50
180.000000
 51
0.000000
  0
CIRCLE
  8
0
 10
72.012344
 20
-143.796021
 40
2.000000
  0
ARC
  8
0
 10
72.012344
 20
-142.796021
 40
3.900002
 50
0.000000
 51
180.000000
  0
ARC
  8
0
 10
53.012337
 20
-142.796021
 40
3.900002
 50
0.000000
 51
180.000000
  0
ARC
  8
0
 10
48.012337
 20
-134.796021
 40
3.900002
 50
180.000000
 51
0.000000
  0
CIRCLE
  8
0
 10
48.012337
 20
-133.796021
 40
2.000000
  0
ARC
  8
0
 10
48.012337
 20
-132.796021
 40
3.900002
 50
0.000000
 51
180.000000
  0
ARC
  8
0
 10
53.012337
 20
-144.796021
 40
3.900002
 50
180.000000
 51
0.000000
  0
CIRCLE
  8
0
 10
53.012337
 20
-143.796021
 40
2.000000
  0
CIRCLE
  8
0
 10
50.512337
 20
-62.596024
 40
1.500000
  0
CIRCLE
  8
0
 10
69.512344
 20
-62.596024
 40
1.500000
  0
POINT
  8
0
 10
41.012337
 20
-203.796005
  0
POINT
  8
0
 10
79.012344
 20
-203.796005
  0
LINE
  8
0
 10
79.012344
 20
-203.796005
 11
79.012344
 21
-230.796005
  0
LINE
  8
0
 10
69.512344
 20
-231.796005
 11
69.512344
 21
-170.796005
  0
LINE
  8
0
 10
74.512344
 20
-211.046005
 11
74.512344
 21
-209.646011
  0
LINE
  8
0
 10
75.412338
 20
-217.945999
 11
75.412338
 21
-223.796005
  0
LINE
  8
0
 10
68.612320
 20
-217.945999
 11
68.612320
 21
-223.796005
  0
LINE
  8
0
 10
75.912338
 20
-209.645996
 11
68.112328
 21
-209.645996
  0
LINE
  8
0
 10
76.012344
 20
-217.946014
 11
76.012344
 21
-211.046005
  0
LINE
  8
0
 10
69.512344
 20
-211.046005
 11
69.512344
 21
-209.646011
  0
LINE
  8
0
 10
76.012344
 20
-211.046005
 11
68.012337
 21
-211.046005
  0
LINE
  8
0
 10
76.012344
 20
-217.945999
 11
68.012337
 21
-217.945999
  0
LINE
  8
0
 10
68.012337
 20
-217.946014
 11
68.012337
 21
-211.046005
  0
LINE
  8
0
 10
68.112328
 20
-209.645996
 11
68.112328
 21
-208.445999
  0
LINE
  8
0
 10
75.912338
 20
-209.645996
 11
75.912338
 21
-208.445999
  0
LINE
  8
0
 10
75.912338
 20
-208.445999
 11
68.112328
 21
-208.445999
  0
LINE
  8
0
 10
70.412338
 20
-206.946014
 11
70.412338
 21
-208.445999
  0
LINE
  8
0
 10
63.612328
 20
-206.946014
 11
63.612328
 21
-212.796005
  0
LINE
  8
0
 10
71.012344
 20
-206.946014
 11
63.012337
 21
-206.946014
  0
LINE
  8
0
 10
71.012344
 20
-200.046005
 11
63.012337
 21
-200.046005
  0
LINE
  8
0
 10
69.512344
 20
-200.046005
 11
69.512344
 21
-198.646011
  0
LINE
  8
0
 10
70.912338
 20
-198.646011
 11
63.112328
 21
-198.646011
  0
LINE
  8
0
 10
64.512337
 20
-200.046005
 11
64.512337
 21
-198.646011
  0
LINE
  8
0
 10
63.112328
 20
-198.646011
 11
63.112328
 21
-197.446014
  0
LINE
  8
0
 10
70.912338
 20
-197.446014
 11
63.112328
 21
-197.446014
  0
LINE
  8
0
 10
70.912338
 20
-198.646011
 11
70.912338
 21
-197.446014
  0
LINE
  8
0
 10
63.012337
 20
-206.946014
 11
63.012337
 21
-200.046021
  0
LINE
  8
0
 10
71.012344
 20
-206.946014
 11
71.012344
 21
-200.046021
  0
LINE
  8
0
 10
60.012337
 20
-203.796005
 11
60.012337
 21
-230.796005
  0
LINE
  8
0
 10
51.912331
 20
-197.446014
 11
44.112343
 21
-197.446014
  0
LINE
  8
0
 10
41.012337
 20
-230.796005
 11
79.012344
 21
-230.796005
  0
LINE
  8
0
 10
50.512337
 20
-231.796005
 11
50.512337
 21
-170.796005
  0
LINE
  8
0
 10
55.512337
 20
-211.046005
 11
55.512337
 21
-209.646011
  0
LINE
  8
0
 10
56.412331
 20
-217.945999
 11
56.412331
 21
-223.796005
  0
LINE
  8
0
 10
49.612328
 20
-217.945999
 11
49.612328
 21
-223.796005
  0
LINE
  8
0
 10
56.912331
 20
-209.645996
 11
49.112328
 21
-209.645996
  0
LINE
  8
0
 10
57.012337
 20
-217.946014
 11
57.012337
 21
-211.046005
  0
LINE
  8
0
 10
50.512337
 20
-211.046005
 11
50.512337
 21
-209.646011
  0
LINE
  8
0
 10
57.012337
 20
-211.046005
 11
49.012337
 21
-211.046005
  0
LINE
  8
0
 10
57.012337
 20
-217.945999
 11
49.012337
 21
-217.945999
  0
LINE
  8
0
 10
49.012337
 20
-217.946014
 11
49.012337
 21
-211.046005
  0
LINE
  8
0
 10
49.112328
 20
-209.645996
 11
49.112328
 21
-208.445999
  0
LINE
  8
0
 10
56.912331
 20
-209.645996
 11
56.912331
 21
-208.445999
  0
LINE
  8
0
 10
56.912331
 20
-208.445999
 11
49.112328
 21
-208.445999
  0
LINE
  8
0
 10
51.412331
 20
-206.946014
 11
51.412331
 21
-208.445999
  0
LINE
  8
0
 10
44.612343
 20
-206.946014
 11
44.612343
 21
-212.796005
  0
LINE
  8
0
 10
52.012337
 20
-206.946014
 11
44.012337
 21
-206.946014
  0
LINE
  8
0
 10
52.012337
 20
-200.046005
 11
44.012337
 21
-200.046005
  0
LINE
  8
0
 10
50.512337
 20
-200.046005
 11
50.512337
 21
-198.646011
  0
LINE
  8
0
 10
51.912331
 20
-198.646011
 11
44.112343
 21
-198.646011
  0
LINE
  8
0
 10
44.112343
 20
-198.646011
 11
44.112343
 21
-197.446014
  0
LINE
  8
0
 10
51.912331
 20
-198.646011
 11
51.912331
 21
-197.446014
  0
LINE
  8
0
 10
44.012337
 20
-206.946014
 11
44.012337
 21
-200.046021
  0
LINE
  8
0
 10
52.012337
 20
-206.946014
 11
52.012337
 21
-200.046021
  0
LINE
  8
0
 10
78.512344
 20
-175.796005
 11
78.512344
 21
-203.796005
  0
LINE
  8
0
 10
41.512337
 20
-175.796005
 11
41.512337
 21
-203.796005
  0
LINE
  8
0
 10
78.512344
 20
-175.796005
 11
41.512337
 21
-175.796005
  0
LINE
  8
0
 10
76.337753
 20
-171.796005
 11
62.686966
 21
-171.796005
  0
LINE
  8
0
 10
62.547295
 20
-175.796021
 11
62.686977
 21
-171.796005
  0
LINE
  8
0
 10
76.477455
 20
-175.796021
 11
76.337769
 21
-171.796005
  0
LINE
  8
0
 10
43.547264
 20
-175.795990
 11
43.686947
 21
-171.796005
  0
LINE
  8
0
 10
57.337738
 20
-171.796005
 11
43.686943
 21
-171.796005
  0
LINE
  8
0
 10
57.477428
 20
-175.796021
 11
57.337746
 21
-171.796005
  0
LINE
  8
0
 10
41.012337
 20
-203.796005
 11
44.012337
 21
-203.796005
  0
LINE
  8
0
 10
45.512337
 20
-200.046005
 11
45.512337
 21
-198.646011
  0
LINE
  8
0
 10
52.012337
 20
-203.796005
 11
63.012337
 21
-203.796005
  0
LINE
  8
0
 10
71.012344
 20
-203.796005
 11
79.012344
 21
-203.796005
  0
LINE
  8
0
 10
52.012337
 20
-202.796005
 11
63.012337
 21
-202.796005
  0
LINE
  8
0
 10
71.012344
 20
-202.796005
 11
78.512344
 21
-202.796005
  0
LINE
  8
0
 10
41.512337
 20
-202.796005
 11
44.012337
 21
-202.796005
  0
ARC
  8
0
 10
72.012344
 20
-223.796005
 40
3.400002
 50
180.000000
 51
282.412170
  0
ARC
  8
0
 10
72.012344
 20
-223.796005
 40
3.400003
 50
278.456512
 51
0.000000
  0
ARC
  8
0
 10
67.012337
 20
-212.796005
 40
3.400002
 50
180.000000
 51
282.234344
  0
ARC
  8
0
 10
67.012337
 20
-212.796005
 40
3.400002
 50
278.456390
 51
287.104492
  0
ARC
  8
0
 10
53.012337
 20
-223.796005
 40
3.400002
 50
180.000000
 51
283.707520
  0
ARC
  8
0
 10
53.012337
 20
-223.796005
 40
3.400003
 50
278.456512
 51
0.000000
  0
ARC
  8
0
 10
48.012337
 20
-212.796005
 40
3.400002
 50
180.000000
 51
282.947418
  0
ARC
  8
0
 10
48.012337
 20
-212.796005
 40
3.400002
 50
278.456390
 51
287.104431
  0
TEXT
  8
0
 10
74.528336
 20
-207.981750
 40
3.000000
  1
B
 50
0.000000
 41
1.052632
 51
0.000000
  7
STANDARD
  0
TEXT
  8
0
 10
61.333900
 20
-225.496002
 40
3.000000
  1
A
 50
0.000000
 41
1.052632
 51
0.000000
  7
STANDARD
  0
TEXT
  8
0
 10
55.528343
 20
-207.981750
 40
3.000000
  1
B
 50
0.000000
 41
1.052632
 51
0.000000
  7
STANDARD
  0
TEXT
  8
0
 10
42.333900
 20
-225.496002
 40
3.000000
  1
A
 50
0.000000
 41
1.052632
 51
0.000000
  7
STANDARD
  0
POINT
  8
0
 10
-38.987671
 20
-128.295990
  0
POINT
  8
0
 10
-58.987671
 20
-128.295990
  0
LINE
  8
0
 10
-58.987671
 20
-59.095978
 11
-31.987717
 21
-59.095978
  0
LINE
  8
0
 10
-33.487720
 20
-58.613365
 11
-28.470255
 21
-58.438156
  0
LINE
  8
0
 10
-58.987671
 20
-32.695969
 11
-27.987717
 21
-32.695969
  0
LINE
  8
0
 10
-56.987617
 20
-30.695969
 11
-34.487679
 21
-30.695969
  0
LINE
  8
0
 10
-57.987663
 20
-32.695984
 11
-56.987640
 21
-30.695938
  0
LINE
  8
0
 10
-33.487682
 20
-32.695976
 11
-34.487679
 21
-30.695984
  0
LINE
  8
0
 10
-27.987717
 20
-32.695969
 11
-27.987717
 21
-57.938522
  0
LINE
  8
0
 10
-33.487717
 20
-32.695969
 11
-33.487717
 21
-59.095978
  0
LINE
  8
0
 10
-56.387665
 20
-136.295975
 11
-54.987671
 21
-136.295975
  0
LINE
  8
0
 10
-54.987671
 20
-128.895981
 11
-53.787659
 21
-128.895981
  0
LINE
  8
0
 10
-72.987656
 20
-128.295990
 11
-72.987656
 21
-134.695984
  0
LINE
  8
0
 10
-64.987656
 20
-128.295990
 11
-64.987656
 21
-130.895981
  0
LINE
  8
0
 10
-69.887650
 20
-137.795975
 11
-56.387665
 21
-137.795975
  0
LINE
  8
0
 10
-63.287655
 20
-129.795975
 11
-56.387665
 21
-129.795975
  0
LINE
  8
0
 10
-64.987656
 20
-130.895981
 11
-63.287659
 21
-130.895981
  0
LINE
  8
0
 10
-63.287659
 20
-129.795975
 11
-63.287659
 21
-137.795975
  0
LINE
  8
0
 10
-56.387665
 20
-129.795975
 11
-56.387665
 21
-137.795975
  0
LINE
  8
0
 10
-53.787659
 20
-128.895981
 11
-53.787659
 21
-138.695984
  0
LINE
  8
0
 10
-54.987671
 20
-128.895981
 11
-54.987671
 21
-138.695984
  0
LINE
  8
0
 10
-56.387665
 20
-131.295975
 11
-54.987671
 21
-131.295975
  0
LINE
  8
0
 10
-54.987671
 20
-138.695984
 11
-53.787659
 21
-138.695984
  0
LINE
  8
0
 10
-83.987656
 20
-139.395981
 11
-83.987656
 21
-144.695984
  0
LINE
  8
0
 10
-75.987656
 20
-139.395981
 11
-75.987656
 21
-140.795975
  0
LINE
  8
0
 10
-80.887657
 20
-147.795975
 11
-67.387650
 21
-147.795975
  0
LINE
  8
0
 10
-74.287659
 20
-139.795975
 11
-67.387650
 21
-139.795975
  0
LINE
  8
0
 10
-75.987656
 20
-140.895981
 11
-74.287659
 21
-140.895981
  0
LINE
  8
0
 10
-74.287659
 20
-139.795975
 11
-74.287659
 21
-147.795975
  0
LINE
  8
0
 10
-67.387657
 20
-139.795975
 11
-67.387657
 21
-147.795975
  0
LINE
  8
0
 10
-64.787659
 20
-138.895981
 11
-64.787659
 21
-148.695984
  0
LINE
  8
0
 10
-65.987656
 20
-138.895981
 11
-65.987656
 21
-148.695984
  0
LINE
  8
0
 10
-67.387657
 20
-141.295975
 11
-65.987656
 21
-141.295975
  0
LINE
  8
0
 10
-67.387657
 20
-146.295975
 11
-65.987656
 21
-146.295975
  0
LINE
  8
0
 10
-65.987656
 20
-138.895981
 11
-64.787651
 21
-138.895981
  0
LINE
  8
0
 10
-65.987656
 20
-148.695984
 11
-64.787651
 21
-148.695984
  0
LINE
  8
0
 10
-74.887657
 20
-128.295990
 11
-74.887657
 21
-139.395981
  0
LINE
  8
0
 10
-85.087654
 20
-128.295990
 11
-85.087654
 21
-139.395981
  0
LINE
  8
0
 10
-85.087654
 20
-139.395981
 11
-74.887650
 21
-139.395981
  0
LINE
  8
0
 10
-58.987671
 20
-77.295975
 11
-31.987717
 21
-77.295975
  0
LINE
  8
0
 10
-58.987671
 20
-119.295975
 11
-31.987717
 21
-119.295975
  0
LINE
  8
0
 10
-58.987671
 20
-127.695969
 11
-31.987717
 21
-127.695969
  0
LINE
  8
0
 10
-31.987717
 20
-59.095978
 11
-31.987717
 21
-127.695969
  0
ARC
  8
0
 10
-86.385017
 20
-34.095993
 40
0.199998
 50
214.418137
 51
270.000000
  0
ARC
  8
0
 10
-28.487717
 20
-57.938538
 40
0.499999
 50
272.000061
 51
0.000000
  0
ARC
  8
0
 10
-69.887650
 20
-134.695984
 40
3.100006
 50
180.000000
 51
270.000000
  0
ARC
  8
0
 10
-80.887657
 20
-144.695984
 40
3.099998
 50
180.000000
 51
270.000000
  0
POINT
  8
0
 10
315.301514
 20
-117.796082
  0
POINT
  8
0
 10
353.301514
 20
-117.796082
  0
LINE
  8
0
 10
353.301514
 20
-19.796082
 11
353.301514
 21
-117.796082
  0
LINE
  8
0
 10
343.801514
 20
-16.796066
 11
343.801514
 21
-122.212738
  0
LINE
  8
0
 10
338.301514
 20
-46.796082
 11
349.301483
 21
-46.796082
  0
LINE
  8
0
 10
338.301514
 20
-32.596069
 11
349.301483
 21
-32.596069
  0
LINE
  8
0
 10
338.301514
 20
-25.096069
 11
349.301483
 21
-25.096069
  0
LINE
  8
0
 10
338.301514
 20
-25.096054
 11
338.301514
 21
-32.596054
  0
LINE
  8
0
 10
349.301483
 20
-25.096069
 11
349.301483
 21
-32.596069
  0
LINE
  8
0
 10
347.301483
 20
-39.596069
 11
347.301483
 21
-43.596069
  0
LINE
  8
0
 10
340.301514
 20
-39.596054
 11
340.301514
 21
-43.596054
  0
LINE
  8
0
 10
338.301514
 20
-34.296051
 11
338.301514
 21
-46.796066
  0
LINE
  8
0
 10
349.301483
 20
-34.296066
 11
349.301483
 21
-46.796066
  0
LINE
  8
0
 10
338.301514
 20
-34.296082
 11
349.301483
 21
-34.296082
  0
LINE
  8
0
 10
340.301514
 20
-43.596069
 11
347.301483
 21
-43.596069
  0
LINE
  8
0
 10
340.301514
 20
-39.596069
 11
347.301483
 21
-39.596069
  0
LINE
  8
0
 10
337.401611
 20
-20.196060
 11
350.201477
 21
-20.196060
  0
LINE
  8
0
 10
336.301514
 20
-22.196083
 11
337.401550
 21
-20.196045
  0
LINE
  8
0
 10
350.201294
 20
-20.196152
 11
351.301331
 21
-22.196167
  0
LINE
  8
0
 10
335.151520
 20
-117.796082
 11
335.151520
 21
-118.596069
  0
LINE
  8
0
 10
337.401520
 20
-124.296082
 11
337.401520
 21
-122.296082
  0
LINE
  8
0
 10
345.201508
 20
-124.296082
 11
345.201508
 21
-122.296082
  0
LINE
  8
0
 10
347.151489
 20
-118.596069
 11
347.151489
 21
-117.796082
  0
LINE
  8
0
 10
347.151489
 20
-118.596069
 11
342.534393
 21
-118.596069
  0
LINE
  8
0
 10
337.301514
 20
-118.596069
 11
337.301514
 21
-120.596085
  0
LINE
  8
0
 10
345.301514
 20
-118.596069
 11
345.301514
 21
-120.596085
  0
LINE
  8
0
 10
337.301514
 20
-120.596085
 11
337.791534
 21
-120.596085
  0
LINE
  8
0
 10
344.811493
 20
-120.596085
 11
345.301514
 21
-120.596085
  0
LINE
  8
0
 10
340.068665
 20
-118.596069
 11
335.151520
 21
-118.596069
  0
LINE
  8
0
 10
342.301514
 20
-128.896072
 11
342.301514
 21
-130.296036
  0
LINE
  8
0
 10
350.301514
 20
-128.896072
 11
350.301514
 21
-130.296082
  0
LINE
  8
0
 10
342.301514
 20
-130.296082
 11
342.953369
 21
-130.296082
  0
LINE
  8
0
 10
345.301514
 20
-119.296082
 11
352.151520
 21
-119.296082
  0
LINE
  8
0
 10
351.401489
 20
-119.296082
 11
351.401489
 21
-128.896072
  0
LINE
  8
0
 10
341.201508
 20
-128.194794
 11
341.201508
 21
-128.896072
  0
LINE
  8
0
 10
341.201538
 20
-128.896072
 11
344.391052
 21
-128.896072
  0
LINE
  8
0
 10
352.151489
 20
-117.796082
 11
352.151489
 21
-119.296082
  0
LINE
  8
0
 10
342.401520
 20
-134.296082
 11
342.401520
 21
-132.296082
  0
LINE
  8
0
 10
350.201508
 20
-134.296082
 11
350.201508
 21
-132.296082
  0
LINE
  8
0
 10
349.649628
 20
-130.296082
 11
350.301514
 21
-130.296082
  0
LINE
  8
0
 10
348.211975
 20
-128.896072
 11
351.401520
 21
-128.896072
  0
LINE
  8
0
 10
334.301514
 20
-20.296082
 11
334.301514
 21
-66.796082
  0
LINE
  8
0
 10
315.301514
 20
-19.796082
 11
353.301514
 21
-19.796082
  0
LINE
  8
0
 10
315.301514
 20
-117.796082
 11
353.301514
 21
-117.796082
  0
LINE
  8
0
 10
324.801514
 20
-16.796066
 11
324.801514
 21
-122.212738
  0
LINE
  8
0
 10
319.301514
 20
-46.796082
 11
330.301514
 21
-46.796082
  0
LINE
  8
0
 10
319.301514
 20
-32.596069
 11
330.301514
 21
-32.596069
  0
LINE
  8
0
 10
319.301514
 20
-25.096069
 11
330.301514
 21
-25.096069
  0
LINE
  8
0
 10
319.301514
 20
-25.096054
 11
319.301514
 21
-32.596054
  0
LINE
  8
0
 10
330.301514
 20
-25.096069
 11
330.301514
 21
-32.596069
  0
LINE
  8
0
 10
328.301514
 20
-39.596069
 11
328.301514
 21
-43.596069
  0
LINE
  8
0
 10
321.301514
 20
-39.596054
 11
321.301514
 21
-43.596054
  0
LINE
  8
0
 10
319.301514
 20
-34.296051
 11
319.301514
 21
-46.796066
  0
LINE
  8
0
 10
330.301514
 20
-34.296066
 11
330.301514
 21
-46.796066
  0
LINE
  8
0
 10
319.301514
 20
-34.296082
 11
330.301514
 21
-34.296082
  0
LINE
  8
0
 10
321.301514
 20
-43.596069
 11
328.301514
 21
-43.596069
  0
LINE
  8
0
 10
321.301514
 20
-39.596069
 11
328.301514
 21
-39.596069
  0
LINE
  8
0
 10
315.301514
 20
-22.196060
 11
353.301514
 21
-22.196060
  0
LINE
  8
0
 10
318.401611
 20
-20.196060
 11
331.201508
 21
-20.196060
  0
LINE
  8
0
 10
317.301575
 20
-22.196106
 11
318.401611
 21
-20.196053
  0
LINE
  8
0
 10
331.201355
 20
-20.196136
 11
332.301361
 21
-22.196152
  0
LINE
  8
0
 10
316.151520
 20
-117.796082
 11
316.151520
 21
-118.596069
  0
LINE
  8
0
 10
318.401520
 20
-124.296082
 11
318.401520
 21
-122.296082
  0
LINE
  8
0
 10
326.201538
 20
-124.296082
 11
326.201538
 21
-122.296082
  0
LINE
  8
0
 10
328.151520
 20
-118.596069
 11
328.151520
 21
-117.796082
  0
LINE
  8
0
 10
328.151520
 20
-118.596069
 11
323.534393
 21
-118.596069
  0
LINE
  8
0
 10
318.301514
 20
-118.596069
 11
318.301514
 21
-120.596085
  0
LINE
  8
0
 10
326.301514
 20
-118.596069
 11
326.301514
 21
-120.596085
  0
LINE
  8
0
 10
318.301514
 20
-120.596085
 11
318.791534
 21
-120.596085
  0
LINE
  8
0
 10
325.811523
 20
-120.596085
 11
326.301514
 21
-120.596085
  0
LINE
  8
0
 10
321.068665
 20
-118.596069
 11
316.151520
 21
-118.596069
  0
LINE
  8
0
 10
323.301514
 20
-128.896072
 11
323.301514
 21
-130.296082
  0
LINE
  8
0
 10
331.301514
 20
-128.896072
 11
331.301514
 21
-130.296082
  0
LINE
  8
0
 10
323.301514
 20
-130.296082
 11
323.953369
 21
-130.296082
  0
LINE
  8
0
 10
326.301514
 20
-119.296082
 11
333.151520
 21
-119.296082
  0
LINE
  8
0
 10
332.401520
 20
-119.296082
 11
332.401520
 21
-128.896072
  0
LINE
  8
0
 10
322.201538
 20
-128.896072
 11
325.391022
 21
-128.896072
  0
LINE
  8
0
 10
333.151520
 20
-117.796082
 11
333.151520
 21
-119.296082
  0
LINE
  8
0
 10
323.401520
 20
-134.296082
 11
323.401520
 21
-132.296082
  0
LINE
  8
0
 10
331.201508
 20
-134.296082
 11
331.201508
 21
-132.296082
  0
LINE
  8
0
 10
330.649658
 20
-130.296082
 11
331.301514
 21
-130.296082
  0
LINE
  8
0
 10
329.212006
 20
-128.896072
 11
332.401520
 21
-128.896072
  0
LINE
  8
0
 10
315.301514
 20
-66.796082
 11
353.301514
 21
-66.796082
  0
LINE
  8
0
 10
315.301514
 20
-108.796082
 11
353.301514
 21
-108.796082
  0
LINE
  8
0
 10
315.301514
 20
-49.596085
 11
353.301514
 21
-49.596085
  0
LINE
  8
0
 10
321.563141
 20
-52.096085
 11
327.841888
 21
-52.096085
  0
LINE
  8
0
 10
340.684814
 20
-52.096085
 11
346.250061
 21
-52.096085
  0
LINE
  8
0
 10
322.201538
 20
-128.194794
 11
322.201538
 21
-128.896072
  0
LINE
  8
0
 10
322.301514
 20
-117.296082
 11
322.301514
 21
-129.296082
  0
LINE
  8
0
 10
327.301514
 20
-127.296082
 11
327.301514
 21
-139.296082
  0
LINE
  8
0
 10
341.301514
 20
-117.296082
 11
341.301514
 21
-129.296082
  0
LINE
  8
0
 10
346.301514
 20
-127.296082
 11
346.301514
 21
-139.296082
  0
LINE
  8
0
 10
317.301514
 20
-123.296082
 11
327.301514
 21
-123.296082
  0
LINE
  8
0
 10
336.301514
 20
-123.296082
 11
346.301514
 21
-123.296082
  0
LINE
  8
0
 10
341.301514
 20
-133.296082
 11
351.301514
 21
-133.296082
  0
LINE
  8
0
 10
322.301514
 20
-133.296082
 11
332.301514
 21
-133.296082
  0
ARC
  8
0
 10
341.301514
 20
-124.296082
 40
3.899994
 50
180.000000
 51
0.000000
  0
CIRCLE
  8
0
 10
341.301514
 20
-123.296082
 40
2.000000
  0
ARC
  8
0
 10
341.301514
 20
-122.296082
 40
3.899994
 50
0.000000
 51
180.000000
  0
ARC
  8
0
 10
346.301514
 20
-134.296082
 40
3.899994
 50
180.000000
 51
0.000000
  0
CIRCLE
  8
0
 10
346.301514
 20
-133.296082
 40
2.000000
  0
ARC
  8
0
 10
346.301514
 20
-132.296082
 40
3.899994
 50
0.000000
 51
180.000000
  0
ARC
  8
0
 10
327.301514
 20
-132.296082
 40
3.899994
 50
0.000000
 51
180.000000
  0
ARC
  8
0
 10
322.301514
 20
-124.296082
 40
3.899994
 50
180.000000
 51
0.000000
  0
CIRCLE
  8
0
 10
322.301514
 20
-123.296082
 40
2.000000
  0
ARC
  8
0
 10
322.301514
 20
-122.296082
 40
3.899994
 50
0.000000
 51
180.000000
  0
ARC
  8
0
 10
327.301514
 20
-134.296082
 40
3.899994
 50
180.000000
 51
0.000000
  0
CIRCLE
  8
0
 10
327.301514
 20
-133.296082
 40
2.000000
  0
CIRCLE
  8
0
 10
324.801514
 20
-52.096085
 40
1.500000
  0
CIRCLE
  8
0
 10
343.801514
 20
-52.096085
 40
1.500000
  0
POINT
  8
0
 10
315.301453
 20
-192.796005
  0
POINT
  8
0
 10
353.301453
 20
-192.796005
  0
LINE
  8
0
 10
353.301453
 20
-192.796005
 11
353.301453
 21
-219.796005
  0
LINE
  8
0
 10
343.801453
 20
-220.796005
 11
343.801453
 21
-159.796005
  0
LINE
  8
0
 10
348.801453
 20
-200.046005
 11
348.801453
 21
-198.646011
  0
LINE
  8
0
 10
349.701447
 20
-206.945999
 11
349.701447
 21
-212.796005
  0
LINE
  8
0
 10
342.901428
 20
-206.945999
 11
342.901428
 21
-212.796005
  0
LINE
  8
0
 10
350.201447
 20
-198.645996
 11
342.401459
 21
-198.645996
  0
LINE
  8
0
 10
350.301453
 20
-206.946014
 11
350.301453
 21
-200.046005
  0
LINE
  8
0
 10
343.801453
 20
-200.046005
 11
343.801453
 21
-198.646011
  0
LINE
  8
0
 10
350.301453
 20
-200.046005
 11
342.301453
 21
-200.046005
  0
LINE
  8
0
 10
350.301453
 20
-206.945999
 11
342.301453
 21
-206.945999
  0
LINE
  8
0
 10
342.301453
 20
-206.946014
 11
342.301453
 21
-200.046005
  0
LINE
  8
0
 10
342.401459
 20
-198.645996
 11
342.401459
 21
-197.445999
  0
LINE
  8
0
 10
350.201447
 20
-198.645996
 11
350.201447
 21
-197.445999
  0
LINE
  8
0
 10
350.201447
 20
-197.445999
 11
342.401459
 21
-197.445999
  0
LINE
  8
0
 10
344.701447
 20
-195.946014
 11
344.701447
 21
-197.445999
  0
LINE
  8
0
 10
337.901459
 20
-195.946014
 11
337.901459
 21
-201.796005
  0
LINE
  8
0
 10
345.301453
 20
-195.946014
 11
337.301453
 21
-195.946014
  0
LINE
  8
0
 10
345.301453
 20
-189.046005
 11
337.301453
 21
-189.046005
  0
LINE
  8
0
 10
343.801453
 20
-189.046005
 11
343.801453
 21
-187.646011
  0
LINE
  8
0
 10
345.201447
 20
-187.646011
 11
337.401459
 21
-187.646011
  0
LINE
  8
0
 10
338.801453
 20
-189.046005
 11
338.801453
 21
-187.646011
  0
LINE
  8
0
 10
337.401459
 20
-187.646011
 11
337.401459
 21
-186.446014
  0
LINE
  8
0
 10
345.201447
 20
-186.446014
 11
337.401459
 21
-186.446014
  0
LINE
  8
0
 10
345.201447
 20
-187.646011
 11
345.201447
 21
-186.446014
  0
LINE
  8
0
 10
337.301453
 20
-195.946014
 11
337.301453
 21
-189.046021
  0
LINE
  8
0
 10
345.301453
 20
-195.946014
 11
345.301453
 21
-189.046021
  0
LINE
  8
0
 10
334.301453
 20
-192.796005
 11
334.301453
 21
-219.796005
  0
LINE
  8
0
 10
326.201447
 20
-186.446014
 11
318.401459
 21
-186.446014
  0
LINE
  8
0
 10
315.301453
 20
-219.796005
 11
353.301453
 21
-219.796005
  0
LINE
  8
0
 10
324.801453
 20
-220.796005
 11
324.801453
 21
-159.796005
  0
LINE
  8
0
 10
329.801453
 20
-200.046005
 11
329.801453
 21
-198.646011
  0
LINE
  8
0
 10
330.701447
 20
-206.945999
 11
330.701447
 21
-212.796005
  0
LINE
  8
0
 10
323.901459
 20
-206.945999
 11
323.901459
 21
-212.796005
  0
LINE
  8
0
 10
331.201447
 20
-198.645996
 11
323.401459
 21
-198.645996
  0
LINE
  8
0
 10
331.301453
 20
-206.946014
 11
331.301453
 21
-200.046005
  0
LINE
  8
0
 10
324.801453
 20
-200.046005
 11
324.801453
 21
-198.646011
  0
LINE
  8
0
 10
331.301453
 20
-200.046005
 11
323.301453
 21
-200.046005
  0
LINE
  8
0
 10
331.301453
 20
-206.945999
 11
323.301453
 21
-206.945999
  0
LINE
  8
0
 10
323.301453
 20
-206.946014
 11
323.301453
 21
-200.046005
  0
LINE
  8
0
 10
323.401459
 20
-198.645996
 11
323.401459
 21
-197.445999
  0
LINE
  8
0
 10
331.201447
 20
-198.645996
 11
331.201447
 21
-197.445999
  0
LINE
  8
0
 10
331.201447
 20
-197.445999
 11
323.401459
 21
-197.445999
  0
LINE
  8
0
 10
325.701447
 20
-195.946014
 11
325.701447
 21
-197.445999
  0
LINE
  8
0
 10
318.901459
 20
-195.946014
 11
318.901459
 21
-201.796005
  0
LINE
  8
0
 10
326.301453
 20
-195.946014
 11
318.301453
 21
-195.946014
  0
LINE
  8
0
 10
326.301453
 20
-189.046005
 11
318.301453
 21
-189.046005
  0
LINE
  8
0
 10
324.801453
 20
-189.046005
 11
324.801453
 21
-187.646011
  0
LINE
  8
0
 10
326.201447
 20
-187.646011
 11
318.401459
 21
-187.646011
  0
LINE
  8
0
 10
318.401459
 20
-187.646011
 11
318.401459
 21
-186.446014
  0
LINE
  8
0
 10
326.201447
 20
-187.646011
 11
326.201447
 21
-186.446014
  0
LINE
  8
0
 10
318.301453
 20
-195.946014
 11
318.301453
 21
-189.046021
  0
LINE
  8
0
 10
326.301453
 20
-195.946014
 11
326.301453
 21
-189.046021
  0
LINE
  8
0
 10
352.801453
 20
-164.796005
 11
352.801453
 21
-192.796005
  0
LINE
  8
0
 10
315.801453
 20
-164.796005
 11
315.801453
 21
-192.796005
  0
LINE
  8
0
 10
352.801453
 20
-164.796005
 11
315.801453
 21
-164.796005
  0
LINE
  8
0
 10
350.626862
 20
-160.796005
 11
336.976074
 21
-160.796005
  0
LINE
  8
0
 10
336.836426
 20
-164.796021
 11
336.976105
 21
-160.796005
  0
LINE
  8
0
 10
350.766602
 20
-164.796021
 11
350.626923
 21
-160.796005
  0
LINE
  8
0
 10
317.836426
 20
-164.795990
 11
317.976105
 21
-160.796005
  0
LINE
  8
0
 10
331.626862
 20
-160.796005
 11
317.976074
 21
-160.796005
  0
LINE
  8
0
 10
331.766602
 20
-164.796036
 11
331.626892
 21
-160.795990
  0
LINE
  8
0
 10
315.301453
 20
-192.796005
 11
318.301453
 21
-192.796005
  0
LINE
  8
0
 10
319.801453
 20
-189.046005
 11
319.801453
 21
-187.646011
  0
LINE
  8
0
 10
326.301453
 20
-192.796005
 11
337.301453
 21
-192.796005
  0
LINE
  8
0
 10
345.301453
 20
-192.796005
 11
353.301453
 21
-192.796005
  0
LINE
  8
0
 10
315.801453
 20
-191.796005
 11
318.301453
 21
-191.796005
  0
LINE
  8
0
 10
326.301453
 20
-191.796005
 11
337.301453
 21
-191.796005
  0
LINE
  8
0
 10
345.301453
 20
-191.796005
 11
352.801453
 21
-191.796005
  0
ARC
  8
0
 10
346.301453
 20
-212.796005
 40
3.399994
 50
180.000000
 51
282.412170
  0
ARC
  8
0
 10
346.301453
 20
-212.796005
 40
3.400003
 50
278.456512
 51
0.000000
  0
ARC
  8
0
 10
341.301453
 20
-201.796005
 40
3.399994
 50
180.000000
 51
282.234222
  0
ARC
  8
0
 10
341.301453
 20
-201.796005
 40
3.400003
 50
278.456512
 51
287.104614
  0
ARC
  8
0
 10
327.301453
 20
-212.796005
 40
3.399994
 50
180.000000
 51
283.707703
  0
ARC
  8
0
 10
327.301453
 20
-212.796005
 40
3.400003
 50
278.456512
 51
0.000000
  0
ARC
  8
0
 10
322.301453
 20
-201.796005
 40
3.399994
 50
180.000000
 51
282.947235
  0
ARC
  8
0
 10
322.301453
 20
-201.796005
 40
3.400003
 50
278.456512
 51
287.104614
  0
TEXT
  8
0
 10
348.817444
 20
-196.981750
 40
3.000000
  1
B
 50
0.000000
 41
1.052632
 51
0.000000
  7
STANDARD
  0
TEXT
  8
0
 10
335.623016
 20
-214.496002
 40
3.000000
  1
A
 50
0.000000
 41
1.052632
 51
0.000000
  7
STANDARD
  0
TEXT
  8
0
 10
329.817474
 20
-196.981750
 40
3.000000
  1
B
 50
0.000000
 41
1.052632
 51
0.000000
  7
STANDARD
  0
TEXT
  8
0
 10
316.623016
 20
-214.496002
 40
3.000000
  1
A
 50
0.000000
 41
1.052632
 51
0.000000
  7
STANDARD
  0
POINT
  8
0
 10
226.801514
 20
-117.295990
  0
POINT
  8
0
 10
206.801514
 20
-117.295990
  0
LINE
  8
0
 10
206.801514
 20
-48.095978
 11
233.801453
 21
-48.095978
  0
LINE
  8
0
 10
232.301453
 20
-47.613380
 11
237.318939
 21
-47.438171
  0
LINE
  8
0
 10
206.801514
 20
-21.695969
 11
237.801468
 21
-21.695969
  0
LINE
  8
0
 10
208.801575
 20
-19.695969
 11
231.301514
 21
-19.695969
  0
LINE
  8
0
 10
207.801483
 20
-21.695999
 11
208.801498
 21
-19.695953
  0
LINE
  8
0
 10
232.301483
 20
-21.695976
 11
231.301498
 21
-19.695992
  0
LINE
  8
0
 10
237.801453
 20
-21.695969
 11
237.801453
 21
-46.938522
  0
LINE
  8
0
 10
232.301453
 20
-21.695969
 11
232.301453
 21
-48.095978
  0
LINE
  8
0
 10
209.401520
 20
-125.295975
 11
210.801514
 21
-125.295975
  0
LINE
  8
0
 10
210.801514
 20
-117.895981
 11
212.001526
 21
-117.895981
  0
LINE
  8
0
 10
192.801514
 20
-117.295990
 11
192.801514
 21
-123.695984
  0
LINE
  8
0
 10
200.801514
 20
-117.295990
 11
200.801514
 21
-119.895981
  0
LINE
  8
0
 10
195.901535
 20
-126.795975
 11
209.401520
 21
-126.795975
  0
LINE
  8
0
 10
202.501526
 20
-118.795975
 11
209.401520
 21
-118.795975
  0
LINE
  8
0
 10
200.801529
 20
-119.895981
 11
202.501526
 21
-119.895981
  0
LINE
  8
0
 10
202.501526
 20
-118.795975
 11
202.501526
 21
-126.795975
  0
LINE
  8
0
 10
209.401520
 20
-118.795975
 11
209.401520
 21
-126.795975
  0
LINE
  8
0
 10
212.001526
 20
-117.895981
 11
212.001526
 21
-127.695984
  0
LINE
  8
0
 10
210.801514
 20
-117.895981
 11
210.801514
 21
-127.695984
  0
LINE
  8
0
 10
209.401520
 20
-120.295975
 11
210.801514
 21
-120.295975
  0
LINE
  8
0
 10
210.801514
 20
-127.695984
 11
212.001526
 21
-127.695984
  0
LINE
  8
0
 10
181.801514
 20
-128.395981
 11
181.801514
 21
-133.695984
  0
LINE
  8
0
 10
189.801514
 20
-128.395981
 11
189.801514
 21
-129.795975
  0
LINE
  8
0
 10
184.901520
 20
-136.795975
 11
198.401535
 21
-136.795975
  0
LINE
  8
0
 10
191.501526
 20
-128.795975
 11
198.401535
 21
-128.795975
  0
LINE
  8
0
 10
189.801529
 20
-129.895981
 11
191.501526
 21
-129.895981
  0
LINE
  8
0
 10
191.501526
 20
-128.795975
 11
191.501526
 21
-136.795975
  0
LINE
  8
0
 10
198.401520
 20
-128.795975
 11
198.401520
 21
-136.795975
  0
LINE
  8
0
 10
201.001526
 20
-127.895981
 11
201.001526
 21
-137.695984
  0
LINE
  8
0
 10
199.801514
 20
-127.895981
 11
199.801514
 21
-137.695984
  0
LINE
  8
0
 10
198.401520
 20
-130.295975
 11
199.801529
 21
-130.295975
  0
LINE
  8
0
 10
198.401520
 20
-135.295975
 11
199.801529
 21
-135.295975
  0
LINE
  8
0
 10
199.801529
 20
-127.895981
 11
201.001526
 21
-127.895981
  0
LINE
  8
0
 10
199.801529
 20
-137.695984
 11
201.001526
 21
-137.695984
  0
LINE
  8
0
 10
190.901520
 20
-117.295990
 11
190.901520
 21
-128.395981
  0
LINE
  8
0
 10
180.701523
 20
-117.295990
 11
180.701523
 21
-128.395981
  0
LINE
  8
0
 10
180.701538
 20
-128.395981
 11
190.901535
 21
-128.395981
  0
LINE
  8
0
 10
206.801514
 20
-66.295975
 11
233.801468
 21
-66.295975
  0
LINE
  8
0
 10
206.801514
 20
-108.295975
 11
233.801468
 21
-108.295975
  0
LINE
  8
0
 10
206.801514
 20
-116.695969
 11
233.801468
 21
-116.695969
  0
LINE
  8
0
 10
233.801453
 20
-48.095978
 11
233.801453
 21
-116.695969
  0
ARC
  8
0
 10
179.404160
 20
-23.095993
 40
0.200005
 50
214.416901
 51
270.000000
  0
ARC
  8
0
 10
237.301453
 20
-46.938538
 40
0.500000
 50
272.000732
 51
0.000000
  0
ARC
  8
0
 10
195.901520
 20
-123.695984
 40
3.100006
 50
180.000000
 51
270.000000
  0
ARC
  8
0
 10
184.901520
 20
-133.695984
 40
3.100006
 50
180.000000
 51
270.000000
  0
ENDSEC
  0
EOF
