  0
SECTION
  2
HEADER
  0
ENDSEC
  0
SECTION
  2
TABLES
  0
TABLE
  2
LTYPE
 70
     4
  0
LTYPE
  2
CONTINUOUS
 70
    64
  3
Solid line
 72
    65
 73
     0
 40
0.000000
  0
LTYPE
  2
DASHED
 70
    64
  3
__ __ __ __ __ __ __ __ __ __ __ __ __ __ __
 72
    65
 73
     2
 40
3.500000
 49
2.000000
 49
-1.500000
  0
LTYPE
  2
CENTER
 70
    64
  3
____ _ ____ _ ____ _ ____ _ ____ _ ____ _ ____
 72
    65
 73
     4
 40
17.500000
 49
13.000000
 49
-1.500000
 49
1.500000
 49
-1.500000
  0
LTYPE
  2
PHANTOM
 70
    64
  3
_____ _ _ _____ _ _ _____ _ _ _____ _ _ ____  
 72
    65
 73
     6
 40
15.500000
 49
8.000000
 49
-1.500000
 49
1.500000
 49
-1.500000
 49
1.500000
 49
-1.500000
  0
LTYPE
  2
DASHED1
 70
    64
  3
__ __ __ __ __ __ __ __ __ __ __ __ __ __ __
 72
    65
 73
     2
 40
1.500000
 49
1.000000
 49
-0.500000
  0
LTYPE
  2
DASHED2
 70
    64
  3
__ __ __ __ __ __ __ __ __ __ __ __ __ __ __
 72
    65
 73
     2
 40
3.500000
 49
2.500000
 49
-1.000000
  0
LTYPE
  2
DASHED3
 70
    64
  3
__ __ __ __ __ __ __ __ __ __ __ __ __ __ __
 72
    65
 73
     2
 40
6.000000
 49
4.000000
 49
-2.000000
  0
LTYPE
  2
DASHED4
 70
    64
  3
__ __ __ __ __ __ __ __ __ __ __ __ __ __ __
 72
    65
 73
     2
 40
12.000000
 49
10.000000
 49
-2.000000
  0
LTYPE
  2
DASHED5
 70
    64
  3
__ __ __ __ __ __ __ __ __ __ __ __ __ __ __
 72
    65
 73
     2
 40
17.000000
 49
15.000000
 49
-2.000000
  0
LTYPE
  2
DASHED6
 70
    64
  3
__ __ __ __ __ __ __ __ __ __ __ __ __ __ __
 72
    65
 73
     2
 40
29.000000
 49
27.000000
 49
-2.000000
  0
LTYPE
  2
PHANTOM1
 70
    64
  3
_____ _ _ _____ _ _ _____ _ _ _____ _ _ ____  
 72
    65
 73
     6
 40
31.000000
 49
25.000000
 49
-1.500000
 49
1.000000
 49
-1.000000
 49
1.000000
 49
-1.500000
  0
LTYPE
  2
PHANTOM2
 70
    64
  3
_____ _ _ _____ _ _ _____ _ _ _____ _ _ ____  
 72
    65
 73
     6
 40
36.000000
 49
27.000000
 49
-1.500000
 49
2.500000
 49
-1.000000
 49
2.500000
 49
-1.500000
  0
LTYPE
  2
PHANTOM3
 70
    64
  3
_____ _ _ _____ _ _ _____ _ _ _____ _ _ ____  
 72
    65
 73
     6
 40
78.000000
 49
64.000000
 49
-2.000000
 49
4.000000
 49
-2.000000
 49
4.000000
 49
-2.000000
  0
LTYPE
  2
CENTER1
 70
    64
  3
____ _ ____ _ ____ _ ____ _ ____ _ ____ _ ____
 72
    65
 73
     4
 40
19.000000
 49
14.000000
 49
-1.000000
 49
3.000000
 49
-1.000000
  0
LTYPE
  2
CENTER2
 70
    64
  3
____ _ ____ _ ____ _ ____ _ ____ _ ____ _ ____
 72
    65
 73
     4
 40
28.500000
 49
25.000000
 49
-1.000000
 49
1.500000
 49
-1.000000
  0
LTYPE
  2
CENTER3
 70
    64
  3
____ _ ____ _ ____ _ ____ _ ____ _ ____ _ ____
 72
    65
 73
     4
 40
31.500000
 49
27.000000
 49
-1.000000
 49
2.500000
 49
-1.000000
  0
LTYPE
  2
CENTER4
 70
    64
  3
____ _ ____ _ ____ _ ____ _ ____ _ ____ _ ____
 72
    65
 73
     4
 40
50.000000
 49
45.000000
 49
-1.000000
 49
3.000000
 49
-1.000000
  0
LTYPE
  2
CENTER5
 70
    64
  3
____ _ ____ _ ____ _ ____ _ ____ _ ____ _ ____
 72
    65
 73
     4
 40
100.000000
 49
92.000000
 49
-2.000000
 49
4.000000
 49
-2.000000
  0
LTYPE
  2
SBK1
 70
    64
  3
______ _ _ _ ______ _ _ _ ______ _ _ _ _____  
 72
    65
 73
     8
 40
60.500000
 49
45.000000
 49
-2.000000
 49
2.500000
 49
-2.000000
 49
2.500000
 49
-2.000000
 49
2.500000
 49
-2.000000
  0
LTYPE
  2
SBK2
 70
    64
  3
______ _ _ _ ______ _ _ _ ______ _ _ _ _____  
 72
    65
 73
     8
 40
84.000000
 49
64.000000
 49
-2.000000
 49
4.000000
 49
-2.000000
 49
4.000000
 49
-2.000000
 49
4.000000
 49
-2.000000
  0
LTYPE
  2
STCH
 70
    64
  3
__ __ __ __ __ __ __ __ __ __ __ __ __ __ __
 72
    65
 73
     2
 40
3.000000
 49
1.000000
 49
-2.000000
  0
LTYPE
  2
MTCH
 70
    64
  3
_____ _ _ _____ _ _ _____ _ _ _____ _ _ ____  
 72
    65
 73
     6
 40
80.000000
 49
66.000000
 49
-2.000000
 49
4.000000
 49
-2.000000
 49
4.000000
 49
-2.000000
  0
ENDTAB
  0
TABLE
  2
LAYER
 70
     1
  0
LAYER
  2
0
 70
     0
 62
     7
  6
CONTINUOUS
  0
ENDTAB
  0
TABLE
  2
STYLE
 70
     1
  0
STYLE
  2
STANDARD
 70
     0
 40
0.000000
 41
1.000000
 50
0.000000
 71
     0
 42
0.200000
  3
txt
  4
BIGFONT
  0
ENDTAB
  0
TABLE
  2
VIEW
 70
     0
  0
ENDTAB
  0
ENDSEC
  0
SECTION
  2
BLOCKS
  0
ENDSEC
  0
SECTION
  2
ENTITIES
  0
LINE
  8
0
 10
-420.500000
 20
297.000000
 11
420.500000
 21
297.000000
  0
LINE
  8
0
 10
-420.500000
 20
-297.000000
 11
420.500000
 21
-297.000000
  0
LINE
  8
0
 10
420.500000
 20
297.000000
 11
420.500000
 21
-297.000000
  0
LINE
  8
0
 10
-420.500000
 20
297.000000
 11
-420.500000
 21
-297.000000
  0
LINE
  8
0
 10
399.799988
 20
276.250000
 11
399.799988
 21
-276.750000
  0
LINE
  8
0
 10
-399.250000
 20
276.250000
 11
-399.250000
 21
-276.750000
  0
LINE
  8
0
 10
-399.250000
 20
276.250000
 11
399.799988
 21
276.250000
  0
LINE
  8
0
 10
-399.250000
 20
-276.750000
 11
399.799988
 21
-276.750000
  0
LINE
  8
0
 10
133.450012
 20
-251.750000
 11
399.799988
 21
-251.750000
  0
LINE
  8
0
 10
239.799988
 20
251.250000
 11
399.799988
 21
251.250000
  0
LINE
  8
0
 10
-399.250000
 20
251.250000
 11
-239.250000
 21
251.250000
  0
LINE
  8
0
 10
239.799988
 20
-251.750000
 11
239.799988
 21
-276.750000
  0
LINE
  8
0
 10
239.799988
 20
251.250000
 11
239.799988
 21
276.250000
  0
LINE
  8
0
 10
-239.250000
 20
276.250000
 11
-239.250000
 21
251.250000
  0
LINE
  8
0
 10
-399.250000
 20
-0.250000
 11
399.799988
 21
-0.250000
  0
LINE
  8
0
 10
-399.250000
 20
-261.750000
 11
133.450012
 21
-261.750000
  0
LINE
  8
0
 10
-399.250000
 20
14.750000
 11
399.799988
 21
14.750000
  0
LINE
  8
0
 10
-132.899994
 20
276.250000
 11
-132.899994
 21
-276.750000
  0
LINE
  8
0
 10
133.450012
 20
276.250000
 11
133.450012
 21
-276.750000
  0
LINE
  8
0
 10
133.450012
 20
-236.750000
 11
399.799988
 21
-236.750000
  0
LINE
  8
0
  6
PHANTOM
 10
-357.196564
 20
129.262970
 11
-329.196564
 21
129.262970
  0
LINE
  8
0
  6
PHANTOM
 10
-357.196564
 20
227.262970
 11
-357.196564
 21
129.262970
  0
LINE
  8
0
  6
PHANTOM
 10
-329.196564
 20
227.262970
 11
-329.196564
 21
129.262970
  0
LINE
  8
0
  6
PHANTOM
 10
-357.196564
 20
227.262970
 11
-329.196564
 21
227.262970
  0
LINE
  8
0
  6
PHANTOM
 10
-60.487671
 20
129.262970
 11
-88.487663
 21
129.262970
  0
LINE
  8
0
  6
PHANTOM
 10
-88.487663
 20
129.262970
 11
-88.487663
 21
227.262970
  0
LINE
  8
0
  6
PHANTOM
 10
-88.487663
 20
227.262970
 11
-60.487671
 21
227.262970
  0
LINE
  8
0
  6
PHANTOM
 10
-60.487671
 20
227.262970
 11
-60.487671
 21
129.262970
  0
LINE
  8
0
  6
PHANTOM
 10
175.301514
 20
227.262970
 11
203.301498
 21
227.262970
  0
LINE
  8
0
  6
PHANTOM
 10
175.301514
 20
129.262970
 11
203.301498
 21
129.262970
  0
LINE
  8
0
  6
PHANTOM
 10
175.301514
 20
129.262970
 11
175.301514
 21
227.262970
  0
LINE
  8
0
  6
PHANTOM
 10
203.301498
 20
227.262970
 11
203.301498
 21
129.262970
  0
LINE
  8
0
  6
PHANTOM
 10
-357.196564
 20
-33.296005
 11
-357.196564
 21
-131.296005
  0
LINE
  8
0
  6
PHANTOM
 10
-329.196564
 20
-131.296005
 11
-329.196564
 21
-33.296005
  0
LINE
  8
0
  6
PHANTOM
 10
-357.196564
 20
-33.296005
 11
-329.196564
 21
-33.296005
  0
LINE
  8
0
  6
PHANTOM
 10
-357.196564
 20
-131.296005
 11
-329.196564
 21
-131.296005
  0
LINE
  8
0
  6
PHANTOM
 10
-88.487663
 20
-131.296005
 11
-60.487671
 21
-131.296005
  0
LINE
  8
0
  6
PHANTOM
 10
-88.487663
 20
-33.296005
 11
-60.487671
 21
-33.296005
  0
LINE
  8
0
  6
PHANTOM
 10
-88.487663
 20
-131.296005
 11
-88.487663
 21
-33.296005
  0
LINE
  8
0
  6
PHANTOM
 10
-60.487671
 20
-131.296005
 11
-60.487671
 21
-33.296005
  0
LINE
  8
0
  6
PHANTOM
 10
175.301514
 20
-33.296005
 11
203.301514
 21
-33.296005
  0
LINE
  8
0
  6
PHANTOM
 10
175.301514
 20
-131.296005
 11
203.301514
 21
-131.296005
  0
LINE
  8
0
  6
PHANTOM
 10
175.301514
 20
-33.296005
 11
175.301514
 21
-131.296005
  0
LINE
  8
0
  6
PHANTOM
 10
203.301514
 20
-131.296005
 11
203.301514
 21
-33.296005
  0
TEXT
  8
0
 10
-345.785156
 20
253.500000
 40
12.500000
  1
X88M
 50
0.000000
 41
1.052632
 51
0.000000
  7
STANDARD
  0
TEXT
  8
0
 10
242.014816
 20
-274.500000
 40
12.500000
  1
KOGANEI CORP.
 50
0.000000
 41
1.052632
 51
0.000000
  7
STANDARD
  0
TEXT
  8
0
 10
251.264664
 20
256.649994
 40
9.000000
  1
DATE: SEP ,1992
 50
0.000000
 41
1.052632
 51
0.000000
  7
STANDARD
  0
TEXT
  8
0
 10
-348.110718
 20
0.149999
 40
9.000000
  1
MODEL : FMX110-4E1
 50
0.000000
 41
1.052632
 51
0.000000
  7
STANDARD
  0
TEXT
  8
0
 10
-95.260719
 20
0.149999
 40
9.000000
  1
MODEL : FMX110-4E1-J4
 50
0.000000
 41
1.052632
 51
0.000000
  7
STANDARD
  0
TEXT
  8
0
 10
171.089279
 20
0.149999
 40
9.000000
  1
MODEL : FMX110-4E1-J6
 50
0.000000
 41
1.052632
 51
0.000000
  7
STANDARD
  0
TEXT
  8
0
 10
-352.610718
 20
-276.350006
 40
9.000000
  1
MODEL : FMX110-4KE2
 50
0.000000
 41
1.052632
 51
0.000000
  7
STANDARD
  0
TEXT
  8
0
 10
-99.760719
 20
-276.350006
 40
9.000000
  1
MODEL : FMX110-4KE2-J4
 50
0.000000
 41
1.052632
 51
0.000000
  7
STANDARD
  0
TEXT
  8
0
 10
166.589279
 20
-251.350006
 40
9.000000
  1
MODEL : FMX110-4KE2-J6
 50
0.000000
 41
1.052632
 51
0.000000
  7
STANDARD
  0
POINT
  8
0
 10
-208.196579
 20
129.262970
  0
POINT
  8
0
 10
-192.196579
 20
129.262970
  0
LINE
  8
0
 10
-192.196579
 20
227.262970
 11
-192.196579
 21
129.262970
  0
LINE
  8
0
 10
-208.196579
 20
227.262970
 11
-192.196579
 21
227.262970
  0
LINE
  8
0
 10
-208.196579
 20
129.262970
 11
-192.196579
 21
129.262970
  0
LINE
  8
0
 10
-208.196579
 20
173.262970
 11
-192.196579
 21
173.262970
  0
LINE
  8
0
 10
-208.196579
 20
145.262985
 11
-192.196579
 21
145.262985
  0
LINE
  8
0
 10
-208.196579
 20
137.762985
 11
-192.196579
 21
137.762985
  0
LINE
  8
0
 10
-200.196579
 20
228.262970
 11
-200.196579
 21
125.802742
  0
LINE
  8
0
 10
-200.661179
 20
164.262970
 11
-193.711334
 21
164.262970
  0
LINE
  8
0
 10
-206.513687
 20
154.262985
 11
-199.563843
 21
154.262985
  0
LINE
  8
0
 10
-197.196579
 20
167.861786
 11
-197.196579
 21
160.088943
  0
LINE
  8
0
 10
-203.196579
 20
157.711349
 11
-203.196579
 21
150.761505
  0
LINE
  8
0
 10
-202.581528
 20
186.762970
 11
-197.734924
 21
186.762970
  0
LINE
  8
0
 10
-208.196579
 20
190.262970
 11
-192.196579
 21
190.262970
  0
LINE
  8
0
 10
-205.696579
 20
192.062973
 11
-194.696579
 21
192.062973
  0
LINE
  8
0
 10
-205.696579
 20
206.262985
 11
-194.696579
 21
206.262985
  0
LINE
  8
0
 10
-205.696579
 20
213.762985
 11
-194.696579
 21
213.762985
  0
LINE
  8
0
 10
-205.696579
 20
213.763000
 11
-205.696579
 21
206.263000
  0
LINE
  8
0
 10
-194.696579
 20
213.762985
 11
-194.696579
 21
206.262985
  0
LINE
  8
0
 10
-196.696579
 20
199.262985
 11
-196.696579
 21
195.262985
  0
LINE
  8
0
 10
-203.696579
 20
199.263000
 11
-203.696579
 21
195.263000
  0
LINE
  8
0
 10
-205.696579
 20
204.563004
 11
-205.696579
 21
192.062988
  0
LINE
  8
0
 10
-194.696579
 20
204.562988
 11
-194.696579
 21
192.062988
  0
LINE
  8
0
 10
-205.696579
 20
204.562973
 11
-194.696579
 21
204.562973
  0
LINE
  8
0
 10
-203.696579
 20
195.262985
 11
-196.696579
 21
195.262985
  0
LINE
  8
0
 10
-203.696579
 20
199.262985
 11
-196.696579
 21
199.262985
  0
LINE
  8
0
 10
-208.196579
 20
216.662994
 11
-192.196579
 21
216.662994
  0
LINE
  8
0
 10
-206.596405
 20
218.662994
 11
-193.796478
 21
218.662994
  0
LINE
  8
0
 10
-207.696457
 20
216.662918
 11
-206.596405
 21
218.662994
  0
LINE
  8
0
 10
-193.796478
 20
218.662994
 11
-192.696487
 21
216.663010
  0
CIRCLE
  8
0
 10
-200.196579
 20
186.762970
 40
1.650000
  0
CIRCLE
  8
0
 10
-203.196579
 20
154.262985
 40
1.750000
  0
CIRCLE
  8
0
 10
-203.196579
 20
154.262985
 40
2.500000
  0
CIRCLE
  8
0
 10
-197.196579
 20
164.262970
 40
1.750000
  0
CIRCLE
  8
0
 10
-197.196579
 20
164.262970
 40
2.500000
  0
TEXT
  8
0
 10
-200.946579
 20
147.262985
 40
2.000000
  1
B
 50
0.000000
 41
1.052632
 51
0.000000
  7
STANDARD
  0
TEXT
  8
0
 10
-200.946579
 20
170.762970
 40
2.000000
  1
A
 50
0.000000
 41
1.052632
 51
0.000000
  7
STANDARD
  0
POINT
  8
0
 10
-208.196579
 20
71.762955
  0
POINT
  8
0
 10
-192.196579
 20
71.762955
  0
LINE
  8
0
 10
-192.196579
 20
44.762955
 11
-192.196579
 21
71.762955
  0
LINE
  8
0
 10
-208.196579
 20
44.762955
 11
-192.196579
 21
44.762955
  0
LINE
  8
0
 10
-200.196579
 20
103.262955
 11
-200.196579
 21
43.262955
  0
LINE
  8
0
 10
-207.696579
 20
96.762955
 11
-192.696579
 21
96.762955
  0
LINE
  8
0
 10
-192.696579
 20
71.762955
 11
-192.696579
 21
96.762955
  0
LINE
  8
0
 10
-207.696579
 20
71.762955
 11
-207.696579
 21
96.762955
  0
LINE
  8
0
 10
-193.371170
 20
102.262955
 11
-207.021973
 21
102.262955
  0
LINE
  8
0
 10
-207.214035
 20
96.762955
 11
-207.021973
 21
102.262955
  0
LINE
  8
0
 10
-193.179108
 20
96.762962
 11
-193.371170
 21
102.262955
  0
LINE
  8
0
 10
-192.196579
 20
71.762955
 11
-208.196579
 21
71.762955
  0
LINE
  8
0
 10
-207.696579
 20
72.762955
 11
-192.696579
 21
72.762955
  0
POINT
  8
0
 10
-309.196564
 20
129.262970
  0
POINT
  8
0
 10
-329.196564
 20
129.262970
  0
LINE
  8
0
 10
-329.196564
 20
173.262970
 11
-305.196564
 21
173.262970
  0
LINE
  8
0
 10
-329.196564
 20
137.762985
 11
-305.196564
 21
137.762985
  0
LINE
  8
0
 10
-305.196564
 20
190.745575
 11
-300.179108
 21
190.920792
  0
LINE
  8
0
 10
-329.196564
 20
216.662964
 11
-299.696564
 21
216.662964
  0
LINE
  8
0
 10
-328.696472
 20
218.662964
 11
-306.196533
 21
218.662964
  0
LINE
  8
0
 10
-329.196564
 20
217.662781
 11
-328.696472
 21
218.662964
  0
LINE
  8
0
 10
-305.196533
 20
216.663025
 11
-306.196503
 21
218.662979
  0
LINE
  8
0
 10
-299.696564
 20
216.662964
 11
-299.696564
 21
191.420441
  0
LINE
  8
0
 10
-305.196564
 20
216.662964
 11
-305.196564
 21
137.762985
  0
LINE
  8
0
 10
-329.196564
 20
190.262970
 11
-305.196564
 21
190.262970
  0
LINE
  8
0
 10
-329.196564
 20
145.262909
 11
-305.196564
 21
145.262909
  0
LINE
  8
0
 10
-326.696564
 20
164.262985
 11
-321.696564
 21
164.262985
  0
LINE
  8
0
 10
-326.696564
 20
154.262970
 11
-321.696564
 21
154.262970
  0
LINE
  8
0
 10
-324.196564
 20
166.762985
 11
-324.196564
 21
151.436005
  0
CIRCLE
  8
0
 10
-324.196564
 20
164.262985
 40
1.599999
  0
CIRCLE
  8
0
 10
-324.196564
 20
154.262970
 40
1.599999
  0
ARC
  8
0
 10
-300.196564
 20
191.420425
 40
0.500000
 50
272.000732
 51
0.000000
  0
POINT
  8
0
 10
60.512321
 20
129.262939
  0
POINT
  8
0
 10
76.512321
 20
129.262939
  0
LINE
  8
0
 10
76.512321
 20
227.262939
 11
76.512321
 21
129.262939
  0
LINE
  8
0
 10
60.512321
 20
227.262939
 11
76.512321
 21
227.262939
  0
LINE
  8
0
 10
60.512321
 20
129.262939
 11
76.512321
 21
129.262939
  0
LINE
  8
0
 10
60.512321
 20
190.262939
 11
76.512321
 21
190.262939
  0
LINE
  8
0
 10
63.012329
 20
192.062943
 11
74.012321
 21
192.062943
  0
LINE
  8
0
 10
63.012329
 20
206.262955
 11
74.012321
 21
206.262955
  0
LINE
  8
0
 10
63.012329
 20
213.762955
 11
74.012321
 21
213.762955
  0
LINE
  8
0
 10
63.012329
 20
213.762970
 11
63.012329
 21
206.262970
  0
LINE
  8
0
 10
74.012321
 20
213.762955
 11
74.012321
 21
206.262955
  0
LINE
  8
0
 10
72.012321
 20
199.262955
 11
72.012321
 21
195.262955
  0
LINE
  8
0
 10
65.012321
 20
199.262970
 11
65.012321
 21
195.262970
  0
LINE
  8
0
 10
63.012329
 20
204.562973
 11
63.012329
 21
192.062958
  0
LINE
  8
0
 10
74.012321
 20
204.562958
 11
74.012321
 21
192.062958
  0
LINE
  8
0
 10
63.012329
 20
204.562943
 11
74.012321
 21
204.562943
  0
LINE
  8
0
 10
65.012321
 20
195.262955
 11
72.012321
 21
195.262955
  0
LINE
  8
0
 10
65.012321
 20
199.262955
 11
72.012321
 21
199.262955
  0
LINE
  8
0
 10
60.512321
 20
216.662964
 11
76.512321
 21
216.662964
  0
LINE
  8
0
 10
62.112492
 20
218.662964
 11
74.912422
 21
218.662964
  0
LINE
  8
0
 10
61.012444
 20
216.662872
 11
62.112492
 21
218.662964
  0
LINE
  8
0
 10
74.912422
 20
218.662964
 11
76.012421
 21
216.662964
  0
LINE
  8
0
 10
60.512321
 20
173.262939
 11
76.512321
 21
173.262939
  0
LINE
  8
0
 10
60.512321
 20
145.262955
 11
76.512321
 21
145.262955
  0
LINE
  8
0
 10
60.512321
 20
137.762955
 11
76.512321
 21
137.762955
  0
LINE
  8
0
 10
68.512321
 20
228.262939
 11
68.512321
 21
172.574448
  0
LINE
  8
0
 10
66.127373
 20
181.962952
 11
70.973976
 21
181.962952
  0
LINE
  8
0
 10
70.612328
 20
155.262955
 11
70.612328
 21
153.262955
  0
LINE
  8
0
 10
62.812309
 20
155.262955
 11
62.812309
 21
153.262955
  0
LINE
  8
0
 10
74.212334
 20
165.262939
 11
74.212334
 21
163.262939
  0
LINE
  8
0
 10
66.412315
 20
165.262939
 11
66.412315
 21
163.262939
  0
LINE
  8
0
 10
68.512321
 20
169.598343
 11
68.512321
 21
149.068253
  0
LINE
  8
0
 10
68.512321
 20
146.495697
 11
68.512321
 21
128.262939
  0
LINE
  8
0
 10
66.127373
 20
186.762939
 11
70.973976
 21
186.762939
  0
LINE
  8
0
 10
64.312325
 20
164.262939
 11
76.312325
 21
164.262939
  0
LINE
  8
0
 10
60.712318
 20
154.262955
 11
72.712318
 21
154.262955
  0
LINE
  8
0
 10
70.312325
 20
171.762939
 11
70.312325
 21
156.762939
  0
LINE
  8
0
 10
66.712318
 20
161.762955
 11
66.712318
 21
146.762955
  0
CIRCLE
  8
0
 10
68.512321
 20
186.762939
 40
1.650000
  0
CIRCLE
  8
0
 10
68.512321
 20
181.962952
 40
2.000000
  0
ARC
  8
0
 10
66.712318
 20
155.262955
 40
3.900002
 50
0.000000
 51
180.000000
  0
ARC
  8
0
 10
66.712318
 20
153.262955
 40
3.900002
 50
180.000000
 51
0.000000
  0
CIRCLE
  8
0
 10
66.712318
 20
154.262955
 40
2.000000
  0
ARC
  8
0
 10
70.312325
 20
165.262939
 40
3.900002
 50
0.000000
 51
180.000000
  0
ARC
  8
0
 10
70.312325
 20
163.262939
 40
3.900002
 50
180.000000
 51
0.000000
  0
CIRCLE
  8
0
 10
70.312325
 20
164.262939
 40
2.000000
  0
TEXT
  8
0
 10
67.762321
 20
147.262955
 40
2.000000
  1
B
 50
0.000000
 41
1.052632
 51
0.000000
  7
STANDARD
  0
TEXT
  8
0
 10
67.762321
 20
170.762939
 40
2.000000
  1
A
 50
0.000000
 41
1.052632
 51
0.000000
  7
STANDARD
  0
POINT
  8
0
 10
60.512321
 20
71.762955
  0
POINT
  8
0
 10
76.512321
 20
71.762955
  0
LINE
  8
0
 10
76.512321
 20
44.762955
 11
76.512321
 21
71.762955
  0
LINE
  8
0
 10
60.512321
 20
44.762955
 11
76.512321
 21
44.762955
  0
LINE
  8
0
 10
68.512321
 20
106.862946
 11
68.512321
 21
43.262955
  0
LINE
  8
0
 10
76.012321
 20
71.762955
 11
76.012321
 21
96.762955
  0
LINE
  8
0
 10
61.012329
 20
71.762955
 11
61.012329
 21
96.762955
  0
LINE
  8
0
 10
61.012329
 20
96.762955
 11
76.012321
 21
96.762955
  0
LINE
  8
0
 10
62.812325
 20
105.862946
 11
70.612328
 21
105.862946
  0
LINE
  8
0
 10
62.812325
 20
104.662949
 11
70.612328
 21
104.662949
  0
LINE
  8
0
 10
69.212318
 20
103.162949
 11
69.212318
 21
104.662949
  0
LINE
  8
0
 10
64.212318
 20
103.162949
 11
64.212318
 21
104.662949
  0
LINE
  8
0
 10
71.712318
 20
96.762939
 11
71.712318
 21
103.162949
  0
LINE
  8
0
 10
61.712318
 20
96.762939
 11
61.712318
 21
103.162949
  0
LINE
  8
0
 10
70.612328
 20
104.662949
 11
70.612328
 21
105.862946
  0
LINE
  8
0
 10
62.812325
 20
104.662949
 11
62.812325
 21
105.862946
  0
LINE
  8
0
 10
61.712326
 20
103.162949
 11
71.712334
 21
103.162949
  0
LINE
  8
0
 10
70.612328
 20
105.862946
 11
74.212334
 21
105.862946
  0
LINE
  8
0
 10
70.612328
 20
104.662949
 11
74.212334
 21
104.662949
  0
LINE
  8
0
 10
72.812325
 20
103.162949
 11
72.812325
 21
104.662949
  0
LINE
  8
0
 10
75.312325
 20
96.762939
 11
75.312325
 21
103.162949
  0
LINE
  8
0
 10
74.212318
 20
104.662949
 11
74.212318
 21
105.862946
  0
LINE
  8
0
 10
71.712334
 20
103.162949
 11
75.312325
 21
103.162949
  0
LINE
  8
0
 10
66.712318
 20
95.857330
 11
66.712318
 21
106.488495
  0
LINE
  8
0
 10
70.312325
 20
96.140411
 11
70.312325
 21
106.488495
  0
LINE
  8
0
 10
76.512321
 20
71.762955
 11
60.512321
 21
71.762955
  0
LINE
  8
0
 10
61.012329
 20
72.762955
 11
76.012321
 21
72.762955
  0
POINT
  8
0
 10
-40.487671
 20
129.262970
  0
POINT
  8
0
 10
-60.487671
 20
129.262970
  0
LINE
  8
0
 10
-36.487671
 20
190.745575
 11
-31.470201
 21
190.920792
  0
LINE
  8
0
 10
-60.487671
 20
216.662964
 11
-30.987656
 21
216.662964
  0
LINE
  8
0
 10
-59.987556
 20
218.662964
 11
-37.673065
 21
218.662964
  0
LINE
  8
0
 10
-60.487671
 20
217.662781
 11
-59.987564
 21
218.662994
  0
LINE
  8
0
 10
-36.487648
 20
216.662994
 11
-37.404716
 21
218.497131
  0
LINE
  8
0
 10
-30.987656
 20
216.662964
 11
-30.987656
 21
191.420425
  0
LINE
  8
0
 10
-60.487671
 20
190.262970
 11
-36.487656
 21
190.262970
  0
LINE
  8
0
 10
-60.487671
 20
173.262970
 11
-36.487671
 21
173.262970
  0
LINE
  8
0
 10
-60.487671
 20
145.262970
 11
-36.487671
 21
145.262970
  0
LINE
  8
0
 10
-60.487671
 20
137.762970
 11
-36.487671
 21
137.762970
  0
LINE
  8
0
 10
-36.487671
 20
216.662964
 11
-36.487671
 21
137.762970
  0
LINE
  8
0
 10
-27.387665
 20
169.162979
 11
-27.387665
 21
159.362976
  0
LINE
  8
0
 10
-28.587662
 20
169.162979
 11
-27.387665
 21
169.162979
  0
LINE
  8
0
 10
-28.587662
 20
159.362976
 11
-27.387665
 21
159.362976
  0
LINE
  8
0
 10
-28.587662
 20
169.162979
 11
-28.587662
 21
159.362976
  0
LINE
  8
0
 10
-30.087662
 20
161.762970
 11
-28.587662
 21
161.762970
  0
LINE
  8
0
 10
-30.087662
 20
166.762970
 11
-28.587662
 21
166.762970
  0
LINE
  8
0
 10
-36.487671
 20
169.262970
 11
-30.087662
 21
169.262970
  0
LINE
  8
0
 10
-27.387665
 20
159.162964
 11
-27.387665
 21
149.362976
  0
LINE
  8
0
 10
-28.587662
 20
159.162979
 11
-27.387665
 21
159.162979
  0
LINE
  8
0
 10
-28.587662
 20
149.362976
 11
-27.387665
 21
149.362976
  0
LINE
  8
0
 10
-28.587662
 20
159.162964
 11
-28.587662
 21
149.362976
  0
LINE
  8
0
 10
-30.087662
 20
151.762970
 11
-28.587662
 21
151.762970
  0
LINE
  8
0
 10
-30.087662
 20
156.762970
 11
-28.587662
 21
156.762970
  0
LINE
  8
0
 10
-36.487671
 20
149.262970
 11
-30.087662
 21
149.262970
  0
LINE
  8
0
 10
-36.487671
 20
159.262970
 11
-30.087662
 21
159.262970
  0
LINE
  8
0
 10
-30.087662
 20
169.262970
 11
-30.087662
 21
149.262970
  0
ARC
  8
0
 10
-31.487656
 20
191.420410
 40
0.499999
 50
272.000061
 51
0.000000
  0
POINT
  8
0
 10
323.801453
 20
129.262970
  0
POINT
  8
0
 10
339.801453
 20
129.262970
  0
LINE
  8
0
 10
339.801453
 20
227.262970
 11
339.801453
 21
129.262970
  0
LINE
  8
0
 10
323.801453
 20
227.262970
 11
339.801453
 21
227.262970
  0
LINE
  8
0
 10
323.801453
 20
129.262970
 11
339.801453
 21
129.262970
  0
LINE
  8
0
 10
323.801453
 20
190.262970
 11
339.801453
 21
190.262970
  0
LINE
  8
0
 10
326.301453
 20
192.062973
 11
337.301453
 21
192.062973
  0
LINE
  8
0
 10
326.301453
 20
206.262985
 11
337.301453
 21
206.262985
  0
LINE
  8
0
 10
326.301453
 20
213.762985
 11
337.301453
 21
213.762985
  0
LINE
  8
0
 10
326.301453
 20
213.763000
 11
326.301453
 21
206.263000
  0
LINE
  8
0
 10
337.301453
 20
213.762985
 11
337.301453
 21
206.262985
  0
LINE
  8
0
 10
335.301453
 20
199.262985
 11
335.301453
 21
195.262985
  0
LINE
  8
0
 10
328.301453
 20
199.263000
 11
328.301453
 21
195.263000
  0
LINE
  8
0
 10
326.301453
 20
204.563004
 11
326.301453
 21
192.062988
  0
LINE
  8
0
 10
337.301453
 20
204.562988
 11
337.301453
 21
192.062988
  0
LINE
  8
0
 10
326.301453
 20
204.562973
 11
337.301453
 21
204.562973
  0
LINE
  8
0
 10
328.301453
 20
195.262985
 11
335.301453
 21
195.262985
  0
LINE
  8
0
 10
328.301453
 20
199.262985
 11
335.301453
 21
199.262985
  0
LINE
  8
0
 10
323.801453
 20
216.662994
 11
339.801453
 21
216.662994
  0
LINE
  8
0
 10
325.401611
 20
218.662994
 11
338.201508
 21
218.662994
  0
LINE
  8
0
 10
324.301575
 20
216.662903
 11
325.401611
 21
218.662994
  0
LINE
  8
0
 10
338.201508
 20
218.662994
 11
339.301514
 21
216.663010
  0
LINE
  8
0
 10
323.801453
 20
145.262985
 11
339.801453
 21
145.262985
  0
LINE
  8
0
 10
323.801453
 20
137.762985
 11
339.801453
 21
137.762985
  0
LINE
  8
0
 10
331.801453
 20
228.262970
 11
331.801453
 21
172.574478
  0
LINE
  8
0
 10
329.416504
 20
186.762970
 11
334.263123
 21
186.762970
  0
LINE
  8
0
 10
329.136292
 20
181.962982
 11
334.444702
 21
181.962982
  0
LINE
  8
0
 10
331.801453
 20
169.598373
 11
331.801453
 21
149.068283
  0
LINE
  8
0
 10
331.801453
 20
146.495728
 11
331.801453
 21
128.262970
  0
LINE
  8
0
 10
329.429535
 20
161.505280
 11
330.843750
 21
160.091064
  0
LINE
  8
0
 10
336.359192
 20
168.434937
 11
337.773407
 21
167.020737
  0
LINE
  8
0
 10
325.829529
 20
151.505280
 11
327.243744
 21
150.091064
  0
LINE
  8
0
 10
332.759155
 20
158.434921
 11
334.173370
 21
157.020706
  0
LINE
  8
0
 10
333.601440
 20
171.762970
 11
333.601440
 21
156.762970
  0
LINE
  8
0
 10
330.001465
 20
161.762985
 11
330.001465
 21
146.762985
  0
LINE
  8
0
 10
326.101440
 20
164.262970
 11
341.101440
 21
164.262970
  0
LINE
  8
0
 10
322.501465
 20
154.262985
 11
337.501465
 21
154.262985
  0
CIRCLE
  8
0
 10
331.801453
 20
186.762970
 40
1.650000
  0
CIRCLE
  8
0
 10
331.801453
 20
181.962982
 40
2.000000
  0
ARC
  8
0
 10
332.894348
 20
164.970078
 40
4.899997
 50
45.000126
 51
225.000000
  0
ARC
  8
0
 10
334.308563
 20
163.555862
 40
4.899997
 50
225.000122
 51
45.000126
  0
CIRCLE
  8
0
 10
333.601440
 20
164.262970
 40
3.000000
  0
ARC
  8
0
 10
329.294342
 20
154.970093
 40
4.899997
 50
45.000126
 51
225.000000
  0
ARC
  8
0
 10
330.708557
 20
153.555878
 40
4.899997
 50
225.000122
 51
45.000000
  0
CIRCLE
  8
0
 10
330.001465
 20
154.262985
 40
3.000000
  0
TEXT
  8
0
 10
331.051453
 20
170.762970
 40
2.000000
  1
A
 50
0.000000
 41
1.052632
 51
0.000000
  7
STANDARD
  0
TEXT
  8
0
 10
331.051453
 20
147.262985
 40
2.000000
  1
B
 50
0.000000
 41
1.052632
 51
0.000000
  7
STANDARD
  0
POINT
  8
0
 10
323.801453
 20
71.762970
  0
POINT
  8
0
 10
339.801453
 20
71.762970
  0
LINE
  8
0
 10
339.801453
 20
44.762970
 11
339.801453
 21
71.762970
  0
LINE
  8
0
 10
323.801453
 20
44.762970
 11
339.801453
 21
44.762970
  0
LINE
  8
0
 10
331.801453
 20
105.957474
 11
331.801453
 21
43.262970
  0
LINE
  8
0
 10
339.301453
 20
71.762970
 11
339.301453
 21
96.762970
  0
LINE
  8
0
 10
324.301453
 20
71.762970
 11
324.301453
 21
96.762970
  0
LINE
  8
0
 10
324.301453
 20
96.762970
 11
339.301453
 21
96.762970
  0
LINE
  8
0
 10
330.001465
 20
95.857346
 11
330.001465
 21
107.562958
  0
LINE
  8
0
 10
333.601440
 20
96.140427
 11
333.601440
 21
107.562958
  0
LINE
  8
0
 10
324.394348
 20
106.562958
 11
324.394348
 21
105.362961
  0
LINE
  8
0
 10
335.608551
 20
106.562958
 11
335.608551
 21
105.362961
  0
LINE
  8
0
 10
339.208557
 20
106.562958
 11
339.208557
 21
105.362961
  0
LINE
  8
0
 10
324.394348
 20
106.562958
 11
339.208557
 21
106.562958
  0
LINE
  8
0
 10
324.394348
 20
105.362961
 11
339.208557
 21
105.362961
  0
LINE
  8
0
 10
326.501465
 20
104.562958
 11
326.501465
 21
105.362946
  0
LINE
  8
0
 10
333.501465
 20
104.562958
 11
333.501465
 21
105.362961
  0
LINE
  8
0
 10
325.001465
 20
104.562958
 11
338.601440
 21
104.562958
  0
LINE
  8
0
 10
335.001465
 20
96.762970
 11
335.001465
 21
103.762970
  0
LINE
  8
0
 10
325.001465
 20
96.762970
 11
325.001465
 21
104.562958
  0
LINE
  8
0
 10
337.101440
 20
104.562958
 11
337.101440
 21
105.362961
  0
LINE
  8
0
 10
338.601440
 20
96.762970
 11
338.601440
 21
104.562958
  0
LINE
  8
0
 10
339.801453
 20
71.762970
 11
323.801453
 21
71.762970
  0
LINE
  8
0
 10
324.301453
 20
72.762970
 11
339.301453
 21
72.762970
  0
POINT
  8
0
 10
223.301498
 20
129.262970
  0
POINT
  8
0
 10
203.301498
 20
129.262970
  0
LINE
  8
0
 10
227.301483
 20
190.745590
 11
232.318970
 21
190.920807
  0
LINE
  8
0
 10
203.301498
 20
216.662964
 11
232.801514
 21
216.662964
  0
LINE
  8
0
 10
203.801605
 20
218.662964
 11
226.301544
 21
218.662964
  0
LINE
  8
0
 10
203.301498
 20
217.662781
 11
203.801605
 21
218.662994
  0
LINE
  8
0
 10
227.301529
 20
216.662994
 11
226.301544
 21
218.662964
  0
LINE
  8
0
 10
232.801514
 20
216.662964
 11
232.801514
 21
191.420425
  0
LINE
  8
0
 10
203.301498
 20
190.262970
 11
227.301514
 21
190.262970
  0
LINE
  8
0
 10
203.301498
 20
173.262970
 11
227.301498
 21
173.262970
  0
LINE
  8
0
 10
203.301498
 20
145.262970
 11
227.301498
 21
145.262970
  0
LINE
  8
0
 10
203.301498
 20
137.762970
 11
227.301498
 21
137.762970
  0
LINE
  8
0
 10
227.301498
 20
216.662964
 11
227.301498
 21
137.762970
  0
LINE
  8
0
 10
236.401505
 20
169.162979
 11
236.401505
 21
159.362976
  0
LINE
  8
0
 10
235.201508
 20
169.162979
 11
236.401505
 21
169.162979
  0
LINE
  8
0
 10
235.201508
 20
159.362976
 11
236.401505
 21
159.362976
  0
LINE
  8
0
 10
235.201508
 20
169.162979
 11
235.201508
 21
159.362976
  0
LINE
  8
0
 10
233.701508
 20
161.762970
 11
235.201508
 21
161.762970
  0
LINE
  8
0
 10
233.701508
 20
166.762970
 11
235.201508
 21
166.762970
  0
LINE
  8
0
 10
227.301498
 20
169.262970
 11
233.701508
 21
169.262970
  0
LINE
  8
0
 10
236.401505
 20
159.162964
 11
236.401505
 21
149.362976
  0
LINE
  8
0
 10
235.201508
 20
159.162979
 11
236.401505
 21
159.162979
  0
LINE
  8
0
 10
235.201508
 20
149.362976
 11
236.401505
 21
149.362976
  0
LINE
  8
0
 10
235.201508
 20
159.162964
 11
235.201508
 21
149.362976
  0
LINE
  8
0
 10
233.701508
 20
151.762970
 11
235.201508
 21
151.762970
  0
LINE
  8
0
 10
233.701508
 20
156.762970
 11
235.201508
 21
156.762970
  0
LINE
  8
0
 10
227.301498
 20
149.262970
 11
233.701508
 21
149.262970
  0
LINE
  8
0
 10
227.301498
 20
159.262970
 11
233.701508
 21
159.262970
  0
LINE
  8
0
 10
233.701508
 20
169.262970
 11
233.701508
 21
149.262970
  0
ARC
  8
0
 10
232.301514
 20
191.420410
 40
0.500000
 50
272.000732
 51
0.000000
  0
POINT
  8
0
 10
-223.196594
 20
-131.296021
  0
POINT
  8
0
 10
-191.196594
 20
-131.296021
  0
LINE
  8
0
 10
-191.196594
 20
-33.296021
 11
-191.196594
 21
-131.296021
  0
LINE
  8
0
 10
-204.696594
 20
-68.496017
 11
-193.696594
 21
-68.496017
  0
LINE
  8
0
 10
-204.696594
 20
-54.296005
 11
-193.696594
 21
-54.296005
  0
LINE
  8
0
 10
-204.696594
 20
-46.796005
 11
-193.696594
 21
-46.796005
  0
LINE
  8
0
 10
-204.696594
 20
-46.795990
 11
-204.696594
 21
-54.295990
  0
LINE
  8
0
 10
-193.696594
 20
-46.796005
 11
-193.696594
 21
-54.296005
  0
LINE
  8
0
 10
-195.696594
 20
-61.296005
 11
-195.696594
 21
-65.296005
  0
LINE
  8
0
 10
-202.696594
 20
-61.295990
 11
-202.696594
 21
-65.295990
  0
LINE
  8
0
 10
-204.696594
 20
-55.995987
 11
-204.696594
 21
-68.496002
  0
LINE
  8
0
 10
-193.696594
 20
-55.996002
 11
-193.696594
 21
-68.496002
  0
LINE
  8
0
 10
-204.696594
 20
-55.996017
 11
-193.696594
 21
-55.996017
  0
LINE
  8
0
 10
-202.696594
 20
-65.296005
 11
-195.696594
 21
-65.296005
  0
LINE
  8
0
 10
-202.696594
 20
-61.296005
 11
-195.696594
 21
-61.296005
  0
LINE
  8
0
 10
-205.596466
 20
-41.895996
 11
-192.796600
 21
-41.895996
  0
LINE
  8
0
 10
-206.696487
 20
-43.896049
 11
-205.596466
 21
-41.896004
  0
LINE
  8
0
 10
-192.796646
 20
-41.896034
 11
-191.696640
 21
-43.896065
  0
LINE
  8
0
 10
-207.196594
 20
-33.296021
 11
-207.196594
 21
-87.296021
  0
LINE
  8
0
 10
-223.196594
 20
-33.296021
 11
-191.196594
 21
-33.296021
  0
LINE
  8
0
 10
-223.196594
 20
-131.296021
 11
-191.196594
 21
-131.296021
  0
LINE
  8
0
 10
-223.196594
 20
-70.296021
 11
-191.196594
 21
-70.296021
  0
LINE
  8
0
 10
-220.696594
 20
-68.496017
 11
-209.696594
 21
-68.496017
  0
LINE
  8
0
 10
-220.696594
 20
-54.296005
 11
-209.696594
 21
-54.296005
  0
LINE
  8
0
 10
-220.696594
 20
-46.796005
 11
-209.696594
 21
-46.796005
  0
LINE
  8
0
 10
-220.696594
 20
-46.795990
 11
-220.696594
 21
-54.295990
  0
LINE
  8
0
 10
-209.696594
 20
-46.796005
 11
-209.696594
 21
-54.296005
  0
LINE
  8
0
 10
-211.696594
 20
-61.296005
 11
-211.696594
 21
-65.296005
  0
LINE
  8
0
 10
-218.696594
 20
-61.295990
 11
-218.696594
 21
-65.295990
  0
LINE
  8
0
 10
-220.696594
 20
-55.995987
 11
-220.696594
 21
-68.496002
  0
LINE
  8
0
 10
-209.696594
 20
-55.996002
 11
-209.696594
 21
-68.496002
  0
LINE
  8
0
 10
-220.696594
 20
-55.996017
 11
-209.696594
 21
-55.996017
  0
LINE
  8
0
 10
-218.696594
 20
-65.296005
 11
-211.696594
 21
-65.296005
  0
LINE
  8
0
 10
-218.696594
 20
-61.296005
 11
-211.696594
 21
-61.296005
  0
LINE
  8
0
 10
-223.196594
 20
-43.895996
 11
-191.196594
 21
-43.895996
  0
LINE
  8
0
 10
-221.596436
 20
-41.895996
 11
-208.796585
 21
-41.895996
  0
LINE
  8
0
 10
-222.696457
 20
-43.896072
 11
-221.596436
 21
-41.896011
  0
LINE
  8
0
 10
-208.796631
 20
-41.896019
 11
-207.696625
 21
-43.896049
  0
LINE
  8
0
 10
-223.196594
 20
-115.296021
 11
-191.196594
 21
-115.296021
  0
LINE
  8
0
 10
-223.196594
 20
-122.796021
 11
-191.196594
 21
-122.796021
  0
LINE
  8
0
 10
-223.196594
 20
-87.296021
 11
-191.196594
 21
-87.296021
  0
LINE
  8
0
 10
-218.461761
 20
-73.796021
 11
-211.882706
 21
-73.796021
  0
LINE
  8
0
 10
-202.014099
 20
-73.796021
 11
-196.579224
 21
-73.796021
  0
LINE
  8
0
 10
-207.196594
 20
-122.796021
 11
-207.196594
 21
-130.796021
  0
LINE
  8
0
 10
-215.196594
 20
-32.296021
 11
-215.196594
 21
-132.296021
  0
LINE
  8
0
 10
-199.196594
 20
-32.296021
 11
-199.196594
 21
-132.296021
  0
LINE
  8
0
 10
-204.196594
 20
-102.296021
 11
-204.196594
 21
-110.296021
  0
LINE
  8
0
 10
-210.196594
 20
-92.296021
 11
-210.196594
 21
-100.296021
  0
LINE
  8
0
 10
-214.196594
 20
-96.296021
 11
-206.196594
 21
-96.296021
  0
LINE
  8
0
 10
-208.196594
 20
-106.296021
 11
-200.196594
 21
-106.296021
  0
CIRCLE
  8
0
 10
-215.196594
 20
-73.796021
 40
1.500000
  0
CIRCLE
  8
0
 10
-199.196594
 20
-73.796021
 40
1.500000
  0
CIRCLE
  8
0
 10
-204.196594
 20
-106.296021
 40
1.750000
  0
CIRCLE
  8
0
 10
-204.196594
 20
-106.296021
 40
2.500000
  0
CIRCLE
  8
0
 10
-210.196594
 20
-96.296021
 40
2.500000
  0
CIRCLE
  8
0
 10
-210.196594
 20
-96.296021
 40
1.750000
  0
TEXT
  8
0
 10
-212.553619
 20
-90.046021
 40
2.500000
  1
A
 50
0.000000
 41
1.052631
 51
0.000000
  7
STANDARD
  0
TEXT
  8
0
 10
-205.553741
 20
-113.546021
 40
2.500000
  1
B
 50
0.000000
 41
1.052632
 51
0.000000
  7
STANDARD
  0
POINT
  8
0
 10
-223.196594
 20
-188.796021
  0
POINT
  8
0
 10
-191.196594
 20
-188.796021
  0
LINE
  8
0
 10
-191.196594
 20
-215.796021
 11
-191.196594
 21
-188.796021
  0
LINE
  8
0
 10
-199.196594
 20
-157.296021
 11
-199.196594
 21
-217.296021
  0
LINE
  8
0
 10
-191.696594
 20
-188.796021
 11
-191.696594
 21
-163.796021
  0
LINE
  8
0
 10
-192.371155
 20
-158.296021
 11
-206.021973
 21
-158.296021
  0
LINE
  8
0
 10
-206.214035
 20
-163.796021
 11
-206.021973
 21
-158.296021
  0
LINE
  8
0
 10
-192.179092
 20
-163.796021
 11
-192.371155
 21
-158.296021
  0
LINE
  8
0
 10
-207.196594
 20
-215.596024
 11
-207.196594
 21
-188.796021
  0
LINE
  8
0
 10
-223.196594
 20
-215.796021
 11
-191.196594
 21
-215.796021
  0
LINE
  8
0
 10
-215.196594
 20
-157.296021
 11
-215.196594
 21
-217.296021
  0
LINE
  8
0
 10
-222.696594
 20
-188.796021
 11
-222.696594
 21
-163.796021
  0
LINE
  8
0
 10
-208.371185
 20
-158.296021
 11
-222.021988
 21
-158.296021
  0
LINE
  8
0
 10
-222.214050
 20
-163.796021
 11
-222.021988
 21
-158.296021
  0
LINE
  8
0
 10
-208.179123
 20
-163.796021
 11
-208.371185
 21
-158.296021
  0
LINE
  8
0
 10
-191.696594
 20
-163.796021
 11
-222.696594
 21
-163.796021
  0
LINE
  8
0
 10
-191.196594
 20
-188.796021
 11
-223.196594
 21
-188.796021
  0
LINE
  8
0
 10
-222.696594
 20
-187.796021
 11
-191.696594
 21
-187.796021
  0
POINT
  8
0
 10
-309.196564
 20
-131.296005
  0
POINT
  8
0
 10
-329.196564
 20
-131.296005
  0
LINE
  8
0
 10
-305.196564
 20
-69.813400
 11
-299.696533
 21
-69.621338
  0
LINE
  8
0
 10
-329.196564
 20
-43.896011
 11
-299.696533
 21
-43.896011
  0
LINE
  8
0
 10
-328.696472
 20
-41.896011
 11
-306.196533
 21
-41.896011
  0
LINE
  8
0
 10
-329.196564
 20
-42.896164
 11
-328.696472
 21
-41.895988
  0
LINE
  8
0
 10
-305.196533
 20
-43.895981
 11
-306.196533
 21
-41.896019
  0
LINE
  8
0
 10
-299.696533
 20
-43.896011
 11
-299.696533
 21
-69.621353
  0
LINE
  8
0
 10
-329.196564
 20
-70.296005
 11
-305.196533
 21
-70.296005
  0
LINE
  8
0
 10
-329.196564
 20
-115.296005
 11
-305.196533
 21
-115.296005
  0
LINE
  8
0
 10
-329.196564
 20
-122.796005
 11
-305.196564
 21
-122.796005
  0
LINE
  8
0
 10
-305.196564
 20
-43.896011
 11
-305.196564
 21
-122.796005
  0
LINE
  8
0
 10
-329.196564
 20
-87.296005
 11
-305.196533
 21
-87.296005
  0
POINT
  8
0
 10
45.129173
 20
-132.136597
  0
POINT
  8
0
 10
77.129181
 20
-132.136597
  0
LINE
  8
0
 10
77.129181
 20
-34.136597
 11
77.129181
 21
-132.136597
  0
LINE
  8
0
 10
63.629173
 20
-69.336594
 11
74.629181
 21
-69.336594
  0
LINE
  8
0
 10
63.629173
 20
-55.136581
 11
74.629181
 21
-55.136581
  0
LINE
  8
0
 10
63.629173
 20
-47.636581
 11
74.629181
 21
-47.636581
  0
LINE
  8
0
 10
63.629173
 20
-47.636566
 11
63.629173
 21
-55.136566
  0
LINE
  8
0
 10
74.629181
 20
-47.636581
 11
74.629181
 21
-55.136581
  0
LINE
  8
0
 10
72.629173
 20
-62.136581
 11
72.629173
 21
-66.136581
  0
LINE
  8
0
 10
65.629173
 20
-62.136566
 11
65.629173
 21
-66.136566
  0
LINE
  8
0
 10
63.629173
 20
-56.836563
 11
63.629173
 21
-69.336578
  0
LINE
  8
0
 10
74.629181
 20
-56.836578
 11
74.629181
 21
-69.336578
  0
LINE
  8
0
 10
63.629173
 20
-56.836594
 11
74.629181
 21
-56.836594
  0
LINE
  8
0
 10
65.629173
 20
-66.136581
 11
72.629173
 21
-66.136581
  0
LINE
  8
0
 10
65.629173
 20
-62.136581
 11
72.629173
 21
-62.136581
  0
LINE
  8
0
 10
62.906548
 20
-42.736572
 11
75.351776
 21
-42.736572
  0
LINE
  8
0
 10
61.629272
 20
-44.736641
 11
62.643784
 21
-42.892082
  0
LINE
  8
0
 10
75.614578
 20
-42.892059
 11
76.629097
 21
-44.736633
  0
LINE
  8
0
 10
61.129173
 20
-34.636597
 11
61.129173
 21
-88.136597
  0
LINE
  8
0
 10
45.129173
 20
-34.136597
 11
77.129181
 21
-34.136597
  0
LINE
  8
0
 10
45.129173
 20
-132.136597
 11
77.129181
 21
-132.136597
  0
LINE
  8
0
 10
45.129173
 20
-71.136597
 11
77.129181
 21
-71.136597
  0
LINE
  8
0
 10
47.629173
 20
-69.336594
 11
58.629173
 21
-69.336594
  0
LINE
  8
0
 10
47.629173
 20
-55.136581
 11
58.629173
 21
-55.136581
  0
LINE
  8
0
 10
47.629173
 20
-47.636581
 11
58.629173
 21
-47.636581
  0
LINE
  8
0
 10
47.629173
 20
-47.636566
 11
47.629173
 21
-55.136566
  0
LINE
  8
0
 10
58.629173
 20
-47.636581
 11
58.629173
 21
-55.136581
  0
LINE
  8
0
 10
56.629173
 20
-62.136581
 11
56.629173
 21
-66.136581
  0
LINE
  8
0
 10
49.629173
 20
-62.136566
 11
49.629173
 21
-66.136566
  0
LINE
  8
0
 10
47.629173
 20
-56.836563
 11
47.629173
 21
-69.336578
  0
LINE
  8
0
 10
58.629173
 20
-56.836578
 11
58.629173
 21
-69.336578
  0
LINE
  8
0
 10
47.629173
 20
-56.836594
 11
58.629173
 21
-56.836594
  0
LINE
  8
0
 10
49.629173
 20
-66.136581
 11
56.629173
 21
-66.136581
  0
LINE
  8
0
 10
49.629173
 20
-62.136581
 11
56.629173
 21
-62.136581
  0
LINE
  8
0
 10
45.129173
 20
-44.736572
 11
77.129181
 21
-44.736572
  0
LINE
  8
0
 10
46.906548
 20
-42.736572
 11
59.351799
 21
-42.736572
  0
LINE
  8
0
 10
45.629299
 20
-44.736656
 11
46.643810
 21
-42.892090
  0
LINE
  8
0
 10
59.614609
 20
-42.892044
 11
60.629131
 21
-44.736633
  0
LINE
  8
0
 10
45.129173
 20
-116.136597
 11
77.129181
 21
-116.136597
  0
LINE
  8
0
 10
45.129173
 20
-123.636597
 11
77.129181
 21
-123.636597
  0
LINE
  8
0
 10
45.129173
 20
-88.136597
 11
77.129181
 21
-88.136597
  0
LINE
  8
0
 10
53.129173
 20
-33.136597
 11
53.129173
 21
-133.136597
  0
LINE
  8
0
 10
69.129173
 20
-33.136597
 11
69.129173
 21
-133.136597
  0
LINE
  8
0
 10
49.864006
 20
-74.636597
 11
56.443062
 21
-74.636597
  0
LINE
  8
0
 10
66.311668
 20
-74.636597
 11
71.746544
 21
-74.636597
  0
LINE
  8
0
 10
61.129173
 20
-123.636597
 11
61.129173
 21
-131.636597
  0
LINE
  8
0
 10
48.927879
 20
-79.436600
 11
57.251030
 21
-79.436600
  0
LINE
  8
0
 10
64.927864
 20
-79.436600
 11
73.251038
 21
-79.436600
  0
LINE
  8
0
 10
58.829185
 20
-96.136597
 11
58.829185
 21
-98.136597
  0
LINE
  8
0
 10
51.029167
 20
-96.136597
 11
51.029167
 21
-98.136597
  0
LINE
  8
0
 10
71.229179
 20
-106.136597
 11
71.229179
 21
-108.136597
  0
LINE
  8
0
 10
63.429161
 20
-106.136597
 11
63.429161
 21
-108.136597
  0
LINE
  8
0
 10
47.429176
 20
-97.136597
 11
62.429176
 21
-97.136597
  0
LINE
  8
0
 10
59.829170
 20
-107.136597
 11
74.829170
 21
-107.136597
  0
LINE
  8
0
 10
54.929176
 20
-89.636597
 11
54.929176
 21
-104.636597
  0
LINE
  8
0
 10
67.329170
 20
-99.636597
 11
67.329170
 21
-114.636597
  0
CIRCLE
  8
0
 10
53.129173
 20
-74.636597
 40
1.500000
  0
CIRCLE
  8
0
 10
69.129173
 20
-74.636597
 40
1.500000
  0
CIRCLE
  8
0
 10
53.129173
 20
-79.436600
 40
2.700000
  0
CIRCLE
  8
0
 10
69.129173
 20
-79.436600
 40
2.700000
  0
CIRCLE
  8
0
 10
67.329170
 20
-107.136597
 40
5.000000
  0
ARC
  8
0
 10
54.929176
 20
-98.136597
 40
3.900002
 50
180.000000
 51
0.000000
  0
ARC
  8
0
 10
67.329170
 20
-108.136597
 40
3.900002
 50
180.000000
 51
0.000000
  0
CIRCLE
  8
0
 10
54.929176
 20
-97.136597
 40
2.000000
  0
ARC
  8
0
 10
67.329170
 20
-106.136597
 40
3.900002
 50
0.000000
 51
180.000000
  0
CIRCLE
  8
0
 10
67.329170
 20
-107.136597
 40
2.000000
  0
CIRCLE
  8
0
 10
54.929176
 20
-97.136597
 40
5.000000
  0
ARC
  8
0
 10
54.929176
 20
-96.136597
 40
3.900002
 50
0.000000
 51
180.000000
  0
TEXT
  8
0
 10
62.772030
 20
-114.386597
 40
2.500000
  1
B
 50
0.000000
 41
1.052632
 51
0.000000
  7
STANDARD
  0
TEXT
  8
0
 10
55.772144
 20
-90.886597
 40
2.500000
  1
A
 50
0.000000
 41
1.052631
 51
0.000000
  7
STANDARD
  0
POINT
  8
0
 10
45.129173
 20
-189.636612
  0
POINT
  8
0
 10
77.129181
 20
-189.636612
  0
LINE
  8
0
 10
77.129181
 20
-216.636612
 11
77.129181
 21
-189.636612
  0
LINE
  8
0
 10
45.129173
 20
-216.636612
 11
77.129181
 21
-216.636612
  0
LINE
  8
0
 10
69.129173
 20
-158.136612
 11
69.129173
 21
-218.136612
  0
LINE
  8
0
 10
75.954597
 20
-159.136612
 11
72.329170
 21
-159.136612
  0
LINE
  8
0
 10
76.146667
 20
-164.636612
 11
75.954605
 21
-159.136612
  0
LINE
  8
0
 10
61.129173
 20
-216.436615
 11
61.129173
 21
-189.636612
  0
LINE
  8
0
 10
53.129173
 20
-158.136612
 11
53.129173
 21
-218.136612
  0
LINE
  8
0
 10
49.929192
 20
-159.136612
 11
46.303791
 21
-159.136612
  0
LINE
  8
0
 10
46.111732
 20
-164.636612
 11
46.303795
 21
-159.136612
  0
LINE
  8
0
 10
63.429176
 20
-155.536621
 11
71.229179
 21
-155.536621
  0
LINE
  8
0
 10
63.429176
 20
-156.736618
 11
71.229179
 21
-156.736618
  0
LINE
  8
0
 10
69.829170
 20
-158.236618
 11
69.829170
 21
-156.736618
  0
LINE
  8
0
 10
64.829170
 20
-158.236618
 11
64.829170
 21
-156.736618
  0
LINE
  8
0
 10
72.329170
 20
-164.636612
 11
72.329170
 21
-158.236618
  0
LINE
  8
0
 10
71.229179
 20
-156.736618
 11
71.229179
 21
-155.536621
  0
LINE
  8
0
 10
63.429176
 20
-156.736618
 11
63.429176
 21
-155.536621
  0
LINE
  8
0
 10
62.329185
 20
-158.236618
 11
72.329185
 21
-158.236618
  0
LINE
  8
0
 10
68.429176
 20
-158.236618
 11
68.429176
 21
-156.736618
  0
LINE
  8
0
 10
67.329170
 20
-165.636612
 11
67.329170
 21
-153.836624
  0
LINE
  8
0
 10
76.629173
 20
-164.636612
 11
45.629173
 21
-164.636612
  0
LINE
  8
0
 10
62.329170
 20
-164.636612
 11
62.329170
 21
-158.236618
  0
LINE
  8
0
 10
49.929192
 20
-164.636612
 11
49.929192
 21
-158.236618
  0
LINE
  8
0
 10
54.929176
 20
-165.636612
 11
54.929176
 21
-153.836624
  0
LINE
  8
0
 10
51.029182
 20
-155.536621
 11
58.829185
 21
-155.536621
  0
LINE
  8
0
 10
51.029182
 20
-156.736618
 11
58.829185
 21
-156.736618
  0
LINE
  8
0
 10
57.429176
 20
-158.236618
 11
57.429176
 21
-156.736618
  0
LINE
  8
0
 10
52.429192
 20
-158.236618
 11
52.429192
 21
-156.736618
  0
LINE
  8
0
 10
59.929176
 20
-164.636612
 11
59.929176
 21
-158.236618
  0
LINE
  8
0
 10
58.829185
 20
-156.736618
 11
58.829185
 21
-155.536621
  0
LINE
  8
0
 10
51.029182
 20
-156.736618
 11
51.029182
 21
-155.536621
  0
LINE
  8
0
 10
49.929192
 20
-158.236618
 11
59.929192
 21
-158.236618
  0
LINE
  8
0
 10
56.029182
 20
-158.236618
 11
56.029182
 21
-156.736618
  0
LINE
  8
0
 10
77.129181
 20
-189.636612
 11
45.129173
 21
-189.636612
  0
LINE
  8
0
 10
45.629173
 20
-189.636612
 11
45.629173
 21
-164.636612
  0
LINE
  8
0
 10
76.629173
 20
-189.636612
 11
76.629173
 21
-164.636612
  0
LINE
  8
0
 10
45.629173
 20
-188.636612
 11
76.629173
 21
-188.636612
  0
POINT
  8
0
 10
-40.487694
 20
-131.296005
  0
POINT
  8
0
 10
-60.487694
 20
-131.296005
  0
LINE
  8
0
 10
-36.487694
 20
-69.813400
 11
-30.987677
 21
-69.621338
  0
LINE
  8
0
 10
-60.487694
 20
-43.896011
 11
-30.987679
 21
-43.896011
  0
LINE
  8
0
 10
-59.987591
 20
-41.896011
 11
-37.487652
 21
-41.896011
  0
LINE
  8
0
 10
-60.487694
 20
-42.896164
 11
-59.987610
 21
-41.895996
  0
LINE
  8
0
 10
-36.487671
 20
-43.895973
 11
-37.487656
 21
-41.896011
  0
LINE
  8
0
 10
-30.987679
 20
-43.896011
 11
-30.987679
 21
-69.621338
  0
LINE
  8
0
 10
-60.487694
 20
-70.296005
 11
-36.487679
 21
-70.296005
  0
LINE
  8
0
 10
-60.487694
 20
-115.295990
 11
-36.487694
 21
-115.295990
  0
LINE
  8
0
 10
-60.487694
 20
-122.795990
 11
-36.487694
 21
-122.795990
  0
LINE
  8
0
 10
-36.487694
 20
-43.896011
 11
-36.487694
 21
-122.795990
  0
LINE
  8
0
 10
-60.487694
 20
-87.296005
 11
-36.487679
 21
-87.296005
  0
LINE
  8
0
 10
-27.387688
 20
-91.395996
 11
-27.387688
 21
-101.195999
  0
LINE
  8
0
 10
-28.587685
 20
-91.395996
 11
-27.387688
 21
-91.395996
  0
LINE
  8
0
 10
-28.587685
 20
-101.195999
 11
-27.387688
 21
-101.195999
  0
LINE
  8
0
 10
-28.587685
 20
-91.395996
 11
-28.587685
 21
-101.195999
  0
LINE
  8
0
 10
-30.087685
 20
-98.796005
 11
-28.587685
 21
-98.796005
  0
LINE
  8
0
 10
-30.087685
 20
-93.796005
 11
-28.587685
 21
-93.796005
  0
LINE
  8
0
 10
-36.487679
 20
-91.296005
 11
-30.087685
 21
-91.296005
  0
LINE
  8
0
 10
-30.087685
 20
-91.296005
 11
-30.087685
 21
-101.296005
  0
LINE
  8
0
 10
-27.387688
 20
-101.395996
 11
-27.387688
 21
-111.195999
  0
LINE
  8
0
 10
-28.587685
 20
-101.395996
 11
-27.387688
 21
-101.395996
  0
LINE
  8
0
 10
-28.587685
 20
-111.195999
 11
-27.387688
 21
-111.195999
  0
LINE
  8
0
 10
-28.587685
 20
-101.395996
 11
-28.587685
 21
-111.195999
  0
LINE
  8
0
 10
-30.087685
 20
-108.795990
 11
-28.587685
 21
-108.795990
  0
LINE
  8
0
 10
-30.087685
 20
-103.796005
 11
-28.587685
 21
-103.796005
  0
LINE
  8
0
 10
-36.487694
 20
-111.295990
 11
-30.087685
 21
-111.295990
  0
LINE
  8
0
 10
-36.487679
 20
-101.296005
 11
-30.087685
 21
-101.296005
  0
LINE
  8
0
 10
-30.087685
 20
-101.296005
 11
-30.087685
 21
-111.296005
  0
ARC
  8
0
 10
-86.885033
 20
-37.096008
 40
0.199998
 50
214.418137
 51
270.000000
  0
POINT
  8
0
 10
315.301483
 20
-131.296021
  0
POINT
  8
0
 10
347.301483
 20
-131.296021
  0
LINE
  8
0
 10
347.301483
 20
-33.296021
 11
347.301483
 21
-131.296021
  0
LINE
  8
0
 10
333.801483
 20
-68.496017
 11
344.801483
 21
-68.496017
  0
LINE
  8
0
 10
333.801483
 20
-54.296005
 11
344.801483
 21
-54.296005
  0
LINE
  8
0
 10
333.801483
 20
-46.796005
 11
344.801483
 21
-46.796005
  0
LINE
  8
0
 10
333.801483
 20
-46.795990
 11
333.801483
 21
-54.295990
  0
LINE
  8
0
 10
344.801483
 20
-46.796005
 11
344.801483
 21
-54.296005
  0
LINE
  8
0
 10
342.801483
 20
-61.296005
 11
342.801483
 21
-65.296005
  0
LINE
  8
0
 10
335.801483
 20
-61.295990
 11
335.801483
 21
-65.295990
  0
LINE
  8
0
 10
333.801483
 20
-55.995987
 11
333.801483
 21
-68.496002
  0
LINE
  8
0
 10
344.801483
 20
-55.996002
 11
344.801483
 21
-68.496002
  0
LINE
  8
0
 10
333.801483
 20
-55.996017
 11
344.801483
 21
-55.996017
  0
LINE
  8
0
 10
335.801483
 20
-65.296005
 11
342.801483
 21
-65.296005
  0
LINE
  8
0
 10
335.801483
 20
-61.296005
 11
342.801483
 21
-61.296005
  0
LINE
  8
0
 10
315.301483
 20
-43.895996
 11
347.301483
 21
-43.895996
  0
LINE
  8
0
 10
332.901611
 20
-41.895996
 11
345.701416
 21
-41.895996
  0
LINE
  8
0
 10
331.801575
 20
-43.896065
 11
332.901611
 21
-41.896011
  0
LINE
  8
0
 10
345.701385
 20
-41.896019
 11
346.801392
 21
-43.896057
  0
LINE
  8
0
 10
331.301483
 20
-33.296021
 11
331.301483
 21
-87.296021
  0
LINE
  8
0
 10
315.301483
 20
-33.296021
 11
347.301483
 21
-33.296021
  0
LINE
  8
0
 10
315.301483
 20
-131.296021
 11
347.301483
 21
-131.296021
  0
LINE
  8
0
 10
315.301483
 20
-70.296021
 11
347.301483
 21
-70.296021
  0
LINE
  8
0
 10
317.801483
 20
-68.496017
 11
328.801483
 21
-68.496017
  0
LINE
  8
0
 10
317.801483
 20
-54.296005
 11
328.801483
 21
-54.296005
  0
LINE
  8
0
 10
317.801483
 20
-46.796005
 11
328.801483
 21
-46.796005
  0
LINE
  8
0
 10
317.801483
 20
-46.795990
 11
317.801483
 21
-54.295990
  0
LINE
  8
0
 10
328.801483
 20
-46.796005
 11
328.801483
 21
-54.296005
  0
LINE
  8
0
 10
326.801483
 20
-61.296005
 11
326.801483
 21
-65.296005
  0
LINE
  8
0
 10
319.801483
 20
-61.295990
 11
319.801483
 21
-65.295990
  0
LINE
  8
0
 10
317.801483
 20
-55.995987
 11
317.801483
 21
-68.496002
  0
LINE
  8
0
 10
328.801483
 20
-55.996002
 11
328.801483
 21
-68.496002
  0
LINE
  8
0
 10
317.801483
 20
-55.996017
 11
328.801483
 21
-55.996017
  0
LINE
  8
0
 10
319.801483
 20
-65.296005
 11
326.801483
 21
-65.296005
  0
LINE
  8
0
 10
319.801483
 20
-61.296005
 11
326.801483
 21
-61.296005
  0
LINE
  8
0
 10
316.901642
 20
-41.895996
 11
329.701477
 21
-41.895996
  0
LINE
  8
0
 10
315.801605
 20
-43.896080
 11
316.901642
 21
-41.896011
  0
LINE
  8
0
 10
329.701416
 20
-41.896027
 11
330.801453
 21
-43.896049
  0
LINE
  8
0
 10
315.301483
 20
-115.296021
 11
347.301483
 21
-115.296021
  0
LINE
  8
0
 10
315.301483
 20
-122.796021
 11
347.301483
 21
-122.796021
  0
LINE
  8
0
 10
315.301483
 20
-87.296021
 11
347.301483
 21
-87.296021
  0
LINE
  8
0
 10
323.301483
 20
-32.296021
 11
323.301483
 21
-132.296021
  0
LINE
  8
0
 10
339.301483
 20
-32.296021
 11
339.301483
 21
-132.296021
  0
LINE
  8
0
 10
320.036316
 20
-73.796021
 11
326.615356
 21
-73.796021
  0
LINE
  8
0
 10
336.483978
 20
-73.796021
 11
341.918854
 21
-73.796021
  0
LINE
  8
0
 10
331.301483
 20
-122.796021
 11
331.301483
 21
-131.296021
  0
LINE
  8
0
 10
319.100189
 20
-78.596024
 11
327.423340
 21
-78.596024
  0
LINE
  8
0
 10
335.100159
 20
-78.596024
 11
343.423340
 21
-78.596024
  0
LINE
  8
0
 10
332.601471
 20
-105.296021
 11
332.601471
 21
-107.296021
  0
LINE
  8
0
 10
330.001495
 20
-95.296021
 11
330.001495
 21
-97.296021
  0
LINE
  8
0
 10
342.401489
 20
-105.296005
 11
342.401489
 21
-107.296005
  0
LINE
  8
0
 10
320.201477
 20
-95.296021
 11
320.201477
 21
-97.296021
  0
LINE
  8
0
 10
325.101501
 20
-88.796021
 11
325.101501
 21
-103.796021
  0
LINE
  8
0
 10
337.501465
 20
-98.796021
 11
337.501465
 21
-113.796021
  0
LINE
  8
0
 10
317.601501
 20
-96.296021
 11
332.601501
 21
-96.296021
  0
LINE
  8
0
 10
330.001465
 20
-106.296021
 11
345.001465
 21
-106.296021
  0
CIRCLE
  8
0
 10
323.301483
 20
-73.796021
 40
1.500000
  0
CIRCLE
  8
0
 10
339.301483
 20
-73.796021
 40
1.500000
  0
CIRCLE
  8
0
 10
323.301483
 20
-78.596024
 40
2.700000
  0
CIRCLE
  8
0
 10
339.301483
 20
-78.596024
 40
2.700000
  0
ARC
  8
0
 10
325.101501
 20
-95.296021
 40
4.899994
 50
0.000000
 51
180.000000
  0
ARC
  8
0
 10
337.501465
 20
-105.296005
 40
4.900024
 50
0.000000
 51
180.000000
  0
CIRCLE
  8
0
 10
337.501465
 20
-106.296021
 40
3.000000
  0
ARC
  8
0
 10
337.501465
 20
-107.296021
 40
4.899994
 50
180.000000
 51
0.000000
  0
ARC
  8
0
 10
337.501465
 20
-106.296021
 40
4.999992
 50
168.521729
 51
191.478271
  0
ARC
  8
0
 10
325.101501
 20
-96.296021
 40
5.000022
 50
168.521805
 51
191.478195
  0
ARC
  8
0
 10
325.101501
 20
-97.296021
 40
4.900024
 50
180.000000
 51
0.000000
  0
CIRCLE
  8
0
 10
325.101501
 20
-96.296021
 40
3.000000
  0
ARC
  8
0
 10
337.501465
 20
-106.296021
 40
5.000022
 50
348.521790
 51
11.478200
  0
ARC
  8
0
 10
325.101501
 20
-96.296021
 40
4.999992
 50
348.521729
 51
11.478270
  0
TEXT
  8
0
 10
332.944336
 20
-113.546021
 40
2.500000
  1
B
 50
0.000000
 41
1.052632
 51
0.000000
  7
STANDARD
  0
TEXT
  8
0
 10
325.944458
 20
-90.046021
 40
2.500000
  1
A
 50
0.000000
 41
1.052631
 51
0.000000
  7
STANDARD
  0
POINT
  8
0
 10
315.301483
 20
-188.796021
  0
POINT
  8
0
 10
347.301483
 20
-188.796021
  0
LINE
  8
0
 10
347.301483
 20
-215.796021
 11
347.301483
 21
-188.796021
  0
LINE
  8
0
 10
339.301483
 20
-157.296021
 11
339.301483
 21
-217.296021
  0
LINE
  8
0
 10
346.801483
 20
-188.796021
 11
346.801483
 21
-163.796021
  0
LINE
  8
0
 10
346.126892
 20
-158.296021
 11
342.501465
 21
-158.296021
  0
LINE
  8
0
 10
346.318970
 20
-163.796021
 11
346.126923
 21
-158.296021
  0
LINE
  8
0
 10
331.301483
 20
-215.596024
 11
331.301483
 21
-188.796021
  0
LINE
  8
0
 10
315.501465
 20
-215.796021
 11
347.301483
 21
-215.796021
  0
LINE
  8
0
 10
323.301483
 20
-157.296021
 11
323.301483
 21
-217.296021
  0
LINE
  8
0
 10
315.801514
 20
-188.796021
 11
315.801514
 21
-163.796021
  0
LINE
  8
0
 10
320.101501
 20
-158.296021
 11
316.476105
 21
-158.296021
  0
LINE
  8
0
 10
316.284027
 20
-163.796021
 11
316.476105
 21
-158.296021
  0
LINE
  8
0
 10
346.801483
 20
-163.796021
 11
315.801514
 21
-163.796021
  0
LINE
  8
0
 10
331.894379
 20
-153.996017
 11
331.894379
 21
-155.196030
  0
LINE
  8
0
 10
343.108582
 20
-153.996017
 11
343.108582
 21
-155.196030
  0
LINE
  8
0
 10
331.894379
 20
-153.996017
 11
343.108582
 21
-153.996017
  0
LINE
  8
0
 10
331.894379
 20
-155.196030
 11
343.108582
 21
-155.196030
  0
LINE
  8
0
 10
334.001465
 20
-155.996017
 11
334.001465
 21
-155.196030
  0
LINE
  8
0
 10
341.001465
 20
-155.996017
 11
341.001465
 21
-155.196030
  0
LINE
  8
0
 10
332.501465
 20
-155.996017
 11
342.501465
 21
-155.996017
  0
LINE
  8
0
 10
342.501465
 20
-163.796021
 11
342.501465
 21
-155.996017
  0
LINE
  8
0
 10
332.501465
 20
-163.796021
 11
332.501465
 21
-155.996017
  0
LINE
  8
0
 10
319.494385
 20
-153.996017
 11
319.494385
 21
-155.196030
  0
LINE
  8
0
 10
330.708618
 20
-153.996017
 11
330.708618
 21
-155.196030
  0
LINE
  8
0
 10
319.494385
 20
-153.996017
 11
330.708618
 21
-153.996017
  0
LINE
  8
0
 10
319.494385
 20
-155.196030
 11
330.708618
 21
-155.196030
  0
LINE
  8
0
 10
321.601501
 20
-155.996017
 11
321.601501
 21
-155.196030
  0
LINE
  8
0
 10
328.601501
 20
-155.996017
 11
328.601501
 21
-155.196030
  0
LINE
  8
0
 10
320.101501
 20
-155.996017
 11
330.101501
 21
-155.996017
  0
LINE
  8
0
 10
330.101501
 20
-163.796021
 11
330.101501
 21
-155.996017
  0
LINE
  8
0
 10
320.101501
 20
-163.796021
 11
320.101501
 21
-155.996017
  0
LINE
  8
0
 10
347.301483
 20
-188.796021
 11
315.301483
 21
-188.796021
  0
LINE
  8
0
 10
315.801514
 20
-187.796021
 11
346.801483
 21
-187.796021
  0
POINT
  8
0
 10
223.301514
 20
-131.296005
  0
POINT
  8
0
 10
203.301514
 20
-131.296005
  0
LINE
  8
0
 10
227.301514
 20
-69.813400
 11
232.801529
 21
-69.621338
  0
LINE
  8
0
 10
203.301514
 20
-43.896011
 11
232.801529
 21
-43.896011
  0
LINE
  8
0
 10
203.801620
 20
-41.896011
 11
226.301559
 21
-41.896011
  0
LINE
  8
0
 10
203.301514
 20
-42.896202
 11
203.801620
 21
-41.896004
  0
LINE
  8
0
 10
227.301544
 20
-43.895981
 11
226.301544
 21
-41.896011
  0
LINE
  8
0
 10
232.801529
 20
-43.896011
 11
232.801529
 21
-69.621353
  0
LINE
  8
0
 10
203.301514
 20
-70.296005
 11
227.301529
 21
-70.296005
  0
LINE
  8
0
 10
203.301514
 20
-115.295990
 11
227.301514
 21
-115.295990
  0
LINE
  8
0
 10
203.301514
 20
-122.795990
 11
227.301514
 21
-122.795990
  0
LINE
  8
0
 10
227.301514
 20
-43.896011
 11
227.301514
 21
-122.795990
  0
LINE
  8
0
 10
203.301514
 20
-87.296005
 11
227.301529
 21
-87.296005
  0
LINE
  8
0
 10
235.101532
 20
-92.796005
 11
235.901520
 21
-92.796005
  0
LINE
  8
0
 10
235.101532
 20
-99.796005
 11
235.901520
 21
-99.796005
  0
LINE
  8
0
 10
235.101532
 20
-91.296005
 11
235.101532
 21
-111.296005
  0
LINE
  8
0
 10
227.301514
 20
-91.296005
 11
235.101532
 21
-91.296005
  0
LINE
  8
0
 10
237.101532
 20
-90.688904
 11
237.101532
 21
-111.903107
  0
LINE
  8
0
 10
235.901520
 20
-90.688904
 11
235.901520
 21
-111.903107
  0
LINE
  8
0
 10
235.101532
 20
-102.796005
 11
235.901520
 21
-102.796005
  0
LINE
  8
0
 10
235.101532
 20
-109.796005
 11
235.901520
 21
-109.796005
  0
LINE
  8
0
 10
227.301514
 20
-111.296005
 11
235.101532
 21
-111.296005
  0
LINE
  8
0
 10
227.301514
 20
-101.296005
 11
235.101532
 21
-101.296005
  0
LINE
  8
0
 10
235.901520
 20
-90.688904
 11
237.101532
 21
-90.688904
  0
LINE
  8
0
 10
235.901520
 20
-100.688904
 11
237.101532
 21
-100.688904
  0
LINE
  8
0
 10
235.901520
 20
-111.903107
 11
237.101532
 21
-111.903107
  0
ENDSEC
  0
EOF
