  0
SECTION
  2
HEADER
  0
ENDSEC
  0
SECTION
  2
TABLES
  0
TABLE
  2
LTYPE
 70
     4
  0
LTYPE
  2
CONTINUOUS
 70
    64
  3
Solid line
 72
    65
 73
     0
 40
0.000000
  0
LTYPE
  2
DASHED
 70
    64
  3
__ __ __ __ __ __ __ __ __ __ __ __ __ __ __
 72
    65
 73
     2
 40
3.500000
 49
2.000000
 49
-1.500000
  0
LTYPE
  2
CENTER
 70
    64
  3
____ _ ____ _ ____ _ ____ _ ____ _ ____ _ ____
 72
    65
 73
     4
 40
17.500000
 49
13.000000
 49
-1.500000
 49
1.500000
 49
-1.500000
  0
LTYPE
  2
PHANTOM
 70
    64
  3
_____ _ _ _____ _ _ _____ _ _ _____ _ _ ____  
 72
    65
 73
     6
 40
15.500000
 49
8.000000
 49
-1.500000
 49
1.500000
 49
-1.500000
 49
1.500000
 49
-1.500000
  0
LTYPE
  2
DASHED1
 70
    64
  3
__ __ __ __ __ __ __ __ __ __ __ __ __ __ __
 72
    65
 73
     2
 40
1.500000
 49
1.000000
 49
-0.500000
  0
LTYPE
  2
DASHED2
 70
    64
  3
__ __ __ __ __ __ __ __ __ __ __ __ __ __ __
 72
    65
 73
     2
 40
3.500000
 49
2.500000
 49
-1.000000
  0
LTYPE
  2
DASHED3
 70
    64
  3
__ __ __ __ __ __ __ __ __ __ __ __ __ __ __
 72
    65
 73
     2
 40
6.000000
 49
4.000000
 49
-2.000000
  0
LTYPE
  2
DASHED4
 70
    64
  3
__ __ __ __ __ __ __ __ __ __ __ __ __ __ __
 72
    65
 73
     2
 40
12.000000
 49
10.000000
 49
-2.000000
  0
LTYPE
  2
DASHED5
 70
    64
  3
__ __ __ __ __ __ __ __ __ __ __ __ __ __ __
 72
    65
 73
     2
 40
17.000000
 49
15.000000
 49
-2.000000
  0
LTYPE
  2
DASHED6
 70
    64
  3
__ __ __ __ __ __ __ __ __ __ __ __ __ __ __
 72
    65
 73
     2
 40
29.000000
 49
27.000000
 49
-2.000000
  0
LTYPE
  2
PHANTOM1
 70
    64
  3
_____ _ _ _____ _ _ _____ _ _ _____ _ _ ____  
 72
    65
 73
     6
 40
31.000000
 49
25.000000
 49
-1.500000
 49
1.000000
 49
-1.000000
 49
1.000000
 49
-1.500000
  0
LTYPE
  2
PHANTOM2
 70
    64
  3
_____ _ _ _____ _ _ _____ _ _ _____ _ _ ____  
 72
    65
 73
     6
 40
36.000000
 49
27.000000
 49
-1.500000
 49
2.500000
 49
-1.000000
 49
2.500000
 49
-1.500000
  0
LTYPE
  2
PHANTOM3
 70
    64
  3
_____ _ _ _____ _ _ _____ _ _ _____ _ _ ____  
 72
    65
 73
     6
 40
78.000000
 49
64.000000
 49
-2.000000
 49
4.000000
 49
-2.000000
 49
4.000000
 49
-2.000000
  0
LTYPE
  2
CENTER1
 70
    64
  3
____ _ ____ _ ____ _ ____ _ ____ _ ____ _ ____
 72
    65
 73
     4
 40
19.000000
 49
14.000000
 49
-1.000000
 49
3.000000
 49
-1.000000
  0
LTYPE
  2
CENTER2
 70
    64
  3
____ _ ____ _ ____ _ ____ _ ____ _ ____ _ ____
 72
    65
 73
     4
 40
28.500000
 49
25.000000
 49
-1.000000
 49
1.500000
 49
-1.000000
  0
LTYPE
  2
CENTER3
 70
    64
  3
____ _ ____ _ ____ _ ____ _ ____ _ ____ _ ____
 72
    65
 73
     4
 40
31.500000
 49
27.000000
 49
-1.000000
 49
2.500000
 49
-1.000000
  0
LTYPE
  2
CENTER4
 70
    64
  3
____ _ ____ _ ____ _ ____ _ ____ _ ____ _ ____
 72
    65
 73
     4
 40
50.000000
 49
45.000000
 49
-1.000000
 49
3.000000
 49
-1.000000
  0
LTYPE
  2
CENTER5
 70
    64
  3
____ _ ____ _ ____ _ ____ _ ____ _ ____ _ ____
 72
    65
 73
     4
 40
100.000000
 49
92.000000
 49
-2.000000
 49
4.000000
 49
-2.000000
  0
LTYPE
  2
SBK1
 70
    64
  3
______ _ _ _ ______ _ _ _ ______ _ _ _ _____  
 72
    65
 73
     8
 40
60.500000
 49
45.000000
 49
-2.000000
 49
2.500000
 49
-2.000000
 49
2.500000
 49
-2.000000
 49
2.500000
 49
-2.000000
  0
LTYPE
  2
SBK2
 70
    64
  3
______ _ _ _ ______ _ _ _ ______ _ _ _ _____  
 72
    65
 73
     8
 40
84.000000
 49
64.000000
 49
-2.000000
 49
4.000000
 49
-2.000000
 49
4.000000
 49
-2.000000
 49
4.000000
 49
-2.000000
  0
LTYPE
  2
STCH
 70
    64
  3
__ __ __ __ __ __ __ __ __ __ __ __ __ __ __
 72
    65
 73
     2
 40
3.000000
 49
1.000000
 49
-2.000000
  0
LTYPE
  2
MTCH
 70
    64
  3
_____ _ _ _____ _ _ _____ _ _ _____ _ _ ____  
 72
    65
 73
     6
 40
80.000000
 49
66.000000
 49
-2.000000
 49
4.000000
 49
-2.000000
 49
4.000000
 49
-2.000000
  0
ENDTAB
  0
TABLE
  2
LAYER
 70
     1
  0
LAYER
  2
0
 70
     0
 62
     7
  6
CONTINUOUS
  0
ENDTAB
  0
TABLE
  2
STYLE
 70
     1
  0
STYLE
  2
STANDARD
 70
     0
 40
0.000000
 41
1.000000
 50
0.000000
 71
     0
 42
0.200000
  3
txt
  4
BIGFONT
  0
ENDTAB
  0
TABLE
  2
VIEW
 70
     0
  0
ENDTAB
  0
ENDSEC
  0
SECTION
  2
BLOCKS
  0
ENDSEC
  0
SECTION
  2
ENTITIES
  0
LINE
  8
0
 10
-420.500000
 20
297.000000
 11
420.500000
 21
297.000000
  0
LINE
  8
0
 10
-420.500000
 20
-297.000000
 11
420.500000
 21
-297.000000
  0
LINE
  8
0
 10
420.500000
 20
297.000000
 11
420.500000
 21
-297.000000
  0
LINE
  8
0
 10
-420.500000
 20
297.000000
 11
-420.500000
 21
-297.000000
  0
LINE
  8
0
 10
399.799988
 20
276.250000
 11
399.799988
 21
-276.750000
  0
LINE
  8
0
 10
-399.250000
 20
276.250000
 11
-399.250000
 21
-276.750000
  0
LINE
  8
0
 10
-399.250000
 20
276.250000
 11
399.799988
 21
276.250000
  0
LINE
  8
0
 10
-399.250000
 20
-276.750000
 11
399.799988
 21
-276.750000
  0
LINE
  8
0
 10
133.449997
 20
-251.750000
 11
399.799988
 21
-251.750000
  0
LINE
  8
0
 10
239.799988
 20
251.250000
 11
399.799988
 21
251.250000
  0
LINE
  8
0
 10
-399.250000
 20
251.250000
 11
-239.250000
 21
251.250000
  0
LINE
  8
0
 10
239.799988
 20
-251.750000
 11
239.799988
 21
-276.750000
  0
LINE
  8
0
 10
239.799988
 20
251.250000
 11
239.799988
 21
276.250000
  0
LINE
  8
0
 10
-239.250000
 20
276.250000
 11
-239.250000
 21
251.250000
  0
LINE
  8
0
 10
-399.250000
 20
-0.250000
 11
399.799988
 21
-0.250000
  0
LINE
  8
0
 10
-399.250000
 20
-261.750000
 11
133.449997
 21
-261.750000
  0
LINE
  8
0
 10
-399.250000
 20
14.750000
 11
399.799988
 21
14.750000
  0
LINE
  8
0
 10
-132.900009
 20
276.250000
 11
-132.900009
 21
-276.750000
  0
LINE
  8
0
 10
133.449997
 20
276.250000
 11
133.449997
 21
-276.750000
  0
LINE
  8
0
 10
133.449997
 20
-236.750000
 11
399.799988
 21
-236.750000
  0
LINE
  8
0
  6
PHANTOM
 10
-351.196564
 20
237.262970
 11
-351.196564
 21
139.262970
  0
LINE
  8
0
  6
PHANTOM
 10
-323.196564
 20
237.262970
 11
-323.196564
 21
139.262970
  0
LINE
  8
0
  6
PHANTOM
 10
-351.196564
 20
237.262970
 11
-323.196564
 21
237.262970
  0
LINE
  8
0
  6
PHANTOM
 10
-351.196564
 20
139.262970
 11
-323.196564
 21
139.262970
  0
LINE
  8
0
  6
PHANTOM
 10
-60.487663
 20
237.262970
 11
-88.487663
 21
237.262970
  0
LINE
  8
0
  6
PHANTOM
 10
-88.487663
 20
139.262970
 11
-60.487663
 21
139.262970
  0
LINE
  8
0
  6
PHANTOM
 10
-88.487663
 20
139.262970
 11
-88.487663
 21
237.262970
  0
LINE
  8
0
  6
PHANTOM
 10
-60.487663
 20
237.262970
 11
-60.487663
 21
139.262970
  0
LINE
  8
0
  6
PHANTOM
 10
205.301514
 20
237.262970
 11
205.301514
 21
139.262970
  0
LINE
  8
0
  6
PHANTOM
 10
177.301514
 20
237.262970
 11
177.301514
 21
139.262970
  0
LINE
  8
0
  6
PHANTOM
 10
177.301514
 20
237.262970
 11
205.301514
 21
237.262970
  0
LINE
  8
0
  6
PHANTOM
 10
177.301514
 20
139.262970
 11
205.301514
 21
139.262970
  0
LINE
  8
0
  6
PHANTOM
 10
-88.487663
 20
-23.295990
 11
-60.487663
 21
-23.295990
  0
LINE
  8
0
  6
PHANTOM
 10
-88.487663
 20
-121.295990
 11
-60.487663
 21
-121.295990
  0
LINE
  8
0
  6
PHANTOM
 10
-88.487663
 20
-121.295990
 11
-88.487663
 21
-23.295990
  0
LINE
  8
0
  6
PHANTOM
 10
-60.487663
 20
-23.295990
 11
-60.487663
 21
-121.295990
  0
LINE
  8
0
  6
PHANTOM
 10
205.301514
 20
-23.295990
 11
205.301514
 21
-121.295990
  0
LINE
  8
0
  6
PHANTOM
 10
177.301514
 20
-23.295990
 11
177.301514
 21
-121.295990
  0
LINE
  8
0
  6
PHANTOM
 10
177.301514
 20
-23.295990
 11
205.301514
 21
-23.295990
  0
LINE
  8
0
  6
PHANTOM
 10
177.301514
 20
-121.295990
 11
205.301514
 21
-121.295990
  0
LINE
  8
0
  6
PHANTOM
 10
-323.196564
 20
-23.295990
 11
-351.196564
 21
-23.295990
  0
LINE
  8
0
  6
PHANTOM
 10
-351.196564
 20
-23.295990
 11
-351.196564
 21
-121.295990
  0
LINE
  8
0
  6
PHANTOM
 10
-351.196564
 20
-121.295990
 11
-323.196564
 21
-121.295990
  0
LINE
  8
0
  6
PHANTOM
 10
-323.196564
 20
-121.295990
 11
-323.196564
 21
-23.295990
  0
TEXT
  8
0
 10
-345.785156
 20
253.500000
 40
12.500000
  1
X88M
 50
0.000000
 41
1.052632
 51
0.000000
  7
STANDARD
  0
TEXT
  8
0
 10
242.014816
 20
-274.500000
 40
12.500000
  1
KOGANEI CORP.
 50
0.000000
 41
1.052632
 51
0.000000
  7
STANDARD
  0
TEXT
  8
0
 10
251.264664
 20
256.649994
 40
9.000000
  1
DATE: SEP ,1992
 50
0.000000
 41
1.052632
 51
0.000000
  7
STANDARD
  0
TEXT
  8
0
 10
-348.110718
 20
0.149999
 40
9.000000
  1
MODEL : FMX180-4E1
 50
0.000000
 41
1.052632
 51
0.000000
  7
STANDARD
  0
TEXT
  8
0
 10
-95.260719
 20
0.149999
 40
9.000000
  1
MODEL : FMX180-4E1-J4
 50
0.000000
 41
1.052632
 51
0.000000
  7
STANDARD
  0
TEXT
  8
0
 10
171.089279
 20
0.149999
 40
9.000000
  1
MODEL : FMX180-4E1-J6
 50
0.000000
 41
1.052632
 51
0.000000
  7
STANDARD
  0
TEXT
  8
0
 10
166.589279
 20
-251.350006
 40
9.000000
  1
MODEL : FMX180-4KE2-J6
 50
0.000000
 41
1.052632
 51
0.000000
  7
STANDARD
  0
TEXT
  8
0
 10
-352.610718
 20
-276.350006
 40
9.000000
  1
MODEL : FMX180-4KE2
 50
0.000000
 41
1.052632
 51
0.000000
  7
STANDARD
  0
TEXT
  8
0
 10
-99.760719
 20
-276.350006
 40
9.000000
  1
MODEL : FMX180-4KE2-J4
 50
0.000000
 41
1.052632
 51
0.000000
  7
STANDARD
  0
POINT
  8
0
 10
-202.196579
 20
139.262970
  0
POINT
  8
0
 10
-183.196579
 20
139.262970
  0
LINE
  8
0
 10
-183.196579
 20
237.262970
 11
-183.196579
 21
139.262970
  0
LINE
  8
0
 10
-202.196579
 20
237.262970
 11
-183.196579
 21
237.262970
  0
LINE
  8
0
 10
-202.196579
 20
139.262970
 11
-183.196579
 21
139.262970
  0
LINE
  8
0
 10
-202.196579
 20
235.262970
 11
-199.976471
 21
235.262970
  0
LINE
  8
0
 10
-192.696579
 20
240.262970
 11
-192.696579
 21
134.846313
  0
LINE
  8
0
 10
-202.196579
 20
148.262970
 11
-183.196579
 21
148.262970
  0
LINE
  8
0
 10
-195.618286
 20
204.962967
 11
-189.786880
 21
204.962967
  0
LINE
  8
0
 10
-202.196579
 20
207.462967
 11
-183.196579
 21
207.462967
  0
LINE
  8
0
 10
-198.196564
 20
210.262970
 11
-187.196579
 21
210.262970
  0
LINE
  8
0
 10
-198.196564
 20
224.462982
 11
-187.196579
 21
224.462982
  0
LINE
  8
0
 10
-198.196564
 20
231.962982
 11
-187.196579
 21
231.962982
  0
LINE
  8
0
 10
-198.196564
 20
231.962997
 11
-198.196564
 21
224.462997
  0
LINE
  8
0
 10
-187.196579
 20
231.962982
 11
-187.196579
 21
224.462982
  0
LINE
  8
0
 10
-189.196579
 20
217.462982
 11
-189.196579
 21
213.462982
  0
LINE
  8
0
 10
-196.196564
 20
217.462997
 11
-196.196564
 21
213.462997
  0
LINE
  8
0
 10
-198.196564
 20
222.763000
 11
-198.196564
 21
210.262985
  0
LINE
  8
0
 10
-187.196579
 20
222.762985
 11
-187.196579
 21
210.262985
  0
LINE
  8
0
 10
-198.196564
 20
222.762970
 11
-187.196579
 21
222.762970
  0
LINE
  8
0
 10
-196.196564
 20
213.462982
 11
-189.196579
 21
213.462982
  0
LINE
  8
0
 10
-196.196564
 20
217.462982
 11
-189.196579
 21
217.462982
  0
LINE
  8
0
 10
-200.196564
 20
234.862991
 11
-185.196579
 21
234.862991
  0
LINE
  8
0
 10
-199.096466
 20
236.862991
 11
-186.296600
 21
236.862991
  0
LINE
  8
0
 10
-200.196457
 20
234.862946
 11
-199.096451
 21
236.862976
  0
LINE
  8
0
 10
-186.296631
 20
236.862946
 11
-185.196625
 21
234.862930
  0
LINE
  8
0
 10
-185.416458
 20
235.262970
 11
-183.196579
 21
235.262970
  0
LINE
  8
0
 10
-202.196579
 20
190.262970
 11
-183.196579
 21
190.262970
  0
LINE
  8
0
 10
-199.696579
 20
177.262970
 11
-184.696579
 21
177.262970
  0
LINE
  8
0
 10
-200.696579
 20
161.262970
 11
-185.696579
 21
161.262970
  0
LINE
  8
0
 10
-192.196579
 20
184.762970
 11
-192.196579
 21
169.762970
  0
LINE
  8
0
 10
-193.196579
 20
168.762970
 11
-193.196579
 21
153.762970
  0
CIRCLE
  8
0
 10
-192.696579
 20
204.962967
 40
1.650000
  0
CIRCLE
  8
0
 10
-193.196579
 20
161.262970
 40
4.864349
  0
CIRCLE
  8
0
 10
-193.196579
 20
161.262970
 40
4.283250
  0
CIRCLE
  8
0
 10
-192.196579
 20
177.262970
 40
4.864349
  0
CIRCLE
  8
0
 10
-192.196579
 20
177.262970
 40
4.283250
  0
TEXT
  8
0
 10
-197.946579
 20
182.762970
 40
2.000000
  1
A
 50
0.000000
 41
1.052632
 51
0.000000
  7
STANDARD
  0
TEXT
  8
0
 10
-189.446579
 20
154.762970
 40
2.000000
  1
B
 50
0.000000
 41
1.052632
 51
0.000000
  7
STANDARD
  0
POINT
  8
0
 10
-202.196579
 20
71.762970
  0
POINT
  8
0
 10
-183.196579
 20
71.762970
  0
LINE
  8
0
 10
-202.196579
 20
44.762970
 11
-183.196579
 21
44.762970
  0
LINE
  8
0
 10
-183.196579
 20
71.762970
 11
-183.196579
 21
44.762970
  0
LINE
  8
0
 10
-185.871170
 20
103.762970
 11
-199.521973
 21
103.762970
  0
LINE
  8
0
 10
-199.661636
 20
99.762962
 11
-199.521957
 21
103.762970
  0
LINE
  8
0
 10
-185.731476
 20
99.762962
 11
-185.871155
 21
103.762970
  0
LINE
  8
0
 10
-192.696579
 20
43.762970
 11
-192.696579
 21
104.762970
  0
LINE
  8
0
 10
-201.696579
 20
99.762970
 11
-183.696579
 21
99.762970
  0
LINE
  8
0
 10
-201.696579
 20
99.762970
 11
-201.696579
 21
71.762970
  0
LINE
  8
0
 10
-183.696579
 20
99.762970
 11
-183.696579
 21
71.762970
  0
LINE
  8
0
 10
-202.196579
 20
71.762970
 11
-183.196579
 21
71.762970
  0
LINE
  8
0
 10
-201.696579
 20
72.762970
 11
-183.696579
 21
72.762970
  0
POINT
  8
0
 10
-303.196564
 20
139.262970
  0
POINT
  8
0
 10
-323.196564
 20
139.262970
  0
LINE
  8
0
 10
-296.196594
 20
208.462967
 11
-296.196594
 21
139.862976
  0
LINE
  8
0
 10
-323.196564
 20
139.862976
 11
-296.196594
 21
139.862976
  0
LINE
  8
0
 10
-323.196564
 20
148.262970
 11
-296.196594
 21
148.262970
  0
LINE
  8
0
 10
-323.196564
 20
190.262970
 11
-296.196564
 21
190.262970
  0
LINE
  8
0
 10
-297.696564
 20
208.945587
 11
-292.196564
 21
209.137634
  0
LINE
  8
0
 10
-323.196564
 20
234.862976
 11
-292.196594
 21
234.862976
  0
LINE
  8
0
 10
-321.196472
 20
236.862976
 11
-298.696594
 21
236.862976
  0
LINE
  8
0
 10
-322.196533
 20
234.862976
 11
-321.196503
 21
236.863007
  0
LINE
  8
0
 10
-292.196594
 20
234.862976
 11
-292.196594
 21
209.137619
  0
LINE
  8
0
 10
-297.696594
 20
234.862976
 11
-297.696594
 21
208.462967
  0
LINE
  8
0
 10
-323.196564
 20
208.462967
 11
-296.196594
 21
208.462967
  0
LINE
  8
0
 10
-297.696564
 20
234.862976
 11
-298.696564
 21
236.862976
  0
POINT
  8
0
 10
60.512337
 20
139.262970
  0
POINT
  8
0
 10
79.512337
 20
139.262970
  0
LINE
  8
0
 10
79.512337
 20
237.262970
 11
79.512337
 21
139.262970
  0
LINE
  8
0
 10
60.512337
 20
237.262970
 11
79.512337
 21
237.262970
  0
LINE
  8
0
 10
60.512337
 20
139.262970
 11
79.512337
 21
139.262970
  0
LINE
  8
0
 10
60.512337
 20
235.262970
 11
62.732437
 21
235.262970
  0
LINE
  8
0
 10
70.012337
 20
240.262970
 11
70.012337
 21
134.846313
  0
LINE
  8
0
 10
60.512337
 20
148.262970
 11
79.512337
 21
148.262970
  0
LINE
  8
0
 10
67.090630
 20
204.962967
 11
72.922035
 21
204.962967
  0
LINE
  8
0
 10
60.512337
 20
207.462967
 11
79.512337
 21
207.462967
  0
LINE
  8
0
 10
64.512337
 20
210.262970
 11
75.512337
 21
210.262970
  0
LINE
  8
0
 10
64.512337
 20
224.462982
 11
75.512337
 21
224.462982
  0
LINE
  8
0
 10
64.512337
 20
231.962982
 11
75.512337
 21
231.962982
  0
LINE
  8
0
 10
64.512337
 20
231.962997
 11
64.512337
 21
224.462997
  0
LINE
  8
0
 10
75.512337
 20
231.962982
 11
75.512337
 21
224.462982
  0
LINE
  8
0
 10
73.512337
 20
217.462982
 11
73.512337
 21
213.462982
  0
LINE
  8
0
 10
66.512337
 20
217.462997
 11
66.512337
 21
213.462997
  0
LINE
  8
0
 10
64.512337
 20
222.763000
 11
64.512337
 21
210.262985
  0
LINE
  8
0
 10
75.512337
 20
222.762985
 11
75.512337
 21
210.262985
  0
LINE
  8
0
 10
64.512337
 20
222.762970
 11
75.512337
 21
222.762970
  0
LINE
  8
0
 10
66.512337
 20
213.462982
 11
73.512337
 21
213.462982
  0
LINE
  8
0
 10
66.512337
 20
217.462982
 11
73.512337
 21
217.462982
  0
LINE
  8
0
 10
62.512344
 20
234.862991
 11
77.512337
 21
234.862991
  0
LINE
  8
0
 10
63.612450
 20
236.862991
 11
76.412277
 21
236.862991
  0
LINE
  8
0
 10
62.512444
 20
234.862946
 11
63.612461
 21
236.862976
  0
LINE
  8
0
 10
76.412231
 20
236.862946
 11
77.512260
 21
234.862900
  0
LINE
  8
0
 10
77.292458
 20
235.262970
 11
79.512337
 21
235.262970
  0
LINE
  8
0
 10
60.512337
 20
190.262970
 11
79.512337
 21
190.262970
  0
LINE
  8
0
 10
74.412331
 20
178.262970
 11
74.412331
 21
176.262970
  0
LINE
  8
0
 10
66.612343
 20
178.262970
 11
66.612343
 21
176.262970
  0
LINE
  8
0
 10
73.412331
 20
162.262970
 11
73.412331
 21
160.262970
  0
LINE
  8
0
 10
65.612343
 20
162.262970
 11
65.612343
 21
160.262970
  0
LINE
  8
0
 10
70.512337
 20
183.262970
 11
70.512337
 21
171.262970
  0
LINE
  8
0
 10
69.512337
 20
167.262970
 11
69.512337
 21
155.262970
  0
LINE
  8
0
 10
64.512337
 20
177.262970
 11
76.512337
 21
177.262970
  0
LINE
  8
0
 10
63.512337
 20
161.262970
 11
75.512337
 21
161.262970
  0
CIRCLE
  8
0
 10
70.012337
 20
204.962967
 40
1.650000
  0
CIRCLE
  8
0
 10
69.512337
 20
161.262970
 40
5.000000
  0
ARC
  8
0
 10
70.512337
 20
176.262970
 40
3.900002
 50
180.000000
 51
0.000000
  0
ARC
  8
0
 10
69.512337
 20
162.262970
 40
3.900002
 50
0.000000
 51
180.000000
  0
CIRCLE
  8
0
 10
70.512337
 20
177.262970
 40
2.000000
  0
CIRCLE
  8
0
 10
70.512337
 20
177.262970
 40
5.000000
  0
ARC
  8
0
 10
69.512337
 20
160.262970
 40
3.900002
 50
180.000000
 51
0.000000
  0
CIRCLE
  8
0
 10
69.512337
 20
161.262970
 40
2.000000
  0
ARC
  8
0
 10
70.512337
 20
178.262970
 40
3.900002
 50
0.000000
 51
180.000000
  0
TEXT
  8
0
 10
64.762337
 20
182.762970
 40
2.000000
  1
A
 50
0.000000
 41
1.052632
 51
0.000000
  7
STANDARD
  0
TEXT
  8
0
 10
73.262337
 20
154.762970
 40
2.000000
  1
B
 50
0.000000
 41
1.052632
 51
0.000000
  7
STANDARD
  0
POINT
  8
0
 10
60.512337
 20
71.762970
  0
POINT
  8
0
 10
79.512337
 20
71.762970
  0
LINE
  8
0
 10
60.512337
 20
44.762970
 11
79.512337
 21
44.762970
  0
LINE
  8
0
 10
79.512337
 20
71.762970
 11
79.512337
 21
44.762970
  0
LINE
  8
0
 10
76.837761
 20
103.762970
 11
75.512337
 21
103.762970
  0
LINE
  8
0
 10
63.047295
 20
99.762970
 11
63.186977
 21
103.762970
  0
LINE
  8
0
 10
76.977463
 20
99.762970
 11
76.837776
 21
103.762978
  0
LINE
  8
0
 10
70.012337
 20
43.762970
 11
70.012337
 21
104.762970
  0
LINE
  8
0
 10
61.012337
 20
99.762970
 11
79.012337
 21
99.762970
  0
LINE
  8
0
 10
61.012337
 20
99.762970
 11
61.012337
 21
71.762970
  0
LINE
  8
0
 10
79.012337
 20
99.762970
 11
79.012337
 21
71.762970
  0
LINE
  8
0
 10
70.512337
 20
108.862961
 11
70.512337
 21
98.762970
  0
LINE
  8
0
 10
69.512337
 20
108.862961
 11
69.512337
 21
98.762970
  0
LINE
  8
0
 10
64.512337
 20
103.762970
 11
63.186970
 21
103.762970
  0
LINE
  8
0
 10
65.612343
 20
107.862961
 11
74.412331
 21
107.862961
  0
LINE
  8
0
 10
65.612343
 20
106.662964
 11
74.412331
 21
106.662964
  0
LINE
  8
0
 10
72.012337
 20
105.162964
 11
72.012337
 21
106.662964
  0
LINE
  8
0
 10
67.012337
 20
105.162964
 11
67.012337
 21
106.662964
  0
LINE
  8
0
 10
74.512337
 20
99.762970
 11
74.512337
 21
105.162964
  0
LINE
  8
0
 10
64.512337
 20
99.762970
 11
64.512337
 21
105.162964
  0
LINE
  8
0
 10
73.412331
 20
106.662964
 11
73.412331
 21
107.862961
  0
LINE
  8
0
 10
65.612343
 20
106.662964
 11
65.612343
 21
107.862961
  0
LINE
  8
0
 10
64.512337
 20
105.162964
 11
75.512337
 21
105.162964
  0
LINE
  8
0
 10
73.012337
 20
105.162964
 11
73.012337
 21
106.662964
  0
LINE
  8
0
 10
75.512337
 20
99.762970
 11
75.512337
 21
105.162964
  0
LINE
  8
0
 10
74.412331
 20
106.662964
 11
74.412331
 21
107.862961
  0
LINE
  8
0
 10
60.512337
 20
71.762970
 11
79.512337
 21
71.762970
  0
LINE
  8
0
 10
61.012337
 20
72.762970
 11
79.012337
 21
72.762970
  0
POINT
  8
0
 10
-40.487663
 20
139.262970
  0
POINT
  8
0
 10
-60.487663
 20
139.262970
  0
LINE
  8
0
 10
-33.487679
 20
208.462967
 11
-33.487679
 21
139.862976
  0
LINE
  8
0
 10
-60.487663
 20
148.262970
 11
-33.487679
 21
148.262970
  0
LINE
  8
0
 10
-60.487663
 20
190.262970
 11
-33.487663
 21
190.262970
  0
LINE
  8
0
 10
-34.987640
 20
208.945572
 11
-29.487677
 21
209.137634
  0
LINE
  8
0
 10
-60.487663
 20
234.862976
 11
-29.487679
 21
234.862976
  0
LINE
  8
0
 10
-58.487591
 20
236.862976
 11
-35.987640
 21
236.862976
  0
LINE
  8
0
 10
-59.487610
 20
234.862976
 11
-58.487598
 21
236.863007
  0
LINE
  8
0
 10
-34.987640
 20
234.862976
 11
-35.987640
 21
236.862976
  0
LINE
  8
0
 10
-29.487679
 20
234.862976
 11
-29.487679
 21
209.137619
  0
LINE
  8
0
 10
-26.387672
 20
182.162979
 11
-26.387672
 21
172.362976
  0
LINE
  8
0
 10
-27.587669
 20
182.162979
 11
-26.387672
 21
182.162979
  0
LINE
  8
0
 10
-27.587669
 20
172.362976
 11
-26.387672
 21
172.362976
  0
LINE
  8
0
 10
-27.587669
 20
182.162979
 11
-27.587669
 21
172.362976
  0
LINE
  8
0
 10
-29.087669
 20
174.762970
 11
-27.587669
 21
174.762970
  0
LINE
  8
0
 10
-29.087669
 20
179.762970
 11
-27.587669
 21
179.762970
  0
LINE
  8
0
 10
-33.487679
 20
172.262970
 11
-29.087669
 21
172.262970
  0
LINE
  8
0
 10
-33.487679
 20
182.262970
 11
-29.087669
 21
182.262970
  0
LINE
  8
0
 10
-29.087669
 20
182.262970
 11
-29.087669
 21
172.262970
  0
LINE
  8
0
 10
-26.387672
 20
166.162979
 11
-26.387672
 21
156.362976
  0
LINE
  8
0
 10
-27.587669
 20
166.162979
 11
-26.387672
 21
166.162979
  0
LINE
  8
0
 10
-27.587669
 20
156.362976
 11
-26.387672
 21
156.362976
  0
LINE
  8
0
 10
-27.587669
 20
166.162979
 11
-27.587669
 21
156.362976
  0
LINE
  8
0
 10
-29.087669
 20
158.762970
 11
-27.587669
 21
158.762970
  0
LINE
  8
0
 10
-29.087669
 20
163.762970
 11
-27.587669
 21
163.762970
  0
LINE
  8
0
 10
-33.487679
 20
156.262970
 11
-29.087669
 21
156.262970
  0
LINE
  8
0
 10
-33.487679
 20
166.262970
 11
-29.087669
 21
166.262970
  0
LINE
  8
0
 10
-29.087669
 20
166.262970
 11
-29.087669
 21
156.262970
  0
LINE
  8
0
 10
-60.487663
 20
139.862976
 11
-33.487679
 21
139.862976
  0
LINE
  8
0
 10
-60.487663
 20
208.462967
 11
-33.487679
 21
208.462967
  0
LINE
  8
0
 10
-34.987640
 20
234.862976
 11
-34.987640
 21
208.462967
  0
POINT
  8
0
 10
326.301514
 20
139.262970
  0
POINT
  8
0
 10
345.301514
 20
139.262970
  0
LINE
  8
0
 10
345.301514
 20
237.262970
 11
345.301514
 21
139.262970
  0
LINE
  8
0
 10
326.301514
 20
237.262970
 11
345.301514
 21
237.262970
  0
LINE
  8
0
 10
326.301514
 20
139.262970
 11
345.301514
 21
139.262970
  0
LINE
  8
0
 10
326.301514
 20
235.262970
 11
328.521606
 21
235.262970
  0
LINE
  8
0
 10
335.801514
 20
240.262970
 11
335.801514
 21
134.846313
  0
LINE
  8
0
 10
326.301514
 20
148.262970
 11
345.301514
 21
148.262970
  0
LINE
  8
0
 10
332.879822
 20
204.962967
 11
338.711212
 21
204.962967
  0
LINE
  8
0
 10
326.301514
 20
207.462967
 11
345.301514
 21
207.462967
  0
LINE
  8
0
 10
330.301514
 20
210.262970
 11
341.301514
 21
210.262970
  0
LINE
  8
0
 10
330.301514
 20
224.462982
 11
341.301514
 21
224.462982
  0
LINE
  8
0
 10
330.301514
 20
231.962982
 11
341.301514
 21
231.962982
  0
LINE
  8
0
 10
330.301514
 20
231.962997
 11
330.301514
 21
224.462997
  0
LINE
  8
0
 10
341.301514
 20
231.962982
 11
341.301514
 21
224.462982
  0
LINE
  8
0
 10
339.301514
 20
217.462982
 11
339.301514
 21
213.462982
  0
LINE
  8
0
 10
332.301514
 20
217.462997
 11
332.301514
 21
213.462997
  0
LINE
  8
0
 10
330.301514
 20
222.763000
 11
330.301514
 21
210.262985
  0
LINE
  8
0
 10
341.301514
 20
222.762985
 11
341.301514
 21
210.262985
  0
LINE
  8
0
 10
330.301514
 20
222.762970
 11
341.301514
 21
222.762970
  0
LINE
  8
0
 10
332.301514
 20
213.462982
 11
339.301514
 21
213.462982
  0
LINE
  8
0
 10
332.301514
 20
217.462982
 11
339.301514
 21
217.462982
  0
LINE
  8
0
 10
328.301514
 20
234.862991
 11
343.301514
 21
234.862991
  0
LINE
  8
0
 10
329.401581
 20
236.862991
 11
342.201447
 21
236.862991
  0
LINE
  8
0
 10
329.401581
 20
236.862991
 11
328.301544
 21
234.862946
  0
LINE
  8
0
 10
343.081635
 20
235.262970
 11
345.301514
 21
235.262970
  0
LINE
  8
0
 10
326.301514
 20
190.262970
 11
345.301514
 21
190.262970
  0
LINE
  8
0
 10
342.201416
 20
236.862961
 11
343.301453
 21
234.862900
  0
LINE
  8
0
 10
331.401520
 20
178.262970
 11
331.401520
 21
176.262970
  0
LINE
  8
0
 10
341.201508
 20
178.262970
 11
341.201508
 21
176.262970
  0
LINE
  8
0
 10
330.401520
 20
162.262970
 11
330.401520
 21
160.262970
  0
LINE
  8
0
 10
340.201508
 20
162.262970
 11
340.201508
 21
160.262970
  0
LINE
  8
0
 10
330.301514
 20
177.262970
 11
342.301514
 21
177.262970
  0
LINE
  8
0
 10
329.301514
 20
161.262970
 11
341.301514
 21
161.262970
  0
LINE
  8
0
 10
336.301514
 20
183.262970
 11
336.301514
 21
171.262970
  0
LINE
  8
0
 10
335.301514
 20
167.262970
 11
335.301514
 21
155.262970
  0
CIRCLE
  8
0
 10
335.801514
 20
204.962967
 40
1.650000
  0
ARC
  8
0
 10
336.301514
 20
178.262970
 40
4.899994
 50
0.000000
 51
180.000000
  0
ARC
  8
0
 10
336.301514
 20
176.262970
 40
4.899994
 50
180.000000
 51
0.000000
  0
CIRCLE
  8
0
 10
336.301514
 20
177.262970
 40
3.000000
  0
ARC
  8
0
 10
336.301514
 20
177.262970
 40
4.999992
 50
168.521729
 51
191.478104
  0
ARC
  8
0
 10
336.301514
 20
177.262970
 40
4.999992
 50
348.521729
 51
11.478270
  0
ARC
  8
0
 10
335.301514
 20
162.262970
 40
4.899994
 50
0.000000
 51
180.000000
  0
ARC
  8
0
 10
335.301514
 20
160.262970
 40
4.899994
 50
180.000000
 51
0.000000
  0
CIRCLE
  8
0
 10
335.301514
 20
161.262970
 40
3.000000
  0
ARC
  8
0
 10
335.301514
 20
161.262970
 40
4.999992
 50
168.521729
 51
191.478271
  0
ARC
  8
0
 10
335.301514
 20
161.262970
 40
4.999992
 50
348.521729
 51
11.478270
  0
TEXT
  8
0
 10
330.551514
 20
182.762970
 40
2.000000
  1
A
 50
0.000000
 41
1.052632
 51
0.000000
  7
STANDARD
  0
TEXT
  8
0
 10
339.051514
 20
154.762970
 40
2.000000
  1
B
 50
0.000000
 41
1.052632
 51
0.000000
  7
STANDARD
  0
POINT
  8
0
 10
326.301514
 20
71.762970
  0
POINT
  8
0
 10
345.301514
 20
71.762970
  0
LINE
  8
0
 10
326.301514
 20
44.762970
 11
345.301514
 21
44.762970
  0
LINE
  8
0
 10
345.301514
 20
71.762970
 11
345.301514
 21
44.762970
  0
LINE
  8
0
 10
342.626953
 20
103.762970
 11
341.301514
 21
103.762970
  0
LINE
  8
0
 10
328.836487
 20
99.762970
 11
328.976166
 21
103.762970
  0
LINE
  8
0
 10
342.766632
 20
99.762970
 11
342.626953
 21
103.762978
  0
LINE
  8
0
 10
335.801514
 20
43.762970
 11
335.801514
 21
101.362427
  0
LINE
  8
0
 10
326.801514
 20
99.762970
 11
344.801514
 21
99.762970
  0
LINE
  8
0
 10
326.801514
 20
99.762970
 11
326.801514
 21
71.762970
  0
LINE
  8
0
 10
344.801514
 20
99.762970
 11
344.801514
 21
71.762970
  0
LINE
  8
0
 10
335.301514
 20
110.562973
 11
335.301514
 21
98.262970
  0
LINE
  8
0
 10
336.301514
 20
110.562973
 11
336.301514
 21
98.262970
  0
LINE
  8
0
 10
330.301514
 20
103.762970
 11
328.976166
 21
103.762970
  0
LINE
  8
0
 10
330.401520
 20
108.362961
 11
341.201508
 21
108.362961
  0
LINE
  8
0
 10
331.801514
 20
107.562958
 11
331.801514
 21
108.362961
  0
LINE
  8
0
 10
330.301514
 20
107.562973
 11
341.301514
 21
107.562973
  0
LINE
  8
0
 10
340.301514
 20
107.562973
 11
340.301514
 21
108.362961
  0
LINE
  8
0
 10
330.301514
 20
99.762970
 11
330.301514
 21
107.562973
  0
LINE
  8
0
 10
340.201508
 20
108.362961
 11
340.201508
 21
109.562973
  0
LINE
  8
0
 10
330.401520
 20
108.362961
 11
330.401520
 21
109.562958
  0
LINE
  8
0
 10
341.301514
 20
99.762970
 11
341.301514
 21
107.562973
  0
LINE
  8
0
 10
341.201508
 20
108.362961
 11
341.201508
 21
109.562973
  0
LINE
  8
0
 10
326.301514
 20
71.762970
 11
345.301514
 21
71.762970
  0
LINE
  8
0
 10
330.401520
 20
109.562973
 11
341.201508
 21
109.562973
  0
LINE
  8
0
 10
326.801514
 20
72.762970
 11
344.801514
 21
72.762970
  0
POINT
  8
0
 10
225.301514
 20
139.262970
  0
POINT
  8
0
 10
205.301514
 20
139.262970
  0
LINE
  8
0
 10
232.301498
 20
207.462967
 11
232.301498
 21
139.862976
  0
LINE
  8
0
 10
205.301514
 20
139.862976
 11
232.301498
 21
139.862976
  0
LINE
  8
0
 10
205.301514
 20
148.262970
 11
232.301498
 21
148.262970
  0
LINE
  8
0
 10
205.301514
 20
190.262970
 11
232.301514
 21
190.262970
  0
LINE
  8
0
 10
205.301514
 20
207.462967
 11
232.301498
 21
207.462967
  0
LINE
  8
0
 10
230.801544
 20
208.945572
 11
236.301498
 21
209.137634
  0
LINE
  8
0
 10
205.301514
 20
234.862976
 11
236.301498
 21
234.862976
  0
LINE
  8
0
 10
207.301590
 20
236.862976
 11
229.801544
 21
236.862976
  0
LINE
  8
0
 10
206.301559
 20
234.862976
 11
207.301575
 21
236.863007
  0
LINE
  8
0
 10
230.801529
 20
234.862976
 11
229.801544
 21
236.862976
  0
LINE
  8
0
 10
236.301498
 20
234.862976
 11
236.301498
 21
209.137619
  0
LINE
  8
0
 10
241.101501
 20
183.162979
 11
241.101501
 21
171.362976
  0
LINE
  8
0
 10
239.901505
 20
183.162979
 11
239.901505
 21
171.362976
  0
LINE
  8
0
 10
239.901505
 20
171.362976
 11
241.101517
 21
171.362976
  0
LINE
  8
0
 10
239.901505
 20
183.162979
 11
241.101501
 21
183.162979
  0
LINE
  8
0
 10
239.101501
 20
180.762970
 11
239.901505
 21
180.762970
  0
LINE
  8
0
 10
239.101517
 20
173.762970
 11
239.901505
 21
173.762970
  0
LINE
  8
0
 10
239.101501
 20
182.262970
 11
239.101501
 21
172.262970
  0
LINE
  8
0
 10
232.301498
 20
172.262970
 11
239.101501
 21
172.262970
  0
LINE
  8
0
 10
232.301498
 20
182.262970
 11
239.101501
 21
182.262970
  0
LINE
  8
0
 10
241.101501
 20
167.162979
 11
241.101501
 21
155.362976
  0
LINE
  8
0
 10
239.901505
 20
167.162979
 11
239.901505
 21
155.362976
  0
LINE
  8
0
 10
239.901505
 20
155.362976
 11
241.101517
 21
155.362976
  0
LINE
  8
0
 10
239.901505
 20
167.162979
 11
241.101501
 21
167.162979
  0
LINE
  8
0
 10
239.101501
 20
164.762970
 11
239.901505
 21
164.762970
  0
LINE
  8
0
 10
239.101517
 20
157.762970
 11
239.901505
 21
157.762970
  0
LINE
  8
0
 10
239.101501
 20
166.262970
 11
239.101501
 21
156.262970
  0
LINE
  8
0
 10
232.301498
 20
156.262970
 11
239.101501
 21
156.262970
  0
LINE
  8
0
 10
232.301498
 20
166.262970
 11
239.101501
 21
166.262970
  0
LINE
  8
0
 10
230.801544
 20
234.862976
 11
230.801544
 21
207.462967
  0
POINT
  8
0
 10
-219.196564
 20
-121.296021
  0
POINT
  8
0
 10
-181.196564
 20
-121.296021
  0
LINE
  8
0
 10
-181.196564
 20
-23.296021
 11
-181.196564
 21
-121.296021
  0
LINE
  8
0
 10
-202.416565
 20
-25.296021
 11
-197.976471
 21
-25.296021
  0
LINE
  8
0
 10
-190.696564
 20
-20.296021
 11
-190.696564
 21
-125.712677
  0
LINE
  8
0
 10
-196.196564
 20
-50.296021
 11
-185.196548
 21
-50.296021
  0
LINE
  8
0
 10
-196.196564
 20
-36.096008
 11
-185.196548
 21
-36.096008
  0
LINE
  8
0
 10
-196.196564
 20
-28.596008
 11
-185.196548
 21
-28.596008
  0
LINE
  8
0
 10
-196.196564
 20
-28.595993
 11
-196.196564
 21
-36.095993
  0
LINE
  8
0
 10
-185.196548
 20
-28.596008
 11
-185.196548
 21
-36.096008
  0
LINE
  8
0
 10
-187.196564
 20
-43.096008
 11
-187.196564
 21
-47.096008
  0
LINE
  8
0
 10
-194.196564
 20
-43.095993
 11
-194.196564
 21
-47.095993
  0
LINE
  8
0
 10
-196.196564
 20
-37.795990
 11
-196.196564
 21
-50.296005
  0
LINE
  8
0
 10
-185.196548
 20
-37.796005
 11
-185.196548
 21
-50.296005
  0
LINE
  8
0
 10
-196.196564
 20
-37.796021
 11
-185.196548
 21
-37.796021
  0
LINE
  8
0
 10
-194.196564
 20
-47.096008
 11
-187.196564
 21
-47.096008
  0
LINE
  8
0
 10
-194.196564
 20
-43.096008
 11
-187.196564
 21
-43.096008
  0
LINE
  8
0
 10
-198.196564
 20
-25.695999
 11
-183.196548
 21
-25.695999
  0
LINE
  8
0
 10
-197.096497
 20
-23.695999
 11
-184.296646
 21
-23.695999
  0
LINE
  8
0
 10
-198.196503
 20
-25.696037
 11
-197.096497
 21
-23.696007
  0
LINE
  8
0
 10
-184.296707
 20
-23.696045
 11
-183.196686
 21
-25.696091
  0
LINE
  8
0
 10
-183.416428
 20
-25.296021
 11
-181.196564
 21
-25.296021
  0
LINE
  8
0
 10
-200.196564
 20
-23.296021
 11
-200.196564
 21
-70.296021
  0
LINE
  8
0
 10
-219.196564
 20
-23.296021
 11
-181.196564
 21
-23.296021
  0
LINE
  8
0
 10
-219.196564
 20
-121.296021
 11
-181.196564
 21
-121.296021
  0
LINE
  8
0
 10
-219.196564
 20
-25.296021
 11
-216.976471
 21
-25.296021
  0
LINE
  8
0
 10
-209.696564
 20
-20.296021
 11
-209.696564
 21
-125.712677
  0
LINE
  8
0
 10
-215.196564
 20
-50.296021
 11
-204.196564
 21
-50.296021
  0
LINE
  8
0
 10
-215.196564
 20
-36.096008
 11
-204.196564
 21
-36.096008
  0
LINE
  8
0
 10
-215.196564
 20
-28.596008
 11
-204.196564
 21
-28.596008
  0
LINE
  8
0
 10
-215.196564
 20
-28.595993
 11
-215.196564
 21
-36.095993
  0
LINE
  8
0
 10
-204.196564
 20
-28.596008
 11
-204.196564
 21
-36.096008
  0
LINE
  8
0
 10
-206.196564
 20
-43.096008
 11
-206.196564
 21
-47.096008
  0
LINE
  8
0
 10
-213.196564
 20
-43.095993
 11
-213.196564
 21
-47.095993
  0
LINE
  8
0
 10
-215.196564
 20
-37.795990
 11
-215.196564
 21
-50.296005
  0
LINE
  8
0
 10
-204.196564
 20
-37.796005
 11
-204.196564
 21
-50.296005
  0
LINE
  8
0
 10
-215.196564
 20
-37.796021
 11
-204.196564
 21
-37.796021
  0
LINE
  8
0
 10
-213.196564
 20
-47.096008
 11
-206.196564
 21
-47.096008
  0
LINE
  8
0
 10
-213.196564
 20
-43.096008
 11
-206.196564
 21
-43.096008
  0
LINE
  8
0
 10
-217.196564
 20
-25.695999
 11
-202.196564
 21
-25.695999
  0
LINE
  8
0
 10
-216.096451
 20
-23.695999
 11
-203.296585
 21
-23.695999
  0
LINE
  8
0
 10
-217.196457
 20
-25.696053
 11
-216.096436
 21
-23.696022
  0
LINE
  8
0
 10
-203.296631
 20
-23.696037
 11
-202.196609
 21
-25.696060
  0
LINE
  8
0
 10
-219.196564
 20
-70.296021
 11
-181.196564
 21
-70.296021
  0
LINE
  8
0
 10
-219.196564
 20
-112.296021
 11
-181.196564
 21
-112.296021
  0
LINE
  8
0
 10
-219.196564
 20
-53.096024
 11
-181.196564
 21
-53.096024
  0
LINE
  8
0
 10
-212.934937
 20
-55.596024
 11
-206.656189
 21
-55.596024
  0
LINE
  8
0
 10
-193.813263
 20
-55.596024
 11
-188.248001
 21
-55.596024
  0
LINE
  8
0
 10
-199.696564
 20
-78.296021
 11
-199.696564
 21
-90.296021
  0
LINE
  8
0
 10
-205.696564
 20
-84.296021
 11
-193.696564
 21
-84.296021
  0
LINE
  8
0
 10
-215.696564
 20
-98.296021
 11
-203.696564
 21
-98.296021
  0
CIRCLE
  8
0
 10
-209.696564
 20
-55.596024
 40
1.500000
  0
CIRCLE
  8
0
 10
-190.696548
 20
-55.596024
 40
1.500000
  0
CIRCLE
  8
0
 10
-199.696564
 20
-84.296021
 40
4.283000
  0
CIRCLE
  8
0
 10
-199.696564
 20
-84.296021
 40
4.864000
  0
CIRCLE
  8
0
 10
-209.696564
 20
-98.296021
 40
4.283000
  0
CIRCLE
  8
0
 10
-209.696564
 20
-98.296021
 40
4.864000
  0
TEXT
  8
0
 10
-205.553711
 20
-108.046021
 40
2.500000
  1
‚a
 50
0.000000
 41
0.833333
 51
0.000000
  7
STANDARD
  0
TEXT
  8
0
 10
-195.553711
 20
-75.546021
 40
2.500000
  1
‚`
 50
0.000000
 41
0.833333
 51
0.000000
  7
STANDARD
  0
POINT
  8
0
 10
-219.196564
 20
-188.796005
  0
POINT
  8
0
 10
-181.196564
 20
-188.796005
  0
LINE
  8
0
 10
-219.196564
 20
-215.796005
 11
-181.196564
 21
-215.796005
  0
LINE
  8
0
 10
-181.196564
 20
-188.796005
 11
-181.196564
 21
-215.796005
  0
LINE
  8
0
 10
-183.871124
 20
-156.796005
 11
-197.521912
 21
-156.796005
  0
LINE
  8
0
 10
-197.661591
 20
-160.796005
 11
-197.521912
 21
-156.796005
  0
LINE
  8
0
 10
-183.731430
 20
-160.795990
 11
-183.871109
 21
-156.796005
  0
LINE
  8
0
 10
-190.696564
 20
-216.796005
 11
-190.696564
 21
-155.796005
  0
LINE
  8
0
 10
-200.196564
 20
-188.796005
 11
-200.196564
 21
-215.796005
  0
LINE
  8
0
 10
-202.871155
 20
-156.796005
 11
-216.521942
 21
-156.796005
  0
LINE
  8
0
 10
-216.661621
 20
-160.796021
 11
-216.521942
 21
-156.796005
  0
LINE
  8
0
 10
-202.731461
 20
-160.796005
 11
-202.871140
 21
-156.796005
  0
LINE
  8
0
 10
-209.696564
 20
-216.796005
 11
-209.696564
 21
-155.796005
  0
LINE
  8
0
 10
-181.696564
 20
-160.796005
 11
-181.696564
 21
-188.796005
  0
LINE
  8
0
 10
-218.696564
 20
-160.796005
 11
-218.696564
 21
-188.796005
  0
LINE
  8
0
 10
-181.696564
 20
-160.796005
 11
-218.696564
 21
-160.796005
  0
LINE
  8
0
 10
-219.196564
 20
-188.796005
 11
-181.196564
 21
-188.796005
  0
LINE
  8
0
 10
-218.696564
 20
-187.796005
 11
-181.696564
 21
-187.796005
  0
POINT
  8
0
 10
-303.196564
 20
-121.295990
  0
POINT
  8
0
 10
-323.196564
 20
-121.295990
  0
LINE
  8
0
 10
-297.696533
 20
-51.613388
 11
-292.196564
 21
-51.421326
  0
LINE
  8
0
 10
-323.196564
 20
-25.695984
 11
-292.196594
 21
-25.695984
  0
LINE
  8
0
 10
-321.196503
 20
-23.695984
 11
-298.696533
 21
-23.695984
  0
LINE
  8
0
 10
-322.196503
 20
-25.695992
 11
-321.196503
 21
-23.695961
  0
LINE
  8
0
 10
-297.696533
 20
-25.695976
 11
-298.696533
 21
-23.695984
  0
LINE
  8
0
 10
-292.196594
 20
-25.695984
 11
-292.196594
 21
-51.421341
  0
LINE
  8
0
 10
-323.196564
 20
-70.295990
 11
-296.196564
 21
-70.295990
  0
LINE
  8
0
 10
-323.196564
 20
-112.295990
 11
-296.196594
 21
-112.295990
  0
LINE
  8
0
 10
-323.196564
 20
-120.695984
 11
-296.196594
 21
-120.695984
  0
LINE
  8
0
 10
-296.196594
 20
-53.095993
 11
-296.196594
 21
-120.695984
  0
LINE
  8
0
 10
-323.196564
 20
-53.095993
 11
-296.196564
 21
-53.095993
  0
LINE
  8
0
 10
-297.696533
 20
-25.695984
 11
-297.696533
 21
-53.095993
  0
POINT
  8
0
 10
43.512337
 20
-120.795990
  0
POINT
  8
0
 10
81.512344
 20
-120.795990
  0
LINE
  8
0
 10
81.512344
 20
-22.795990
 11
81.512344
 21
-120.795990
  0
LINE
  8
0
 10
72.012337
 20
-19.795990
 11
72.012337
 21
-125.212646
  0
LINE
  8
0
 10
66.512337
 20
-49.795990
 11
77.512344
 21
-49.795990
  0
LINE
  8
0
 10
66.512337
 20
-35.595978
 11
77.512344
 21
-35.595978
  0
LINE
  8
0
 10
66.512337
 20
-28.095978
 11
77.512344
 21
-28.095978
  0
LINE
  8
0
 10
66.512337
 20
-28.095963
 11
66.512337
 21
-35.595963
  0
LINE
  8
0
 10
77.512344
 20
-28.095978
 11
77.512344
 21
-35.595978
  0
LINE
  8
0
 10
75.512337
 20
-42.595978
 11
75.512337
 21
-46.595978
  0
LINE
  8
0
 10
68.512337
 20
-42.595963
 11
68.512337
 21
-46.595963
  0
LINE
  8
0
 10
66.512337
 20
-37.295959
 11
66.512337
 21
-49.795975
  0
LINE
  8
0
 10
77.512344
 20
-37.295975
 11
77.512344
 21
-49.795975
  0
LINE
  8
0
 10
66.512337
 20
-37.295990
 11
77.512344
 21
-37.295990
  0
LINE
  8
0
 10
68.512337
 20
-46.595978
 11
75.512337
 21
-46.595978
  0
LINE
  8
0
 10
68.512337
 20
-42.595978
 11
75.512337
 21
-42.595978
  0
LINE
  8
0
 10
64.512337
 20
-25.195969
 11
79.512344
 21
-25.195969
  0
LINE
  8
0
 10
65.612396
 20
-23.195969
 11
78.412247
 21
-23.195969
  0
LINE
  8
0
 10
64.512375
 20
-25.196007
 11
65.612396
 21
-23.195976
  0
LINE
  8
0
 10
78.412186
 20
-23.196014
 11
79.512222
 21
-25.196068
  0
LINE
  8
0
 10
62.512337
 20
-22.795990
 11
62.512337
 21
-69.795990
  0
LINE
  8
0
 10
43.512337
 20
-22.795990
 11
81.512344
 21
-22.795990
  0
LINE
  8
0
 10
43.512337
 20
-120.795990
 11
81.512344
 21
-120.795990
  0
LINE
  8
0
 10
43.512337
 20
-24.795990
 11
45.732437
 21
-24.795990
  0
LINE
  8
0
 10
53.012337
 20
-19.795990
 11
53.012337
 21
-125.212646
  0
LINE
  8
0
 10
47.512337
 20
-49.795990
 11
58.512337
 21
-49.795990
  0
LINE
  8
0
 10
47.512337
 20
-35.595978
 11
58.512337
 21
-35.595978
  0
LINE
  8
0
 10
47.512337
 20
-28.095978
 11
58.512337
 21
-28.095978
  0
LINE
  8
0
 10
47.512337
 20
-28.095963
 11
47.512337
 21
-35.595963
  0
LINE
  8
0
 10
58.512337
 20
-28.095978
 11
58.512337
 21
-35.595978
  0
LINE
  8
0
 10
56.512337
 20
-42.595978
 11
56.512337
 21
-46.595978
  0
LINE
  8
0
 10
49.512337
 20
-42.595963
 11
49.512337
 21
-46.595963
  0
LINE
  8
0
 10
47.512337
 20
-37.295959
 11
47.512337
 21
-49.795975
  0
LINE
  8
0
 10
58.512337
 20
-37.295975
 11
58.512337
 21
-49.795975
  0
LINE
  8
0
 10
47.512337
 20
-37.295990
 11
58.512337
 21
-37.295990
  0
LINE
  8
0
 10
49.512337
 20
-46.595978
 11
56.512337
 21
-46.595978
  0
LINE
  8
0
 10
49.512337
 20
-42.595978
 11
56.512337
 21
-42.595978
  0
LINE
  8
0
 10
45.512344
 20
-25.195969
 11
60.512337
 21
-25.195969
  0
LINE
  8
0
 10
46.612450
 20
-23.195969
 11
59.412289
 21
-23.195969
  0
LINE
  8
0
 10
45.512444
 20
-25.196022
 11
46.612465
 21
-23.195992
  0
LINE
  8
0
 10
59.412239
 20
-23.196014
 11
60.512264
 21
-25.196060
  0
LINE
  8
0
 10
60.292458
 20
-24.795990
 11
64.732384
 21
-24.795990
  0
LINE
  8
0
 10
43.512337
 20
-69.795990
 11
81.512344
 21
-69.795990
  0
LINE
  8
0
 10
43.512337
 20
-111.795990
 11
81.512344
 21
-111.795990
  0
LINE
  8
0
 10
43.512337
 20
-52.595993
 11
81.512344
 21
-52.595993
  0
LINE
  8
0
 10
49.773964
 20
-55.095993
 11
56.052711
 21
-55.095993
  0
LINE
  8
0
 10
68.895638
 20
-55.095993
 11
74.460899
 21
-55.095993
  0
LINE
  8
0
 10
79.292259
 20
-24.795990
 11
81.512344
 21
-24.795990
  0
LINE
  8
0
 10
66.912331
 20
-82.795990
 11
66.912331
 21
-84.795990
  0
LINE
  8
0
 10
59.112343
 20
-82.795990
 11
59.112343
 21
-84.795990
  0
LINE
  8
0
 10
65.912331
 20
-96.795990
 11
65.912331
 21
-98.795990
  0
LINE
  8
0
 10
58.112343
 20
-96.795990
 11
58.112343
 21
-98.795990
  0
LINE
  8
0
 10
57.012337
 20
-83.795990
 11
69.012337
 21
-83.795990
  0
LINE
  8
0
 10
56.012337
 20
-97.795990
 11
68.012337
 21
-97.795990
  0
LINE
  8
0
 10
62.012337
 20
-91.795990
 11
62.012337
 21
-103.795990
  0
LINE
  8
0
 10
63.012337
 20
-77.795990
 11
63.012337
 21
-89.795990
  0
CIRCLE
  8
0
 10
53.012337
 20
-55.095993
 40
1.500000
  0
CIRCLE
  8
0
 10
72.012352
 20
-55.095993
 40
1.500000
  0
CIRCLE
  8
0
 10
62.012337
 20
-97.795990
 40
2.000000
  0
CIRCLE
  8
0
 10
62.012337
 20
-97.795990
 40
5.000000
  0
ARC
  8
0
 10
63.012337
 20
-82.795990
 40
3.900002
 50
0.000000
 51
180.000000
  0
ARC
  8
0
 10
63.012337
 20
-84.795990
 40
3.900002
 50
180.000000
 51
0.000000
  0
CIRCLE
  8
0
 10
63.012337
 20
-83.795990
 40
2.000000
  0
CIRCLE
  8
0
 10
63.012337
 20
-83.795990
 40
5.000000
  0
ARC
  8
0
 10
62.012337
 20
-96.795990
 40
3.900002
 50
0.000000
 51
180.000000
  0
ARC
  8
0
 10
62.012337
 20
-98.795990
 40
3.900002
 50
180.000000
 51
0.000000
  0
TEXT
  8
0
 10
57.155193
 20
-107.545990
 40
2.500000
  1
‚a
 50
0.000000
 41
0.833333
 51
0.000000
  7
STANDARD
  0
TEXT
  8
0
 10
67.155197
 20
-75.045990
 40
2.500000
  1
‚`
 50
0.000000
 41
0.833333
 51
0.000000
  7
STANDARD
  0
POINT
  8
0
 10
43.512337
 20
-188.295975
  0
POINT
  8
0
 10
81.512344
 20
-188.295975
  0
LINE
  8
0
 10
43.512337
 20
-215.295975
 11
81.512344
 21
-215.295975
  0
LINE
  8
0
 10
81.512344
 20
-188.295975
 11
81.512344
 21
-215.295975
  0
LINE
  8
0
 10
78.837784
 20
-156.295975
 11
68.012337
 21
-156.295975
  0
LINE
  8
0
 10
78.977470
 20
-160.295959
 11
78.837784
 21
-156.295975
  0
LINE
  8
0
 10
72.012337
 20
-216.295975
 11
72.012337
 21
-155.295975
  0
LINE
  8
0
 10
62.512337
 20
-188.295975
 11
62.512337
 21
-215.295975
  0
LINE
  8
0
 10
57.012337
 20
-156.295975
 11
46.186966
 21
-156.295975
  0
LINE
  8
0
 10
46.047283
 20
-160.295975
 11
46.186966
 21
-156.295975
  0
LINE
  8
0
 10
53.012337
 20
-216.295975
 11
53.012337
 21
-155.295975
  0
LINE
  8
0
 10
81.012344
 20
-160.295975
 11
81.012344
 21
-188.295975
  0
LINE
  8
0
 10
44.012337
 20
-160.295975
 11
44.012337
 21
-188.295975
  0
LINE
  8
0
 10
81.012344
 20
-160.295975
 11
44.012337
 21
-160.295975
  0
LINE
  8
0
 10
62.012337
 20
-150.495972
 11
62.012337
 21
-161.295975
  0
LINE
  8
0
 10
63.012337
 20
-150.495972
 11
63.012337
 21
-161.295975
  0
LINE
  8
0
 10
58.112343
 20
-151.195984
 11
66.912331
 21
-151.195984
  0
LINE
  8
0
 10
58.112343
 20
-152.395981
 11
66.912331
 21
-152.395981
  0
LINE
  8
0
 10
64.512337
 20
-153.895981
 11
64.512337
 21
-152.395981
  0
LINE
  8
0
 10
59.512337
 20
-153.895981
 11
59.512337
 21
-152.395981
  0
LINE
  8
0
 10
67.012337
 20
-160.295975
 11
67.012337
 21
-153.895981
  0
LINE
  8
0
 10
57.012337
 20
-160.295975
 11
57.012337
 21
-153.895981
  0
LINE
  8
0
 10
65.912331
 20
-152.395981
 11
65.912331
 21
-151.195984
  0
LINE
  8
0
 10
58.112343
 20
-152.395981
 11
58.112343
 21
-151.195984
  0
LINE
  8
0
 10
57.012337
 20
-153.895981
 11
68.012337
 21
-153.895981
  0
LINE
  8
0
 10
65.512337
 20
-153.895981
 11
65.512337
 21
-152.395981
  0
LINE
  8
0
 10
68.012337
 20
-160.295975
 11
68.012337
 21
-153.895981
  0
LINE
  8
0
 10
66.912331
 20
-152.395981
 11
66.912331
 21
-151.195984
  0
LINE
  8
0
 10
43.512337
 20
-188.295975
 11
81.512344
 21
-188.295975
  0
LINE
  8
0
 10
44.012337
 20
-187.295975
 11
81.012344
 21
-187.295975
  0
POINT
  8
0
 10
-40.487663
 20
-121.295990
  0
POINT
  8
0
 10
-60.487663
 20
-121.295990
  0
LINE
  8
0
 10
-34.987686
 20
-51.613388
 11
-29.487684
 21
-51.421326
  0
LINE
  8
0
 10
-60.487663
 20
-25.695984
 11
-29.487679
 21
-25.695984
  0
LINE
  8
0
 10
-58.487598
 20
-23.695984
 11
-35.987640
 21
-23.695984
  0
LINE
  8
0
 10
-59.487621
 20
-25.695984
 11
-58.487610
 21
-23.695961
  0
LINE
  8
0
 10
-34.987640
 20
-25.695976
 11
-35.987640
 21
-23.695984
  0
LINE
  8
0
 10
-29.487679
 20
-25.695984
 11
-29.487679
 21
-51.421341
  0
LINE
  8
0
 10
-34.987679
 20
-25.695984
 11
-34.987679
 21
-53.095993
  0
LINE
  8
0
 10
-60.487663
 20
-70.295990
 11
-33.487663
 21
-70.295990
  0
LINE
  8
0
 10
-60.487663
 20
-112.295990
 11
-33.487679
 21
-112.295990
  0
LINE
  8
0
 10
-60.487663
 20
-120.695984
 11
-33.487679
 21
-120.695984
  0
LINE
  8
0
 10
-33.487679
 20
-53.095993
 11
-33.487679
 21
-120.695984
  0
LINE
  8
0
 10
-60.487663
 20
-53.095993
 11
-33.487663
 21
-53.095993
  0
LINE
  8
0
 10
-25.387672
 20
-79.395981
 11
-25.387672
 21
-89.195984
  0
LINE
  8
0
 10
-26.587669
 20
-79.395981
 11
-25.387672
 21
-79.395981
  0
LINE
  8
0
 10
-26.587669
 20
-89.195984
 11
-25.387672
 21
-89.195984
  0
LINE
  8
0
 10
-26.587669
 20
-79.395981
 11
-26.587669
 21
-89.195984
  0
LINE
  8
0
 10
-28.087669
 20
-86.795990
 11
-26.587669
 21
-86.795990
  0
LINE
  8
0
 10
-28.087669
 20
-81.795990
 11
-26.587669
 21
-81.795990
  0
LINE
  8
0
 10
-33.487679
 20
-89.295990
 11
-28.087669
 21
-89.295990
  0
LINE
  8
0
 10
-33.487679
 20
-79.295990
 11
-28.087669
 21
-79.295990
  0
LINE
  8
0
 10
-28.087669
 20
-79.295990
 11
-28.087669
 21
-89.295990
  0
LINE
  8
0
 10
-25.387672
 20
-93.395981
 11
-25.387672
 21
-103.195984
  0
LINE
  8
0
 10
-26.587669
 20
-93.395996
 11
-25.387672
 21
-93.395996
  0
LINE
  8
0
 10
-26.587669
 20
-103.195984
 11
-25.387672
 21
-103.195984
  0
LINE
  8
0
 10
-26.587669
 20
-93.395981
 11
-26.587669
 21
-103.195984
  0
LINE
  8
0
 10
-28.087669
 20
-100.795990
 11
-26.587669
 21
-100.795990
  0
LINE
  8
0
 10
-28.087669
 20
-95.795990
 11
-26.587669
 21
-95.795990
  0
LINE
  8
0
 10
-33.487679
 20
-103.295990
 11
-28.087669
 21
-103.295990
  0
LINE
  8
0
 10
-33.487679
 20
-93.295990
 11
-28.087669
 21
-93.295990
  0
LINE
  8
0
 10
-28.087669
 20
-93.295990
 11
-28.087669
 21
-103.295990
  0
POINT
  8
0
 10
315.301514
 20
-121.296021
  0
POINT
  8
0
 10
353.301514
 20
-121.296021
  0
LINE
  8
0
 10
353.301514
 20
-23.296021
 11
353.301514
 21
-121.296021
  0
LINE
  8
0
 10
343.801514
 20
-20.296021
 11
343.801514
 21
-125.712677
  0
LINE
  8
0
 10
338.301514
 20
-50.296021
 11
349.301514
 21
-50.296021
  0
LINE
  8
0
 10
338.301514
 20
-36.096008
 11
349.301514
 21
-36.096008
  0
LINE
  8
0
 10
338.301514
 20
-28.596008
 11
349.301514
 21
-28.596008
  0
LINE
  8
0
 10
338.301514
 20
-28.595993
 11
338.301514
 21
-36.095993
  0
LINE
  8
0
 10
349.301514
 20
-28.596008
 11
349.301514
 21
-36.096008
  0
LINE
  8
0
 10
347.301514
 20
-43.096008
 11
347.301514
 21
-47.096008
  0
LINE
  8
0
 10
340.301514
 20
-43.095993
 11
340.301514
 21
-47.095993
  0
LINE
  8
0
 10
338.301514
 20
-37.795990
 11
338.301514
 21
-50.296005
  0
LINE
  8
0
 10
349.301514
 20
-37.796005
 11
349.301514
 21
-50.296005
  0
LINE
  8
0
 10
338.301514
 20
-37.796021
 11
349.301514
 21
-37.796021
  0
LINE
  8
0
 10
340.301514
 20
-47.096008
 11
347.301514
 21
-47.096008
  0
LINE
  8
0
 10
340.301514
 20
-43.096008
 11
347.301514
 21
-43.096008
  0
LINE
  8
0
 10
336.301514
 20
-25.695999
 11
351.301514
 21
-25.695999
  0
LINE
  8
0
 10
337.401672
 20
-23.695999
 11
350.201385
 21
-23.695999
  0
LINE
  8
0
 10
350.201324
 20
-23.696045
 11
351.301361
 21
-25.696121
  0
LINE
  8
0
 10
351.081635
 20
-25.296021
 11
353.301514
 21
-25.296021
  0
LINE
  8
0
 10
334.301514
 20
-23.296021
 11
334.301514
 21
-70.296021
  0
LINE
  8
0
 10
315.301514
 20
-23.296021
 11
353.301514
 21
-23.296021
  0
LINE
  8
0
 10
315.301514
 20
-121.296021
 11
353.301514
 21
-121.296021
  0
LINE
  8
0
 10
315.301514
 20
-25.296021
 11
317.521606
 21
-25.296021
  0
LINE
  8
0
 10
324.801514
 20
-20.296021
 11
324.801514
 21
-125.712677
  0
LINE
  8
0
 10
319.301514
 20
-50.296021
 11
330.301514
 21
-50.296021
  0
LINE
  8
0
 10
319.301514
 20
-36.096008
 11
330.301514
 21
-36.096008
  0
LINE
  8
0
 10
319.301514
 20
-28.596008
 11
330.301514
 21
-28.596008
  0
LINE
  8
0
 10
319.301514
 20
-28.595993
 11
319.301514
 21
-36.095993
  0
LINE
  8
0
 10
330.301514
 20
-28.596008
 11
330.301514
 21
-36.096008
  0
LINE
  8
0
 10
328.301514
 20
-43.096008
 11
328.301514
 21
-47.096008
  0
LINE
  8
0
 10
321.301514
 20
-43.095993
 11
321.301514
 21
-47.095993
  0
LINE
  8
0
 10
319.301514
 20
-37.795990
 11
319.301514
 21
-50.296005
  0
LINE
  8
0
 10
330.301514
 20
-37.796005
 11
330.301514
 21
-50.296005
  0
LINE
  8
0
 10
319.301514
 20
-37.796021
 11
330.301514
 21
-37.796021
  0
LINE
  8
0
 10
321.301514
 20
-47.096008
 11
328.301514
 21
-47.096008
  0
LINE
  8
0
 10
321.301514
 20
-43.096008
 11
328.301514
 21
-43.096008
  0
LINE
  8
0
 10
317.301514
 20
-25.695999
 11
332.301514
 21
-25.695999
  0
LINE
  8
0
 10
318.401611
 20
-23.695999
 11
331.201447
 21
-23.695999
  0
LINE
  8
0
 10
317.301605
 20
-25.696060
 11
318.401642
 21
-23.696014
  0
LINE
  8
0
 10
331.201416
 20
-23.696037
 11
332.301422
 21
-25.696075
  0
LINE
  8
0
 10
332.081635
 20
-25.296021
 11
336.521667
 21
-25.296021
  0
LINE
  8
0
 10
315.301514
 20
-70.296021
 11
353.301514
 21
-70.296021
  0
LINE
  8
0
 10
315.301514
 20
-112.296021
 11
353.301514
 21
-112.296021
  0
LINE
  8
0
 10
315.301514
 20
-53.096024
 11
353.301514
 21
-53.096024
  0
LINE
  8
0
 10
321.563141
 20
-55.596024
 11
327.841888
 21
-55.596024
  0
LINE
  8
0
 10
340.684814
 20
-55.596024
 11
346.250061
 21
-55.596024
  0
LINE
  8
0
 10
337.401642
 20
-23.696022
 11
336.301605
 21
-25.696098
  0
LINE
  8
0
 10
329.901520
 20
-83.296021
 11
329.901520
 21
-85.296021
  0
LINE
  8
0
 10
339.701508
 20
-83.296021
 11
339.701508
 21
-85.296021
  0
LINE
  8
0
 10
328.901520
 20
-97.296021
 11
328.901520
 21
-99.296021
  0
LINE
  8
0
 10
338.701508
 20
-97.296021
 11
338.701508
 21
-99.296021
  0
LINE
  8
0
 10
334.801514
 20
-76.796021
 11
334.801514
 21
-91.796021
  0
LINE
  8
0
 10
333.801514
 20
-90.796021
 11
333.801514
 21
-105.796021
  0
LINE
  8
0
 10
327.301514
 20
-84.296021
 11
342.301514
 21
-84.296021
  0
LINE
  8
0
 10
326.301514
 20
-98.296021
 11
341.301514
 21
-98.296021
  0
CIRCLE
  8
0
 10
324.801514
 20
-55.596024
 40
1.500000
  0
CIRCLE
  8
0
 10
343.801514
 20
-55.596024
 40
1.500000
  0
ARC
  8
0
 10
333.801514
 20
-98.296021
 40
4.999992
 50
348.521729
 51
11.478270
  0
ARC
  8
0
 10
333.801514
 20
-98.296021
 40
4.999992
 50
168.521729
 51
191.478180
  0
ARC
  8
0
 10
334.801514
 20
-83.296021
 40
4.899994
 50
0.000000
 51
180.000000
  0
ARC
  8
0
 10
334.801514
 20
-85.296021
 40
4.899994
 50
180.000000
 51
0.000000
  0
CIRCLE
  8
0
 10
334.801514
 20
-84.296021
 40
3.000000
  0
ARC
  8
0
 10
334.801514
 20
-84.296021
 40
4.999992
 50
168.521729
 51
191.478180
  0
ARC
  8
0
 10
334.801514
 20
-84.296021
 40
4.999992
 50
348.521729
 51
11.478270
  0
ARC
  8
0
 10
333.801514
 20
-97.296021
 40
4.899994
 50
0.000000
 51
180.000000
  0
ARC
  8
0
 10
333.801514
 20
-99.296021
 40
4.899994
 50
180.000000
 51
0.000000
  0
CIRCLE
  8
0
 10
333.801514
 20
-98.296021
 40
3.000000
  0
TEXT
  8
0
 10
328.944366
 20
-108.046021
 40
2.500000
  1
‚a
 50
0.000000
 41
0.833333
 51
0.000000
  7
STANDARD
  0
TEXT
  8
0
 10
338.944366
 20
-75.546021
 40
2.500000
  1
‚`
 50
0.000000
 41
0.833333
 51
0.000000
  7
STANDARD
  0
POINT
  8
0
 10
315.301514
 20
-188.796005
  0
POINT
  8
0
 10
353.301514
 20
-188.796005
  0
LINE
  8
0
 10
315.301514
 20
-215.796005
 11
353.301514
 21
-215.796005
  0
LINE
  8
0
 10
353.301514
 20
-188.796005
 11
353.301514
 21
-215.796005
  0
LINE
  8
0
 10
350.626984
 20
-156.796005
 11
339.801514
 21
-156.796005
  0
LINE
  8
0
 10
350.766693
 20
-160.795990
 11
350.627014
 21
-156.796005
  0
LINE
  8
0
 10
334.301514
 20
-188.796005
 11
334.301514
 21
-215.796005
  0
LINE
  8
0
 10
328.801514
 20
-156.796005
 11
317.976166
 21
-156.796005
  0
LINE
  8
0
 10
317.836487
 20
-160.796005
 11
317.976166
 21
-156.796005
  0
LINE
  8
0
 10
352.801514
 20
-160.796005
 11
352.801514
 21
-188.796005
  0
LINE
  8
0
 10
315.801514
 20
-160.796005
 11
315.801514
 21
-188.796005
  0
LINE
  8
0
 10
352.801514
 20
-160.796005
 11
315.801514
 21
-160.796005
  0
LINE
  8
0
 10
333.801514
 20
-150.996002
 11
333.801514
 21
-161.796005
  0
LINE
  8
0
 10
334.801514
 20
-150.996002
 11
334.801514
 21
-161.796005
  0
LINE
  8
0
 10
328.901520
 20
-151.996002
 11
339.701508
 21
-151.996002
  0
LINE
  8
0
 10
328.901520
 20
-153.196014
 11
339.701508
 21
-153.196014
  0
LINE
  8
0
 10
330.301514
 20
-153.996002
 11
330.301514
 21
-153.196014
  0
LINE
  8
0
 10
337.301514
 20
-153.996002
 11
337.301514
 21
-153.196014
  0
LINE
  8
0
 10
328.801514
 20
-153.996002
 11
339.801514
 21
-153.996002
  0
LINE
  8
0
 10
338.801514
 20
-160.796005
 11
338.801514
 21
-153.996002
  0
LINE
  8
0
 10
328.801514
 20
-160.796005
 11
328.801514
 21
-153.996002
  0
LINE
  8
0
 10
338.701508
 20
-153.196014
 11
338.701508
 21
-151.996002
  0
LINE
  8
0
 10
328.901520
 20
-153.196014
 11
328.901520
 21
-151.996002
  0
LINE
  8
0
 10
338.301514
 20
-153.996002
 11
338.301514
 21
-153.196014
  0
LINE
  8
0
 10
339.801514
 20
-160.796005
 11
339.801514
 21
-153.996002
  0
LINE
  8
0
 10
339.701508
 20
-153.196014
 11
339.701508
 21
-151.996002
  0
LINE
  8
0
 10
315.301514
 20
-188.796005
 11
353.301514
 21
-188.796005
  0
LINE
  8
0
 10
324.801514
 20
-154.830643
 11
324.801514
 21
-217.691910
  0
LINE
  8
0
 10
343.801514
 20
-154.830643
 11
343.801514
 21
-217.691910
  0
LINE
  8
0
 10
315.801514
 20
-187.796005
 11
352.801514
 21
-187.796005
  0
POINT
  8
0
 10
225.301514
 20
-121.295990
  0
POINT
  8
0
 10
205.301514
 20
-121.295990
  0
LINE
  8
0
 10
230.801498
 20
-51.613380
 11
236.301498
 21
-51.421318
  0
LINE
  8
0
 10
205.301514
 20
-25.695984
 11
236.301498
 21
-25.695984
  0
LINE
  8
0
 10
207.301590
 20
-23.695984
 11
229.801544
 21
-23.695984
  0
LINE
  8
0
 10
206.301559
 20
-25.695984
 11
207.301575
 21
-23.695953
  0
LINE
  8
0
 10
230.801529
 20
-25.695984
 11
229.801529
 21
-23.695992
  0
LINE
  8
0
 10
236.301498
 20
-25.695984
 11
236.301498
 21
-51.421341
  0
LINE
  8
0
 10
230.801498
 20
-25.695984
 11
230.801498
 21
-53.095993
  0
LINE
  8
0
 10
205.301514
 20
-70.295990
 11
232.301514
 21
-70.295990
  0
LINE
  8
0
 10
205.301514
 20
-112.295990
 11
232.301498
 21
-112.295990
  0
LINE
  8
0
 10
205.301514
 20
-120.695984
 11
232.301498
 21
-120.695984
  0
LINE
  8
0
 10
232.301498
 20
-53.095993
 11
232.301498
 21
-120.695984
  0
LINE
  8
0
 10
205.301514
 20
-53.095993
 11
232.301514
 21
-53.095993
  0
LINE
  8
0
 10
241.101501
 20
-78.395981
 11
241.101501
 21
-90.195984
  0
LINE
  8
0
 10
239.901505
 20
-78.395981
 11
239.901505
 21
-90.195984
  0
LINE
  8
0
 10
239.901505
 20
-90.195984
 11
241.101501
 21
-90.195984
  0
LINE
  8
0
 10
239.901489
 20
-78.395981
 11
241.101501
 21
-78.395981
  0
LINE
  8
0
 10
239.101501
 20
-80.795990
 11
239.901505
 21
-80.795990
  0
LINE
  8
0
 10
239.101501
 20
-87.795990
 11
239.901505
 21
-87.795990
  0
LINE
  8
0
 10
239.101501
 20
-79.295990
 11
239.101501
 21
-89.295990
  0
LINE
  8
0
 10
232.301498
 20
-89.295990
 11
239.101501
 21
-89.295990
  0
LINE
  8
0
 10
232.301498
 20
-79.295990
 11
239.101501
 21
-79.295990
  0
LINE
  8
0
 10
241.101501
 20
-92.395996
 11
241.101501
 21
-104.195984
  0
LINE
  8
0
 10
239.901505
 20
-92.395996
 11
239.901505
 21
-104.195984
  0
LINE
  8
0
 10
239.901505
 20
-104.195984
 11
241.101501
 21
-104.195984
  0
LINE
  8
0
 10
239.901489
 20
-92.395996
 11
241.101501
 21
-92.395996
  0
LINE
  8
0
 10
239.101501
 20
-94.795990
 11
239.901505
 21
-94.795990
  0
LINE
  8
0
 10
239.101501
 20
-101.795990
 11
239.901505
 21
-101.795990
  0
LINE
  8
0
 10
239.101501
 20
-93.295990
 11
239.101501
 21
-103.295990
  0
LINE
  8
0
 10
232.301498
 20
-103.295990
 11
239.101501
 21
-103.295990
  0
LINE
  8
0
 10
232.301498
 20
-93.295990
 11
239.101501
 21
-93.295990
  0
ENDSEC
  0
EOF
