  0
SECTION
  2
HEADER
  0
ENDSEC
  0
SECTION
  2
TABLES
  0
TABLE
  2
LTYPE
 70
     4
  0
LTYPE
  2
CONTINUOUS
 70
    64
  3
Solid line
 72
    65
 73
     0
 40
0.000000
  0
LTYPE
  2
DASHED
 70
    64
  3
__ __ __ __ __ __ __ __ __ __ __ __ __ __ __
 72
    65
 73
     2
 40
3.500000
 49
2.000000
 49
-1.500000
  0
LTYPE
  2
CENTER
 70
    64
  3
____ _ ____ _ ____ _ ____ _ ____ _ ____ _ ____
 72
    65
 73
     4
 40
17.500000
 49
13.000000
 49
-1.500000
 49
1.500000
 49
-1.500000
  0
LTYPE
  2
PHANTOM
 70
    64
  3
_____ _ _ _____ _ _ _____ _ _ _____ _ _ ____  
 72
    65
 73
     6
 40
15.500000
 49
8.000000
 49
-1.500000
 49
1.500000
 49
-1.500000
 49
1.500000
 49
-1.500000
  0
LTYPE
  2
DASHED1
 70
    64
  3
__ __ __ __ __ __ __ __ __ __ __ __ __ __ __
 72
    65
 73
     2
 40
1.500000
 49
1.000000
 49
-0.500000
  0
LTYPE
  2
DASHED2
 70
    64
  3
__ __ __ __ __ __ __ __ __ __ __ __ __ __ __
 72
    65
 73
     2
 40
3.500000
 49
2.500000
 49
-1.000000
  0
LTYPE
  2
DASHED3
 70
    64
  3
__ __ __ __ __ __ __ __ __ __ __ __ __ __ __
 72
    65
 73
     2
 40
6.000000
 49
4.000000
 49
-2.000000
  0
LTYPE
  2
DASHED4
 70
    64
  3
__ __ __ __ __ __ __ __ __ __ __ __ __ __ __
 72
    65
 73
     2
 40
12.000000
 49
10.000000
 49
-2.000000
  0
LTYPE
  2
DASHED5
 70
    64
  3
__ __ __ __ __ __ __ __ __ __ __ __ __ __ __
 72
    65
 73
     2
 40
17.000000
 49
15.000000
 49
-2.000000
  0
LTYPE
  2
DASHED6
 70
    64
  3
__ __ __ __ __ __ __ __ __ __ __ __ __ __ __
 72
    65
 73
     2
 40
29.000000
 49
27.000000
 49
-2.000000
  0
LTYPE
  2
PHANTOM1
 70
    64
  3
_____ _ _ _____ _ _ _____ _ _ _____ _ _ ____  
 72
    65
 73
     6
 40
31.000000
 49
25.000000
 49
-1.500000
 49
1.000000
 49
-1.000000
 49
1.000000
 49
-1.500000
  0
LTYPE
  2
PHANTOM2
 70
    64
  3
_____ _ _ _____ _ _ _____ _ _ _____ _ _ ____  
 72
    65
 73
     6
 40
36.000000
 49
27.000000
 49
-1.500000
 49
2.500000
 49
-1.000000
 49
2.500000
 49
-1.500000
  0
LTYPE
  2
PHANTOM3
 70
    64
  3
_____ _ _ _____ _ _ _____ _ _ _____ _ _ ____  
 72
    65
 73
     6
 40
78.000000
 49
64.000000
 49
-2.000000
 49
4.000000
 49
-2.000000
 49
4.000000
 49
-2.000000
  0
LTYPE
  2
CENTER1
 70
    64
  3
____ _ ____ _ ____ _ ____ _ ____ _ ____ _ ____
 72
    65
 73
     4
 40
19.000000
 49
14.000000
 49
-1.000000
 49
3.000000
 49
-1.000000
  0
LTYPE
  2
CENTER2
 70
    64
  3
____ _ ____ _ ____ _ ____ _ ____ _ ____ _ ____
 72
    65
 73
     4
 40
28.500000
 49
25.000000
 49
-1.000000
 49
1.500000
 49
-1.000000
  0
LTYPE
  2
CENTER3
 70
    64
  3
____ _ ____ _ ____ _ ____ _ ____ _ ____ _ ____
 72
    65
 73
     4
 40
31.500000
 49
27.000000
 49
-1.000000
 49
2.500000
 49
-1.000000
  0
LTYPE
  2
CENTER4
 70
    64
  3
____ _ ____ _ ____ _ ____ _ ____ _ ____ _ ____
 72
    65
 73
     4
 40
50.000000
 49
45.000000
 49
-1.000000
 49
3.000000
 49
-1.000000
  0
LTYPE
  2
CENTER5
 70
    64
  3
____ _ ____ _ ____ _ ____ _ ____ _ ____ _ ____
 72
    65
 73
     4
 40
100.000000
 49
92.000000
 49
-2.000000
 49
4.000000
 49
-2.000000
  0
LTYPE
  2
SBK1
 70
    64
  3
______ _ _ _ ______ _ _ _ ______ _ _ _ _____  
 72
    65
 73
     8
 40
60.500000
 49
45.000000
 49
-2.000000
 49
2.500000
 49
-2.000000
 49
2.500000
 49
-2.000000
 49
2.500000
 49
-2.000000
  0
LTYPE
  2
SBK2
 70
    64
  3
______ _ _ _ ______ _ _ _ ______ _ _ _ _____  
 72
    65
 73
     8
 40
84.000000
 49
64.000000
 49
-2.000000
 49
4.000000
 49
-2.000000
 49
4.000000
 49
-2.000000
 49
4.000000
 49
-2.000000
  0
LTYPE
  2
STCH
 70
    64
  3
__ __ __ __ __ __ __ __ __ __ __ __ __ __ __
 72
    65
 73
     2
 40
3.000000
 49
1.000000
 49
-2.000000
  0
LTYPE
  2
MTCH
 70
    64
  3
_____ _ _ _____ _ _ _____ _ _ _____ _ _ ____  
 72
    65
 73
     6
 40
80.000000
 49
66.000000
 49
-2.000000
 49
4.000000
 49
-2.000000
 49
4.000000
 49
-2.000000
  0
ENDTAB
  0
TABLE
  2
LAYER
 70
     1
  0
LAYER
  2
0
 70
     0
 62
     7
  6
CONTINUOUS
  0
ENDTAB
  0
TABLE
  2
STYLE
 70
     1
  0
STYLE
  2
STANDARD
 70
     0
 40
0.000000
 41
1.000000
 50
0.000000
 71
     0
 42
0.200000
  3
txt
  4
BIGFONT
  0
ENDTAB
  0
TABLE
  2
VIEW
 70
     0
  0
ENDTAB
  0
ENDSEC
  0
SECTION
  2
BLOCKS
  0
ENDSEC
  0
SECTION
  2
ENTITIES
  0
LINE
  8
0
 10
399.799988
 20
276.250000
 11
399.799988
 21
-276.750000
  0
LINE
  8
0
 10
-399.250000
 20
276.250000
 11
-399.250000
 21
-276.750000
  0
LINE
  8
0
 10
-399.250000
 20
276.250000
 11
399.799988
 21
276.250000
  0
LINE
  8
0
 10
-399.250000
 20
-276.750000
 11
399.799988
 21
-276.750000
  0
LINE
  8
0
 10
133.449997
 20
-251.750000
 11
399.799988
 21
-251.750000
  0
LINE
  8
0
 10
239.799988
 20
251.250000
 11
399.799988
 21
251.250000
  0
LINE
  8
0
 10
-399.250000
 20
251.250000
 11
-239.250000
 21
251.250000
  0
LINE
  8
0
 10
239.799988
 20
-251.750000
 11
239.799988
 21
-276.750000
  0
LINE
  8
0
 10
239.799988
 20
251.250000
 11
239.799988
 21
276.250000
  0
LINE
  8
0
 10
-239.250000
 20
276.250000
 11
-239.250000
 21
251.250000
  0
LINE
  8
0
 10
-399.250000
 20
-0.250000
 11
399.799988
 21
-0.250000
  0
LINE
  8
0
 62
     2
 10
-399.250000
 20
-261.750000
 11
133.449997
 21
-261.750000
  0
LINE
  8
0
 62
     2
 10
-399.250000
 20
14.750000
 11
399.799988
 21
14.750000
  0
LINE
  8
0
 10
-132.900009
 20
276.250000
 11
-132.900009
 21
-276.750000
  0
LINE
  8
0
 10
133.449997
 20
276.250000
 11
133.449997
 21
-276.750000
  0
LINE
  8
0
 62
     2
 10
133.449997
 20
-236.750000
 11
399.799988
 21
-236.750000
  0
LINE
  8
0
  6
PHANTOM
 62
     2
 10
185.503448
 20
237.262970
 11
212.503448
 21
237.262970
  0
LINE
  8
0
  6
PHANTOM
 62
     2
 10
185.503448
 20
139.262970
 11
212.503448
 21
139.262970
  0
LINE
  8
0
  6
PHANTOM
 62
     2
 10
212.503448
 20
237.262970
 11
212.503448
 21
139.262970
  0
LINE
  8
0
  6
PHANTOM
 62
     2
 10
185.503448
 20
237.262970
 11
185.503448
 21
139.262970
  0
LINE
  8
0
  6
PHANTOM
 62
     2
 10
-82.900017
 20
237.262970
 11
-55.900017
 21
237.262970
  0
LINE
  8
0
  6
PHANTOM
 62
     2
 10
-55.900009
 20
237.262970
 11
-55.900009
 21
139.262970
  0
LINE
  8
0
  6
PHANTOM
 62
     2
 10
-82.900009
 20
139.262970
 11
-55.900009
 21
139.262970
  0
LINE
  8
0
  6
PHANTOM
 62
     2
 10
-82.900009
 20
237.262970
 11
-82.900009
 21
139.262970
  0
LINE
  8
0
  6
PHANTOM
 62
     2
 10
-347.196564
 20
237.262970
 11
-320.196564
 21
237.262970
  0
LINE
  8
0
  6
PHANTOM
 62
     2
 10
-347.196564
 20
139.262970
 11
-320.196564
 21
139.262970
  0
LINE
  8
0
  6
PHANTOM
 62
     2
 10
-320.196564
 20
237.262970
 11
-320.196564
 21
139.262970
  0
LINE
  8
0
  6
PHANTOM
 62
     2
 10
-347.196564
 20
237.262970
 11
-347.196564
 21
139.262970
  0
LINE
  8
0
  6
PHANTOM
 62
     2
 10
174.503387
 20
-19.237030
 11
201.503387
 21
-19.237030
  0
LINE
  8
0
  6
PHANTOM
 62
     2
 10
174.503387
 20
-117.237030
 11
201.503387
 21
-117.237030
  0
LINE
  8
0
  6
PHANTOM
 62
     2
 10
201.503387
 20
-19.237030
 11
201.503387
 21
-117.237030
  0
LINE
  8
0
  6
PHANTOM
 62
     2
 10
174.503387
 20
-19.237030
 11
174.503387
 21
-117.237030
  0
LINE
  8
0
  6
PHANTOM
 62
     2
 10
-358.196564
 20
-29.237030
 11
-331.196564
 21
-29.237030
  0
LINE
  8
0
  6
PHANTOM
 62
     2
 10
-358.196564
 20
-127.237030
 11
-331.196564
 21
-127.237030
  0
LINE
  8
0
  6
PHANTOM
 62
     2
 10
-331.196564
 20
-29.237030
 11
-331.196564
 21
-127.237030
  0
LINE
  8
0
  6
PHANTOM
 62
     2
 10
-358.196564
 20
-29.237030
 11
-358.196564
 21
-127.237030
  0
LINE
  8
0
  6
PHANTOM
 62
     2
 10
-91.846588
 20
-29.237030
 11
-64.846588
 21
-29.237030
  0
LINE
  8
0
  6
PHANTOM
 62
     2
 10
-91.846588
 20
-127.237030
 11
-64.846588
 21
-127.237030
  0
LINE
  8
0
  6
PHANTOM
 62
     2
 10
-64.846588
 20
-29.237030
 11
-64.846588
 21
-127.237030
  0
LINE
  8
0
  6
PHANTOM
 62
     2
 10
-91.846588
 20
-29.237030
 11
-91.846588
 21
-127.237030
  0
LINE
  8
0
  6
CENTER
 62
     2
 10
-212.196747
 20
239.262970
 11
-212.196747
 21
137.262970
  0
LINE
  8
0
 10
-220.196564
 20
237.262970
 11
-220.196564
 21
139.262970
  0
LINE
  8
0
 10
-204.196564
 20
237.262970
 11
-204.196564
 21
220.263077
  0
LINE
  8
0
 10
-220.196564
 20
237.262970
 11
-204.196564
 21
237.262970
  0
LINE
  8
0
 10
-220.196564
 20
139.262970
 11
-204.196564
 21
139.262970
  0
LINE
  8
0
 10
-209.296738
 20
135.862976
 11
-217.096741
 21
135.862976
  0
LINE
  8
0
 10
-209.296738
 20
137.062973
 11
-217.096741
 21
137.062973
  0
LINE
  8
0
 10
-215.696747
 20
137.562973
 11
-215.696747
 21
137.062973
  0
LINE
  8
0
 10
-210.696747
 20
137.562973
 11
-210.696747
 21
137.062973
  0
LINE
  8
0
 10
-209.446747
 20
137.562973
 11
-216.946747
 21
137.562973
  0
LINE
  8
0
 10
-218.296738
 20
139.262970
 11
-218.296738
 21
138.562973
  0
LINE
  8
0
 10
-208.096741
 20
139.262970
 11
-208.096741
 21
138.562973
  0
LINE
  8
0
 10
-217.096741
 20
137.062973
 11
-217.096741
 21
135.862976
  0
LINE
  8
0
 10
-209.296738
 20
137.062973
 11
-209.296738
 21
135.862976
  0
LINE
  8
0
 10
-216.946747
 20
137.841278
 11
-216.946747
 21
137.562973
  0
LINE
  8
0
 10
-209.446747
 20
137.841278
 11
-209.446747
 21
137.562973
  0
LINE
  8
0
 10
-208.096756
 20
138.562973
 11
-218.296738
 21
138.562973
  0
LINE
  8
0
 10
-208.096771
 20
138.563004
 11
-209.446777
 21
137.841309
  0
LINE
  8
0
 10
-216.946716
 20
137.841278
 11
-218.296707
 21
138.562958
  0
LINE
  8
0
 10
-209.446747
 20
137.841278
 11
-216.946747
 21
137.841278
  0
LINE
  8
0
  6
CENTER
 62
     2
 10
-213.196747
 20
141.262970
 11
-213.196747
 21
133.862976
  0
LINE
  8
0
 10
-219.696747
 20
226.663071
 11
-219.696747
 21
200.263077
  0
LINE
  8
0
 10
-219.696762
 20
225.663071
 11
-204.696762
 21
225.663071
  0
LINE
  8
0
 10
-219.696747
 20
200.263077
 11
-204.696747
 21
200.263077
  0
LINE
  8
0
 10
-218.522141
 20
200.937683
 11
-205.871338
 21
200.937683
  0
LINE
  8
0
 10
-217.696747
 20
202.063080
 11
-206.696747
 21
202.063080
  0
LINE
  8
0
 10
-217.696747
 20
216.263077
 11
-206.696747
 21
216.263077
  0
LINE
  8
0
 10
-217.696747
 20
223.763077
 11
-206.696747
 21
223.763077
  0
LINE
  8
0
 10
-217.696747
 20
223.763062
 11
-217.696747
 21
216.263062
  0
LINE
  8
0
 10
-206.696747
 20
223.763077
 11
-206.696747
 21
216.263077
  0
LINE
  8
0
 10
-208.696747
 20
209.263077
 11
-208.696747
 21
205.263077
  0
LINE
  8
0
 10
-215.696747
 20
209.263062
 11
-215.696747
 21
205.263062
  0
LINE
  8
0
 10
-217.696747
 20
214.563065
 11
-217.696747
 21
202.063080
  0
LINE
  8
0
 10
-206.696747
 20
214.563080
 11
-206.696747
 21
202.063080
  0
LINE
  8
0
 10
-217.696747
 20
214.563080
 11
-206.696747
 21
214.563080
  0
LINE
  8
0
 10
-215.696747
 20
205.263077
 11
-208.696747
 21
205.263077
  0
LINE
  8
0
 10
-215.696747
 20
209.263077
 11
-208.696747
 21
209.263077
  0
LINE
  8
0
 10
-219.696762
 20
226.663071
 11
-204.696762
 21
226.663071
  0
LINE
  8
0
 10
-218.419388
 20
228.663071
 11
-205.974152
 21
228.663071
  0
LINE
  8
0
 10
-219.022125
 20
225.463074
 11
-219.022125
 21
201.437683
  0
LINE
  8
0
 10
-205.371338
 20
225.463074
 11
-205.371338
 21
201.437683
  0
LINE
  8
0
 10
-219.696609
 20
226.662964
 11
-218.682083
 21
228.507553
  0
LINE
  8
0
 10
-205.711166
 20
228.507660
 11
-204.696655
 21
226.663086
  0
LINE
  8
0
 10
-204.696732
 20
187.763077
 11
-219.696732
 21
187.763077
  0
LINE
  8
0
 10
-204.696716
 20
157.763077
 11
-219.696716
 21
157.763077
  0
LINE
  8
0
 10
-204.696732
 20
177.763077
 11
-219.696732
 21
177.763077
  0
LINE
  8
0
 10
-219.696747
 20
147.763077
 11
-204.696747
 21
147.763077
  0
LINE
  8
0
 10
-219.696762
 20
225.463074
 11
-204.696762
 21
225.463074
  0
LINE
  8
0
  6
CENTER
 62
     2
 10
-214.696732
 20
196.763077
 11
-209.696732
 21
196.763077
  0
LINE
  8
0
 10
-204.696747
 20
147.763092
 11
-204.696747
 21
200.263077
  0
LINE
  8
0
 10
-219.696686
 20
157.763092
 11
-219.346680
 21
147.763077
  0
LINE
  8
0
 10
-204.696640
 20
157.763092
 11
-205.046631
 21
147.763046
  0
LINE
  8
0
 10
-219.696747
 20
200.263077
 11
-219.696747
 21
147.763077
  0
LINE
  8
0
 10
-204.696747
 20
200.263077
 11
-204.696747
 21
226.663071
  0
LINE
  8
0
 62
     4
 10
-188.196564
 20
237.262970
 11
-188.196564
 21
139.262970
  0
LINE
  8
0
 62
     4
 10
-204.196564
 20
237.262970
 11
-197.946747
 21
237.262970
  0
LINE
  8
0
 62
     4
 10
-204.196564
 20
139.262970
 11
-188.196564
 21
139.262970
  0
LINE
  8
0
 62
     4
 10
-188.695755
 20
226.762741
 11
-188.697098
 21
147.262756
  0
LINE
  8
0
 62
     4
 10
-203.695755
 20
226.763000
 11
-203.695862
 21
220.263077
  0
LINE
  8
0
 62
     4
 10
-189.195724
 20
227.262741
 11
-195.696732
 21
227.262863
  0
LINE
  8
0
 62
     4
 10
-189.197098
 20
146.762756
 11
-203.197098
 21
146.763000
  0
LINE
  8
0
 62
     4
 10
-203.697098
 20
147.763092
 11
-203.697098
 21
147.263016
  0
LINE
  8
0
 62
     4
 10
-189.696747
 20
147.763092
 11
-189.696747
 21
220.263077
  0
LINE
  8
0
 62
     4
 10
-204.696747
 20
180.263077
 11
-189.696747
 21
180.263077
  0
LINE
  8
0
 62
     4
 10
-204.696747
 20
147.763077
 11
-189.696747
 21
147.763077
  0
LINE
  8
0
 10
-204.196564
 20
147.763077
 11
-204.196564
 21
139.262970
  0
LINE
  8
0
 62
     4
 10
-204.696747
 20
220.263077
 11
-189.696747
 21
220.263077
  0
LINE
  8
0
  6
CENTER
 62
     1
 10
-197.196747
 20
144.585373
 11
-197.196747
 21
241.124954
  0
LINE
  8
0
 62
     4
 10
-203.696716
 20
220.263062
 11
-202.696716
 21
222.763062
  0
LINE
  8
0
 62
     4
 10
-202.696747
 20
222.763077
 11
-191.696747
 21
222.763077
  0
LINE
  8
0
 62
     4
 10
-191.696747
 20
222.763062
 11
-190.696732
 21
220.263046
  0
LINE
  8
0
 62
     4
 10
-195.696747
 20
222.763077
 11
-195.696747
 21
227.733887
  0
LINE
  8
0
 62
     4
 10
-198.696747
 20
222.763077
 11
-198.696747
 21
228.262909
  0
LINE
  8
0
 62
     4
 10
-198.696732
 20
227.262909
 11
-203.195724
 21
227.262985
  0
LINE
  8
0
 62
     1
 10
-194.696732
 20
227.557556
 11
-199.696732
 21
228.439270
  0
LINE
  8
0
 62
     1
 10
-194.696747
 20
229.588333
 11
-199.696732
 21
230.470047
  0
LINE
  8
0
 62
     4
 10
-198.696747
 20
230.293777
 11
-198.696747
 21
232.428009
  0
LINE
  8
0
 62
     4
 10
-195.696747
 20
229.764740
 11
-195.696747
 21
232.428009
  0
LINE
  8
0
 62
     4
 10
-198.696747
 20
232.428009
 11
-195.696747
 21
232.428009
  0
LINE
  8
0
 10
-204.696747
 20
157.013077
 11
-204.196747
 21
157.013077
  0
LINE
  8
0
 10
-204.696747
 20
163.513077
 11
-204.196747
 21
163.513077
  0
LINE
  8
0
 10
-204.196747
 20
157.013077
 11
-204.196747
 21
163.513077
  0
LINE
  8
0
 62
     4
 10
-197.946747
 20
240.428009
 11
-196.446747
 21
240.428009
  0
LINE
  8
0
 62
     4
 10
-197.946747
 20
232.428009
 11
-197.946747
 21
240.428009
  0
LINE
  8
0
 62
     4
 10
-196.946747
 20
232.428009
 11
-196.946747
 21
240.428009
  0
LINE
  8
0
 62
     4
 10
-197.446747
 20
232.428009
 11
-197.446747
 21
240.428009
  0
LINE
  8
0
 62
     4
 10
-196.446747
 20
232.428009
 11
-196.446747
 21
240.428009
  0
LINE
  8
0
 62
     4
 10
-196.446747
 20
237.262970
 11
-188.196564
 21
237.262970
  0
LINE
  8
0
 10
-319.196564
 20
183.263016
 11
-295.196075
 21
183.263016
  0
LINE
  8
0
  6
CENTER
 62
     2
 10
-307.196320
 20
231.263351
 11
-307.196320
 21
145.501770
  0
LINE
  8
0
 10
-319.196564
 20
200.263123
 11
-319.196564
 21
147.762741
  0
LINE
  8
0
 10
-319.196564
 20
147.762741
 11
-295.196075
 21
147.762741
  0
LINE
  8
0
 62
     4
 10
-317.196564
 20
147.762741
 11
-317.196564
 21
146.762970
  0
LINE
  8
0
 10
-319.696320
 20
200.263123
 11
-295.196320
 21
200.263123
  0
LINE
  8
0
 10
-295.196381
 20
200.263168
 11
-294.696381
 21
200.763184
  0
LINE
  8
0
 10
-294.696320
 20
200.763184
 11
-290.178864
 21
200.920929
  0
LINE
  8
0
 10
-294.696320
 20
200.763138
 11
-294.696320
 21
226.663132
  0
LINE
  8
0
 10
-319.696320
 20
226.663132
 11
-289.696320
 21
226.663132
  0
LINE
  8
0
 10
-318.696228
 20
228.663132
 11
-296.196320
 21
228.663132
  0
LINE
  8
0
 10
-295.196350
 20
226.663162
 11
-296.196350
 21
228.663147
  0
LINE
  8
0
 10
-319.696320
 20
226.663132
 11
-319.696320
 21
200.263123
  0
LINE
  8
0
 10
-289.696320
 20
226.663132
 11
-289.696320
 21
201.420578
  0
LINE
  8
0
 10
-295.196320
 20
226.663132
 11
-295.196320
 21
200.263138
  0
LINE
  8
0
  6
CENTER
 62
     2
 10
-327.696564
 20
141.262970
 11
-327.696564
 21
133.862976
  0
LINE
  8
0
 10
-322.796539
 20
135.862976
 11
-332.596558
 21
135.862976
  0
LINE
  8
0
 10
-322.796570
 20
137.062973
 11
-322.796570
 21
135.862976
  0
LINE
  8
0
 10
-332.596558
 20
137.062973
 11
-332.596558
 21
135.862976
  0
LINE
  8
0
 10
-322.796539
 20
137.062973
 11
-332.596558
 21
137.062973
  0
LINE
  8
0
 10
-330.196564
 20
137.562973
 11
-330.196564
 21
137.062973
  0
LINE
  8
0
 10
-325.196564
 20
137.562973
 11
-325.196564
 21
137.062973
  0
LINE
  8
0
 10
-323.946564
 20
137.562973
 11
-331.446564
 21
137.562973
  0
LINE
  8
0
 10
-332.796570
 20
139.262970
 11
-332.796570
 21
138.562973
  0
LINE
  8
0
 10
-322.596558
 20
139.262970
 11
-322.596558
 21
138.562973
  0
LINE
  8
0
 10
-322.596558
 20
138.562973
 11
-332.796570
 21
138.562973
  0
LINE
  8
0
 10
-331.446564
 20
137.841278
 11
-331.446564
 21
137.562973
  0
LINE
  8
0
 10
-323.946564
 20
137.841278
 11
-323.946564
 21
137.562973
  0
LINE
  8
0
 10
-322.596527
 20
138.562943
 11
-323.946503
 21
137.841248
  0
LINE
  8
0
 10
-331.446594
 20
137.841385
 11
-332.796570
 21
138.563065
  0
LINE
  8
0
 10
-323.946564
 20
137.841278
 11
-331.446564
 21
137.841278
  0
LINE
  8
0
 10
-293.846863
 20
147.762741
 11
-270.545319
 21
147.762741
  0
LINE
  8
0
 62
     4
 10
-294.196075
 20
200.780640
 11
-294.196075
 21
187.762726
  0
LINE
  8
0
 10
-270.196075
 20
187.762726
 11
-270.196075
 21
157.762863
  0
LINE
  8
0
 10
-294.196106
 20
157.762741
 11
-270.196106
 21
157.762741
  0
LINE
  8
0
 10
-294.196228
 20
177.762741
 11
-270.196228
 21
177.762741
  0
LINE
  8
0
 10
-294.196320
 20
187.762726
 11
-270.196075
 21
187.762726
  0
LINE
  8
0
 10
-295.196075
 20
200.263123
 11
-295.196075
 21
147.762741
  0
LINE
  8
0
 10
-294.196075
 20
157.762772
 11
-293.846893
 21
147.762741
  0
LINE
  8
0
 10
-270.196106
 20
157.762848
 11
-270.545319
 21
147.762741
  0
LINE
  8
0
 62
     4
 10
-294.196075
 20
157.762741
 11
-294.196075
 21
147.762741
  0
LINE
  8
0
  6
CENTER
 62
     1
 10
-310.196075
 20
241.903320
 11
-310.196075
 21
227.591629
  0
LINE
  8
0
 62
     4
 10
-311.696075
 20
228.663132
 11
-311.696075
 21
232.427658
  0
LINE
  8
0
 62
     4
 10
-308.696075
 20
228.663132
 11
-308.696075
 21
232.427658
  0
LINE
  8
0
 62
     4
 10
-311.696075
 20
232.427658
 11
-308.696075
 21
232.427658
  0
LINE
  8
0
 62
     4
 10
-310.446075
 20
232.427658
 11
-310.446075
 21
240.427658
  0
LINE
  8
0
 62
     4
 10
-310.946075
 20
232.427658
 11
-310.946075
 21
240.427658
  0
LINE
  8
0
 62
     4
 10
-309.946075
 20
232.427658
 11
-309.946075
 21
240.427658
  0
LINE
  8
0
 62
     4
 10
-309.446075
 20
232.427658
 11
-309.446075
 21
240.427658
  0
LINE
  8
0
 62
     4
 10
-310.946075
 20
240.427658
 11
-309.446075
 21
240.427658
  0
LINE
  8
0
 10
-320.196594
 20
195.763214
 11
-319.196564
 21
195.763214
  0
LINE
  8
0
 10
-320.196564
 20
155.262726
 11
-319.196564
 21
155.262726
  0
LINE
  8
0
 10
-319.696320
 20
225.663132
 11
-289.696320
 21
225.663132
  0
LINE
  8
0
 10
-289.696320
 20
225.463135
 11
-319.696320
 21
225.463135
  0
LINE
  8
0
 10
-294.196320
 20
187.762726
 11
-294.196320
 21
157.762741
  0
LINE
  8
0
 10
-294.196228
 20
177.762436
 11
-295.196228
 21
177.762436
  0
LINE
  8
0
 10
-294.196167
 20
157.762436
 11
-295.196167
 21
157.762436
  0
LINE
  8
0
 62
     4
 10
-295.196075
 20
147.762741
 11
-294.196075
 21
147.762741
  0
LINE
  8
0
 62
     4
 10
-319.196564
 20
147.762741
 11
-319.196564
 21
146.762970
  0
LINE
  8
0
 62
     4
 10
-317.196564
 20
146.762970
 11
-319.196564
 21
146.762970
  0
LINE
  8
0
 10
-319.696320
 20
226.663132
 11
-318.696289
 21
228.663162
  0
LINE
  8
0
 10
-220.196564
 20
32.262966
 11
-220.196564
 21
59.262970
  0
LINE
  8
0
 10
-204.196564
 20
32.262966
 11
-204.196564
 21
59.262970
  0
LINE
  8
0
 10
-220.196564
 20
32.262966
 11
-204.196564
 21
32.262966
  0
LINE
  8
0
  6
CENTER
 62
     2
 10
-212.196564
 20
110.219780
 11
-212.196564
 21
30.762970
  0
LINE
  8
0
 10
-204.196564
 20
59.262970
 11
-220.196564
 21
59.262970
  0
LINE
  8
0
 10
-219.696564
 20
60.262970
 11
-219.696564
 21
84.262962
  0
LINE
  8
0
 10
-204.696564
 20
60.262970
 11
-204.696564
 21
84.262947
  0
LINE
  8
0
 10
-219.696518
 20
84.262924
 11
-219.496506
 21
84.462936
  0
LINE
  8
0
 10
-204.896515
 20
84.462929
 11
-204.696533
 21
84.262939
  0
LINE
  8
0
 10
-204.696564
 20
109.062981
 11
-204.696564
 21
85.262993
  0
LINE
  8
0
 10
-219.696564
 20
109.062981
 11
-219.696564
 21
85.262993
  0
LINE
  8
0
 10
-204.896545
 20
109.262993
 11
-219.496552
 21
109.262993
  0
LINE
  8
0
  6
CENTER
 62
     2
 10
-209.196548
 20
97.262993
 11
-215.196548
 21
97.262993
  0
LINE
  8
0
  6
CENTER
 62
     2
 10
-218.696548
 20
75.262962
 11
-205.696548
 21
75.262962
  0
LINE
  8
0
 10
-217.814606
 20
74.662956
 11
-206.578491
 21
74.662956
  0
LINE
  8
0
 10
-217.814606
 20
75.862968
 11
-206.578491
 21
75.862968
  0
LINE
  8
0
 62
     4
 10
-188.196564
 20
59.262970
 11
-204.196564
 21
59.262970
  0
LINE
  8
0
 62
     4
 10
-188.196564
 20
32.262966
 11
-188.196564
 21
59.262970
  0
LINE
  8
0
 62
     4
 10
-204.196564
 20
32.262966
 11
-188.196564
 21
32.262966
  0
LINE
  8
0
  6
CENTER
 62
     1
 10
-196.196564
 20
65.962959
 11
-196.196564
 21
30.762962
  0
LINE
  8
0
 62
     4
 10
-188.446548
 20
63.562965
 11
-192.946548
 21
63.562965
  0
LINE
  8
0
 62
     4
 10
-188.446564
 20
64.256706
 11
-188.446564
 21
62.962959
  0
LINE
  8
0
 62
     4
 10
-192.946564
 20
64.256706
 11
-192.946564
 21
62.962959
  0
LINE
  8
0
 62
     4
 10
-188.446548
 20
62.962959
 11
-203.946548
 21
62.962959
  0
LINE
  8
0
 62
     4
 10
-188.696564
 20
62.962959
 11
-188.696564
 21
60.262962
  0
LINE
  8
0
 62
     4
 10
-203.696564
 20
62.962959
 11
-203.696564
 21
60.262962
  0
LINE
  8
0
 62
     4
 10
-188.696548
 20
60.962971
 11
-203.696548
 21
60.962971
  0
LINE
  8
0
 62
     4
 10
-203.946564
 20
64.256706
 11
-203.946564
 21
62.962959
  0
LINE
  8
0
 62
     4
 10
-199.446564
 20
64.256706
 11
-199.446564
 21
62.962959
  0
LINE
  8
0
 62
     4
 10
-199.446548
 20
63.562965
 11
-203.946548
 21
63.562965
  0
LINE
  8
0
 62
     4
 10
-204.496552
 20
85.262993
 11
-189.896561
 21
85.262993
  0
LINE
  8
0
 62
     4
 10
-189.696564
 20
65.262993
 11
-189.696564
 21
85.062981
  0
LINE
  8
0
 62
     4
 10
-204.696564
 20
65.262993
 11
-189.696564
 21
65.262993
  0
LINE
  8
0
 62
     4
 10
-204.696564
 20
85.063011
 11
-204.496567
 21
85.263008
  0
LINE
  8
0
 62
     4
 10
-189.896545
 20
85.262978
 11
-189.696548
 21
85.062981
  0
LINE
  8
0
  6
CENTER
 62
     2
 10
-213.196564
 20
57.429512
 11
-213.196564
 21
45.959946
  0
LINE
  8
0
  6
CENTER
 62
     2
 10
-211.196564
 20
45.423073
 11
-211.196564
 21
34.148735
  0
LINE
  8
0
  6
CENTER
 62
     2
 10
-207.473572
 20
51.762966
 11
-219.089554
 21
51.762966
  0
LINE
  8
0
  6
CENTER
 62
     2
 10
-205.521301
 20
39.762966
 11
-217.137283
 21
39.762966
  0
LINE
  8
0
 10
-215.696564
 20
57.262970
 11
-215.696564
 21
56.773941
  0
LINE
  8
0
 10
-210.696564
 20
57.262970
 11
-210.696564
 21
56.773952
  0
LINE
  8
0
 10
-208.696564
 20
45.262970
 11
-208.696564
 21
44.208191
  0
LINE
  8
0
 10
-213.696564
 20
45.262970
 11
-213.696564
 21
44.208191
  0
LINE
  8
0
 10
-208.696548
 20
45.262966
 11
-213.696548
 21
45.262966
  0
LINE
  8
0
 10
-210.696548
 20
57.262970
 11
-212.143036
 21
57.262970
  0
LINE
  8
0
 10
-209.296555
 20
52.762970
 11
-209.296555
 21
50.762970
  0
LINE
  8
0
 10
-217.096558
 20
52.762970
 11
-217.096558
 21
50.762970
  0
LINE
  8
0
 10
-214.250061
 20
57.262970
 11
-215.696548
 21
57.262970
  0
LINE
  8
0
 10
-204.696564
 20
85.262993
 11
-219.696564
 21
85.262993
  0
LINE
  8
0
 10
-219.496552
 20
85.262993
 11
-219.496552
 21
84.262993
  0
LINE
  8
0
 10
-204.896545
 20
84.262993
 11
-219.496552
 21
84.262993
  0
LINE
  8
0
 10
-204.896545
 20
85.262993
 11
-204.896545
 21
84.262993
  0
LINE
  8
0
 10
-219.196548
 20
60.262962
 11
-219.196548
 21
59.262962
  0
LINE
  8
0
 10
-219.196548
 20
60.262962
 11
-205.196548
 21
60.262962
  0
LINE
  8
0
 10
-205.196548
 20
59.262962
 11
-205.196548
 21
60.262962
  0
LINE
  8
0
 62
     4
 10
-203.196548
 20
60.262962
 11
-203.196548
 21
59.262962
  0
LINE
  8
0
 62
     4
 10
-188.696564
 20
60.262962
 11
-203.696564
 21
60.262962
  0
LINE
  8
0
 62
     4
 10
-189.196548
 20
60.262962
 11
-189.196548
 21
59.262962
  0
LINE
  8
0
 62
     4
 10
-204.696564
 20
84.262947
 11
-204.696564
 21
85.062981
  0
LINE
  8
0
  6
CENTER
 62
     2
 10
52.549797
 20
133.762970
 11
64.349800
 21
133.762970
  0
LINE
  8
0
  6
CENTER
 62
     2
 10
58.449791
 20
141.262970
 11
58.449791
 21
127.762970
  0
LINE
  8
0
 10
52.299789
 20
139.262970
 11
52.299789
 21
138.462982
  0
LINE
  8
0
 10
64.299805
 20
138.462997
 11
63.399796
 21
137.462997
  0
LINE
  8
0
 10
53.199810
 20
137.462982
 11
52.299809
 21
138.462982
  0
LINE
  8
0
 10
54.549797
 20
132.762970
 11
54.549797
 21
134.762970
  0
LINE
  8
0
 10
62.349800
 20
132.762970
 11
62.349800
 21
134.762970
  0
LINE
  8
0
 10
53.199799
 20
137.462967
 11
55.635544
 21
137.462967
  0
LINE
  8
0
 10
64.299789
 20
138.462982
 11
64.299789
 21
139.262970
  0
LINE
  8
0
 10
64.299789
 20
138.462982
 11
59.682671
 21
138.462982
  0
LINE
  8
0
 10
54.449791
 20
137.462967
 11
54.449791
 21
136.462967
  0
LINE
  8
0
 10
62.449791
 20
137.462967
 11
62.449791
 21
136.462967
  0
LINE
  8
0
 10
54.449799
 20
136.462967
 11
54.939812
 21
136.462967
  0
LINE
  8
0
 10
62.055931
 20
136.248138
 11
62.449787
 21
136.462967
  0
LINE
  8
0
 10
54.843643
 20
136.248138
 11
54.449787
 21
136.462967
  0
LINE
  8
0
 10
61.959785
 20
136.462967
 11
62.449799
 21
136.462967
  0
LINE
  8
0
 10
61.264053
 20
137.462967
 11
63.399796
 21
137.462967
  0
LINE
  8
0
 10
57.216927
 20
138.462982
 11
52.299797
 21
138.462982
  0
LINE
  8
0
  6
CENTER
 62
     2
 10
59.449791
 20
239.262970
 11
59.449791
 21
137.262970
  0
LINE
  8
0
 10
51.449966
 20
237.262970
 11
51.449966
 21
139.262970
  0
LINE
  8
0
 10
67.449966
 20
237.262970
 11
67.449966
 21
220.263077
  0
LINE
  8
0
 10
51.449966
 20
237.262970
 11
67.449966
 21
237.262970
  0
LINE
  8
0
 10
51.449966
 20
139.262970
 11
67.449966
 21
139.262970
  0
LINE
  8
0
 10
51.949791
 20
226.663071
 11
51.949791
 21
200.263077
  0
LINE
  8
0
 10
51.949776
 20
225.663071
 11
66.949776
 21
225.663071
  0
LINE
  8
0
 10
51.949791
 20
200.263077
 11
66.949791
 21
200.263077
  0
LINE
  8
0
 10
53.124397
 20
200.937683
 11
65.775185
 21
200.937683
  0
LINE
  8
0
 10
53.949791
 20
202.063080
 11
64.949791
 21
202.063080
  0
LINE
  8
0
 10
53.949780
 20
216.263077
 11
64.949783
 21
216.263077
  0
LINE
  8
0
 10
53.949776
 20
223.763077
 11
64.949776
 21
223.763077
  0
LINE
  8
0
 10
53.949791
 20
223.763062
 11
53.949791
 21
216.263062
  0
LINE
  8
0
 10
64.949791
 20
223.763077
 11
64.949791
 21
216.263077
  0
LINE
  8
0
 10
62.949791
 20
209.263077
 11
62.949791
 21
205.263077
  0
LINE
  8
0
 10
55.949791
 20
209.263062
 11
55.949791
 21
205.263062
  0
LINE
  8
0
 10
53.949791
 20
214.563065
 11
53.949791
 21
202.063080
  0
LINE
  8
0
 10
64.949791
 20
214.563080
 11
64.949791
 21
202.063080
  0
LINE
  8
0
 10
53.949783
 20
214.563080
 11
64.949783
 21
214.563080
  0
LINE
  8
0
 10
55.949787
 20
205.263077
 11
62.949787
 21
205.263077
  0
LINE
  8
0
 10
55.949783
 20
209.263077
 11
62.949783
 21
209.263077
  0
LINE
  8
0
 10
51.949776
 20
226.663071
 11
66.949776
 21
226.663071
  0
LINE
  8
0
 10
53.049820
 20
228.663071
 11
65.849861
 21
228.663071
  0
LINE
  8
0
 10
52.624397
 20
225.463074
 11
52.624397
 21
201.437683
  0
LINE
  8
0
 10
66.275185
 20
225.463074
 11
66.275185
 21
201.437683
  0
LINE
  8
0
 10
51.949848
 20
226.663010
 11
53.049858
 21
228.663025
  0
LINE
  8
0
 10
65.849785
 20
228.662994
 11
66.949760
 21
226.663040
  0
LINE
  8
0
 10
66.949799
 20
187.763077
 11
51.949799
 21
187.763077
  0
LINE
  8
0
 10
66.949814
 20
157.763077
 11
51.949818
 21
157.763077
  0
LINE
  8
0
 10
66.949806
 20
177.763077
 11
51.949806
 21
177.763077
  0
LINE
  8
0
 10
51.949791
 20
147.763077
 11
66.949791
 21
147.763077
  0
LINE
  8
0
 10
51.949776
 20
225.463074
 11
66.949776
 21
225.463074
  0
LINE
  8
0
  6
CENTER
 62
     2
 10
56.949791
 20
196.763077
 11
61.949791
 21
196.763077
  0
LINE
  8
0
 10
66.949791
 20
147.763077
 11
66.949791
 21
200.263077
  0
LINE
  8
0
 10
51.949833
 20
157.763107
 11
52.299835
 21
147.763107
  0
LINE
  8
0
 10
66.949806
 20
157.763107
 11
66.599808
 21
147.763062
  0
LINE
  8
0
 10
51.949791
 20
200.263077
 11
51.949791
 21
147.763077
  0
LINE
  8
0
 10
66.949791
 20
200.263077
 11
66.949791
 21
226.663071
  0
LINE
  8
0
 62
     4
 10
83.449966
 20
237.262970
 11
83.449966
 21
139.262970
  0
LINE
  8
0
 62
     4
 10
67.449966
 20
237.262970
 11
83.449966
 21
237.262970
  0
LINE
  8
0
 62
     4
 10
67.449966
 20
139.262970
 11
83.449966
 21
139.262970
  0
LINE
  8
0
 62
     4
 10
82.950783
 20
226.762741
 11
82.949440
 21
147.262756
  0
LINE
  8
0
 62
     4
 10
67.950783
 20
226.763000
 11
67.950676
 21
220.263077
  0
LINE
  8
0
 62
     4
 10
82.450798
 20
227.262741
 11
75.949791
 21
227.262863
  0
LINE
  8
0
 62
     4
 10
82.449425
 20
146.762756
 11
68.449425
 21
146.763000
  0
LINE
  8
0
 62
     4
 10
67.949448
 20
147.763092
 11
67.949440
 21
147.263016
  0
LINE
  8
0
 62
     4
 10
81.949783
 20
147.763092
 11
81.949783
 21
220.263077
  0
LINE
  8
0
 62
     4
 10
66.949791
 20
180.263077
 11
81.949783
 21
180.263077
  0
LINE
  8
0
 62
     4
 10
66.949791
 20
147.763077
 11
81.949783
 21
147.763077
  0
LINE
  8
0
 10
67.449966
 20
147.763077
 11
67.449966
 21
139.262970
  0
LINE
  8
0
 62
     4
 10
66.949791
 20
220.263077
 11
81.949783
 21
220.263077
  0
LINE
  8
0
  6
CENTER
 62
     1
 10
74.449783
 20
144.585373
 11
74.449783
 21
236.762970
  0
LINE
  8
0
 62
     4
 10
67.949791
 20
220.263077
 11
68.949791
 21
222.763077
  0
LINE
  8
0
 62
     4
 10
68.949783
 20
222.763077
 11
79.949783
 21
222.763077
  0
LINE
  8
0
 62
     4
 10
79.949776
 20
222.763062
 11
80.949776
 21
220.263062
  0
LINE
  8
0
 62
     4
 10
75.949783
 20
222.763077
 11
75.949783
 21
227.733887
  0
LINE
  8
0
 62
     4
 10
72.949783
 20
222.763077
 11
72.949783
 21
228.262909
  0
LINE
  8
0
 62
     4
 10
72.949791
 20
227.262909
 11
68.450798
 21
227.262985
  0
LINE
  8
0
 62
     1
 10
76.949776
 20
227.557541
 11
71.949783
 21
228.439270
  0
LINE
  8
0
 62
     1
 10
76.949768
 20
229.588348
 11
71.949783
 21
230.470062
  0
LINE
  8
0
 62
     4
 10
72.949783
 20
230.293777
 11
72.949783
 21
232.428009
  0
LINE
  8
0
 62
     4
 10
75.949783
 20
229.764740
 11
75.949783
 21
232.428009
  0
LINE
  8
0
 62
     4
 10
72.949783
 20
232.428009
 11
75.949783
 21
232.428009
  0
LINE
  8
0
 62
     4
 10
74.949783
 20
232.428009
 11
74.949783
 21
235.428009
  0
LINE
  8
0
 62
     4
 10
73.949783
 20
232.428009
 11
73.949783
 21
235.428009
  0
LINE
  8
0
 62
     4
 10
73.949783
 20
235.428009
 11
74.949783
 21
235.428009
  0
LINE
  8
0
 10
66.949791
 20
157.013077
 11
67.449791
 21
157.013077
  0
LINE
  8
0
 10
66.949791
 20
163.513077
 11
67.449791
 21
163.513077
  0
LINE
  8
0
 10
67.449791
 20
157.013077
 11
67.449791
 21
163.513077
  0
LINE
  8
0
  6
CENTER
 62
     2
 10
-63.400024
 20
141.262970
 11
-63.400024
 21
127.762970
  0
LINE
  8
0
 10
-69.550018
 20
139.262970
 11
-69.550018
 21
138.462952
  0
LINE
  8
0
 10
-57.550022
 20
138.462997
 11
-58.450027
 21
137.462997
  0
LINE
  8
0
 10
-68.650047
 20
137.462967
 11
-69.550072
 21
138.462997
  0
LINE
  8
0
 10
-68.650017
 20
137.462967
 11
-58.450020
 21
137.462967
  0
LINE
  8
0
 10
-57.550026
 20
138.462982
 11
-57.550026
 21
139.262970
  0
LINE
  8
0
 10
-57.550018
 20
138.462982
 11
-69.550049
 21
138.462982
  0
LINE
  8
0
 10
-50.000015
 20
131.262970
 11
-49.400009
 21
131.262970
  0
LINE
  8
0
 10
-49.400009
 20
138.662979
 11
-48.200012
 21
138.662979
  0
LINE
  8
0
 10
-49.400009
 20
128.862976
 11
-48.200012
 21
128.862976
  0
LINE
  8
0
 10
-67.400024
 20
137.462967
 11
-67.400024
 21
132.862976
  0
LINE
  8
0
 10
-59.400024
 20
137.462967
 11
-59.400024
 21
136.462967
  0
LINE
  8
0
 10
-67.400017
 20
136.462967
 11
-59.400017
 21
136.462967
  0
LINE
  8
0
 10
-60.500000
 20
135.862961
 11
-59.400009
 21
136.462967
  0
LINE
  8
0
 10
-66.300018
 20
135.862991
 11
-67.400009
 21
136.462997
  0
LINE
  8
0
 10
-66.300018
 20
135.862976
 11
-66.300018
 21
132.862976
  0
LINE
  8
0
  6
CENTER
 62
     2
 10
-69.400017
 20
133.762970
 11
-46.200012
 21
133.762970
  0
LINE
  8
0
 10
-64.300018
 20
129.762970
 11
-50.800018
 21
129.762970
  0
LINE
  8
0
 10
-57.700020
 20
137.762970
 11
-50.800018
 21
137.762970
  0
LINE
  8
0
 10
-60.500000
 20
135.862976
 11
-66.300018
 21
135.862976
  0
LINE
  8
0
 10
-59.400017
 20
136.662979
 11
-58.200027
 21
136.662979
  0
LINE
  8
0
 10
-64.300018
 20
130.862976
 11
-58.200020
 21
130.862976
  0
LINE
  8
0
 10
-58.200027
 20
136.662979
 11
-58.200027
 21
130.862976
  0
LINE
  8
0
 10
-57.700027
 20
137.762970
 11
-57.700027
 21
129.762970
  0
LINE
  8
0
 10
-50.800018
 20
137.762970
 11
-50.800018
 21
129.762970
  0
LINE
  8
0
 10
-50.000015
 20
137.662979
 11
-50.000015
 21
129.862976
  0
LINE
  8
0
 10
-48.200012
 20
138.662979
 11
-48.200012
 21
128.862976
  0
LINE
  8
0
 10
-49.400009
 20
138.662979
 11
-49.400009
 21
128.862976
  0
LINE
  8
0
 10
-58.200008
 20
130.862946
 11
-57.700008
 21
129.762955
  0
LINE
  8
0
 10
-58.200054
 20
136.662994
 11
-57.700047
 21
137.763000
  0
LINE
  8
0
 10
-50.800018
 20
129.862976
 11
-50.000015
 21
129.862976
  0
LINE
  8
0
 10
-50.800018
 20
137.662979
 11
-50.000015
 21
137.662979
  0
LINE
  8
0
 10
-50.000015
 20
136.262970
 11
-49.400009
 21
136.262970
  0
LINE
  8
0
 62
     4
 10
-52.900009
 20
147.762741
 11
-52.900009
 21
146.762970
  0
LINE
  8
0
 10
-54.900024
 20
183.263016
 11
-30.899525
 21
183.263016
  0
LINE
  8
0
  6
CENTER
 62
     2
 10
-42.899765
 20
231.263351
 11
-42.899765
 21
145.501770
  0
LINE
  8
0
 10
-54.900009
 20
155.262787
 11
-54.900009
 21
149.762650
  0
LINE
  8
0
 10
-54.900009
 20
200.263123
 11
-54.900009
 21
147.762741
  0
LINE
  8
0
 10
-54.900009
 20
147.762741
 11
-30.899525
 21
147.762741
  0
LINE
  8
0
 10
-55.399765
 20
200.263123
 11
-30.899769
 21
200.263123
  0
LINE
  8
0
 10
-30.899801
 20
200.263138
 11
-30.399801
 21
200.763138
  0
LINE
  8
0
 10
-30.399775
 20
200.763199
 11
-25.882341
 21
200.920944
  0
LINE
  8
0
 10
-30.399769
 20
200.763123
 11
-30.399769
 21
226.663132
  0
LINE
  8
0
 10
-55.399773
 20
226.663132
 11
-25.399773
 21
226.663132
  0
LINE
  8
0
 10
-54.399727
 20
228.663132
 11
-31.899773
 21
228.663132
  0
LINE
  8
0
 10
-55.399792
 20
226.663132
 11
-54.399780
 21
228.663162
  0
LINE
  8
0
 10
-30.899786
 20
226.663132
 11
-31.899788
 21
228.663132
  0
LINE
  8
0
 10
-55.399765
 20
226.663132
 11
-55.399765
 21
200.263123
  0
LINE
  8
0
 10
-25.399769
 20
226.663132
 11
-25.399769
 21
201.420578
  0
LINE
  8
0
 10
-30.899769
 20
226.663132
 11
-30.899769
 21
200.263123
  0
LINE
  8
0
 10
-29.550346
 20
147.762741
 11
-6.248745
 21
147.762741
  0
LINE
  8
0
 10
-5.899525
 20
187.762726
 11
-5.899525
 21
157.762848
  0
LINE
  8
0
 10
-29.899582
 20
157.762741
 11
-5.899570
 21
157.762741
  0
LINE
  8
0
 10
-29.899677
 20
177.762741
 11
-5.899677
 21
177.762741
  0
LINE
  8
0
 10
-29.899761
 20
187.762726
 11
-5.899525
 21
187.762726
  0
LINE
  8
0
 10
-29.899553
 20
157.762756
 11
-29.550344
 21
147.762741
  0
LINE
  8
0
 10
-5.899533
 20
157.762848
 11
-6.248742
 21
147.762741
  0
LINE
  8
0
 62
     4
 10
-45.149521
 20
232.427658
 11
-45.149521
 21
240.427658
  0
LINE
  8
0
 62
     4
 10
-45.649521
 20
232.427658
 11
-45.649521
 21
240.427658
  0
LINE
  8
0
 62
     4
 10
-46.149521
 20
232.427658
 11
-46.149521
 21
240.427658
  0
LINE
  8
0
 62
     4
 10
-46.649521
 20
232.427658
 11
-46.649521
 21
240.427658
  0
LINE
  8
0
  6
CENTER
 62
     1
 10
-45.899521
 20
241.903320
 11
-45.899521
 21
227.591629
  0
LINE
  8
0
 62
     4
 10
-46.649529
 20
240.427658
 11
-45.149529
 21
240.427658
  0
LINE
  8
0
 62
     4
 10
-47.399521
 20
228.663132
 11
-47.399521
 21
232.427658
  0
LINE
  8
0
 62
     4
 10
-47.399529
 20
232.427658
 11
-44.399529
 21
232.427658
  0
LINE
  8
0
 62
     4
 10
-44.399521
 20
228.663132
 11
-44.399521
 21
232.427658
  0
LINE
  8
0
 62
     4
 10
-29.899525
 20
200.780640
 11
-29.899525
 21
187.762726
  0
LINE
  8
0
 62
     4
 10
-29.899525
 20
157.762741
 11
-29.899525
 21
147.762741
  0
LINE
  8
0
 10
-55.900055
 20
195.763214
 11
-54.900024
 21
195.763214
  0
LINE
  8
0
 10
-55.900040
 20
155.262726
 11
-54.900024
 21
155.262726
  0
LINE
  8
0
 10
-55.399765
 20
225.663116
 11
-25.399769
 21
225.663116
  0
LINE
  8
0
 10
-25.399769
 20
225.463120
 11
-55.399765
 21
225.463120
  0
LINE
  8
0
 10
-29.899761
 20
187.762726
 11
-29.899761
 21
157.762756
  0
LINE
  8
0
 10
-30.899761
 20
200.263123
 11
-30.899761
 21
147.762741
  0
LINE
  8
0
 10
-29.899681
 20
177.762421
 11
-30.899681
 21
177.762421
  0
LINE
  8
0
 10
-29.899620
 20
157.762421
 11
-30.899620
 21
157.762421
  0
LINE
  8
0
 62
     4
 10
-30.899525
 20
147.762741
 11
-29.899525
 21
147.762741
  0
LINE
  8
0
 62
     4
 10
-54.900009
 20
147.762741
 11
-54.900009
 21
146.762970
  0
LINE
  8
0
 62
     4
 10
-52.900009
 20
146.762970
 11
-54.900009
 21
146.762970
  0
LINE
  8
0
 10
51.449966
 20
32.262974
 11
51.449966
 21
59.262970
  0
LINE
  8
0
 10
67.449966
 20
32.262974
 11
67.449966
 21
59.262978
  0
LINE
  8
0
 10
51.449966
 20
32.262974
 11
67.449966
 21
32.262974
  0
LINE
  8
0
  6
CENTER
 62
     2
 10
59.449966
 20
110.219788
 11
59.449966
 21
30.762978
  0
LINE
  8
0
 10
51.949966
 20
60.262978
 11
51.949966
 21
84.262970
  0
LINE
  8
0
 10
66.949966
 20
60.262978
 11
66.949966
 21
84.262955
  0
LINE
  8
0
 10
51.949974
 20
84.262955
 11
52.149994
 21
84.462975
  0
LINE
  8
0
 10
66.749939
 20
84.462914
 11
66.949928
 21
84.262924
  0
LINE
  8
0
 10
66.949966
 20
109.062988
 11
66.949966
 21
85.263000
  0
LINE
  8
0
 10
51.949966
 20
109.062988
 11
51.949966
 21
85.263000
  0
LINE
  8
0
 10
66.749977
 20
109.263000
 11
52.149979
 21
109.263000
  0
LINE
  8
0
  6
CENTER
 62
     2
 10
62.449982
 20
97.263000
 11
56.449982
 21
97.263000
  0
LINE
  8
0
  6
CENTER
 62
     2
 10
52.949982
 20
75.262970
 11
65.949982
 21
75.262970
  0
LINE
  8
0
 10
53.831932
 20
74.662964
 11
65.068031
 21
74.662964
  0
LINE
  8
0
 10
53.831932
 20
75.862976
 11
65.068031
 21
75.862976
  0
LINE
  8
0
 62
     4
 10
83.449966
 20
59.262978
 11
67.449966
 21
59.262978
  0
LINE
  8
0
 62
     4
 10
83.449966
 20
32.262974
 11
83.449966
 21
59.262978
  0
LINE
  8
0
 62
     4
 10
67.449966
 20
32.262974
 11
83.449966
 21
32.262974
  0
LINE
  8
0
  6
CENTER
 62
     1
 10
75.449966
 20
65.962967
 11
75.449966
 21
30.762970
  0
LINE
  8
0
 62
     4
 10
83.199982
 20
63.562973
 11
78.699982
 21
63.562973
  0
LINE
  8
0
 62
     4
 10
83.199966
 20
64.256714
 11
83.199966
 21
62.962967
  0
LINE
  8
0
 62
     4
 10
78.699966
 20
64.256714
 11
78.699966
 21
62.962967
  0
LINE
  8
0
 62
     4
 10
83.199982
 20
62.962967
 11
67.699982
 21
62.962967
  0
LINE
  8
0
 62
     4
 10
82.949966
 20
62.962967
 11
82.949966
 21
60.262970
  0
LINE
  8
0
 62
     4
 10
67.949966
 20
62.962967
 11
67.949966
 21
60.262978
  0
LINE
  8
0
 62
     4
 10
82.949982
 20
60.962978
 11
67.949982
 21
60.962978
  0
LINE
  8
0
 62
     4
 10
82.949982
 20
60.262978
 11
67.949966
 21
60.262978
  0
LINE
  8
0
 62
     4
 10
67.699966
 20
64.256714
 11
67.699966
 21
62.962967
  0
LINE
  8
0
 62
     4
 10
72.199966
 20
64.256714
 11
72.199966
 21
62.962967
  0
LINE
  8
0
 62
     4
 10
72.199982
 20
63.562973
 11
67.699982
 21
63.562973
  0
LINE
  8
0
 62
     4
 10
67.149971
 20
85.263000
 11
81.749969
 21
85.263000
  0
LINE
  8
0
 62
     4
 10
81.949966
 20
65.263000
 11
81.949966
 21
85.062988
  0
LINE
  8
0
 62
     4
 10
66.949966
 20
65.263000
 11
81.949966
 21
65.263000
  0
LINE
  8
0
 62
     4
 10
81.749969
 20
85.262985
 11
81.949966
 21
85.062988
  0
LINE
  8
0
 10
57.949970
 20
47.895153
 11
57.949970
 21
57.612968
  0
LINE
  8
0
 10
58.949970
 20
47.895153
 11
58.949970
 21
57.612968
  0
LINE
  8
0
 10
61.849972
 20
57.112968
 11
61.849972
 21
51.762970
  0
LINE
  8
0
 10
55.049969
 20
57.112968
 11
55.049969
 21
51.762970
  0
LINE
  8
0
 10
57.949978
 20
57.112972
 11
55.049976
 21
57.112972
  0
LINE
  8
0
 10
61.849979
 20
57.112972
 11
58.949978
 21
57.112972
  0
LINE
  8
0
 10
62.449978
 20
57.612972
 11
54.449978
 21
57.612972
  0
LINE
  8
0
 10
61.849968
 20
57.112972
 11
62.449966
 21
57.612968
  0
LINE
  8
0
 10
54.449970
 20
57.612972
 11
55.049973
 21
57.112972
  0
LINE
  8
0
 10
62.449970
 20
57.612968
 11
62.449970
 21
59.262970
  0
LINE
  8
0
 10
54.449970
 20
57.612968
 11
54.449970
 21
59.262970
  0
LINE
  8
0
 10
62.449978
 20
64.512970
 11
54.449978
 21
64.512970
  0
LINE
  8
0
 10
54.549969
 20
64.512970
 11
54.549969
 21
65.312958
  0
LINE
  8
0
 10
62.349979
 20
65.312973
 11
54.549976
 21
65.312973
  0
LINE
  8
0
 10
62.349972
 20
64.512970
 11
62.349972
 21
65.312958
  0
LINE
  8
0
 10
60.949970
 20
65.312958
 11
60.949970
 21
65.912964
  0
LINE
  8
0
 10
62.349972
 20
65.912964
 11
54.549969
 21
65.912964
  0
LINE
  8
0
 10
55.949970
 20
65.312958
 11
55.949970
 21
65.912964
  0
LINE
  8
0
 10
54.549969
 20
65.912964
 11
54.549969
 21
67.112961
  0
LINE
  8
0
 10
62.349972
 20
67.112961
 11
54.549969
 21
67.112961
  0
LINE
  8
0
 10
62.349972
 20
65.912964
 11
62.349972
 21
67.112961
  0
LINE
  8
0
 10
62.949978
 20
45.262966
 11
57.949978
 21
45.262966
  0
LINE
  8
0
  6
CENTER
 62
     2
 10
65.449974
 20
51.762974
 11
51.449978
 21
51.762974
  0
LINE
  8
0
 62
     2
 10
60.449978
 20
45.773781
 11
60.449978
 21
33.955688
  0
LINE
  8
0
  6
CENTER
 62
     2
 10
66.231445
 20
39.762966
 11
54.711285
 21
39.762966
  0
LINE
  8
0
 10
62.949978
 20
45.262966
 11
62.949978
 21
44.208187
  0
LINE
  8
0
  6
CENTER
 62
     2
 10
58.449970
 20
44.762970
 11
58.449970
 21
69.112961
  0
LINE
  8
0
 10
57.949978
 20
45.262966
 11
57.949978
 21
44.208187
  0
LINE
  8
0
 10
62.449970
 20
60.262970
 11
62.449970
 21
64.512970
  0
LINE
  8
0
 10
54.449970
 20
60.262970
 11
54.449970
 21
64.512970
  0
LINE
  8
0
 10
52.449982
 20
60.262970
 11
52.449982
 21
59.262970
  0
LINE
  8
0
 10
52.449982
 20
60.262970
 11
54.449974
 21
60.262970
  0
LINE
  8
0
 10
51.449966
 20
59.262970
 11
54.449974
 21
59.262970
  0
LINE
  8
0
 10
54.449974
 20
59.262970
 11
54.449974
 21
60.262970
  0
LINE
  8
0
 10
62.449974
 20
59.262970
 11
62.449974
 21
60.262970
  0
LINE
  8
0
 10
62.449974
 20
60.262970
 11
66.449982
 21
60.262970
  0
LINE
  8
0
 10
62.449974
 20
59.262970
 11
67.449966
 21
59.262970
  0
LINE
  8
0
 10
66.449982
 20
59.262970
 11
66.449982
 21
60.262970
  0
LINE
  8
0
 62
     4
 10
68.449982
 20
60.262970
 11
68.449982
 21
59.262970
  0
LINE
  8
0
 62
     4
 10
82.449982
 20
60.262970
 11
82.449982
 21
59.262970
  0
LINE
  8
0
 10
66.949966
 20
85.263000
 11
51.949966
 21
85.263000
  0
LINE
  8
0
 10
52.149979
 20
85.263000
 11
52.149979
 21
84.263000
  0
LINE
  8
0
 10
66.749985
 20
84.263000
 11
52.149979
 21
84.263000
  0
LINE
  8
0
 10
66.749985
 20
85.263000
 11
66.749985
 21
84.263000
  0
LINE
  8
0
 62
     4
 10
67.149963
 20
85.262985
 11
66.949959
 21
85.062981
  0
LINE
  8
0
 62
     4
 10
66.949966
 20
84.262955
 11
66.949966
 21
85.062996
  0
LINE
  8
0
  6
CENTER
 62
     2
 10
320.503265
 20
239.262970
 11
320.503265
 21
137.262970
  0
LINE
  8
0
 10
312.503448
 20
237.262970
 11
312.503448
 21
138.262970
  0
LINE
  8
0
 10
328.503448
 20
237.262970
 11
328.503448
 21
220.263077
  0
LINE
  8
0
 10
312.503448
 20
237.262970
 11
328.503448
 21
237.262970
  0
LINE
  8
0
 10
312.503448
 20
139.262970
 11
328.503448
 21
139.262970
  0
LINE
  8
0
 10
313.003265
 20
226.663071
 11
313.003265
 21
200.263077
  0
LINE
  8
0
 10
313.003235
 20
225.663071
 11
328.003235
 21
225.663071
  0
LINE
  8
0
 10
313.003265
 20
200.263077
 11
328.003265
 21
200.263077
  0
LINE
  8
0
 10
314.177856
 20
200.937683
 11
326.828674
 21
200.937683
  0
LINE
  8
0
 10
315.003265
 20
202.063080
 11
326.003265
 21
202.063080
  0
LINE
  8
0
 10
315.003265
 20
216.263077
 11
326.003265
 21
216.263077
  0
LINE
  8
0
 10
315.003265
 20
223.763077
 11
326.003265
 21
223.763077
  0
LINE
  8
0
 10
315.003265
 20
223.763062
 11
315.003265
 21
216.263062
  0
LINE
  8
0
 10
326.003265
 20
223.763077
 11
326.003265
 21
216.263077
  0
LINE
  8
0
 10
324.003265
 20
209.263077
 11
324.003265
 21
205.263077
  0
LINE
  8
0
 10
317.003265
 20
209.263062
 11
317.003265
 21
205.263062
  0
LINE
  8
0
 10
315.003265
 20
214.563065
 11
315.003265
 21
202.063080
  0
LINE
  8
0
 10
326.003265
 20
214.563080
 11
326.003265
 21
202.063080
  0
LINE
  8
0
 10
315.003265
 20
214.563080
 11
326.003265
 21
214.563080
  0
LINE
  8
0
 10
317.003265
 20
205.263077
 11
324.003265
 21
205.263077
  0
LINE
  8
0
 10
317.003265
 20
209.263077
 11
324.003265
 21
209.263077
  0
LINE
  8
0
 10
313.003235
 20
226.663071
 11
328.003235
 21
226.663071
  0
LINE
  8
0
 10
314.280640
 20
228.663071
 11
326.725861
 21
228.663071
  0
LINE
  8
0
 10
313.677887
 20
225.463074
 11
313.677887
 21
201.437683
  0
LINE
  8
0
 10
327.328674
 20
225.463074
 11
327.328674
 21
201.437683
  0
LINE
  8
0
 10
313.003296
 20
226.663010
 11
314.017792
 21
228.507599
  0
LINE
  8
0
 10
326.988617
 20
228.507568
 11
328.003143
 21
226.662994
  0
LINE
  8
0
 10
328.003296
 20
187.763077
 11
313.003296
 21
187.763077
  0
LINE
  8
0
 10
328.003296
 20
157.763077
 11
313.003296
 21
157.763077
  0
LINE
  8
0
 10
328.003296
 20
177.763077
 11
313.003296
 21
177.763077
  0
LINE
  8
0
 10
313.003265
 20
147.763077
 11
328.003265
 21
147.763077
  0
LINE
  8
0
 10
313.003235
 20
225.463074
 11
328.003235
 21
225.463074
  0
LINE
  8
0
  6
CENTER
 62
     2
 10
318.003296
 20
196.763077
 11
323.003296
 21
196.763077
  0
LINE
  8
0
 10
328.003265
 20
147.763092
 11
328.003265
 21
200.263077
  0
LINE
  8
0
 10
313.003326
 20
157.763092
 11
313.353333
 21
147.763077
  0
LINE
  8
0
 10
328.003235
 20
157.763107
 11
327.653229
 21
147.763062
  0
LINE
  8
0
 10
313.003265
 20
200.263077
 11
313.003265
 21
147.763077
  0
LINE
  8
0
 10
328.003265
 20
200.263077
 11
328.003265
 21
226.663071
  0
LINE
  8
0
 62
     4
 10
344.503448
 20
237.262970
 11
344.503448
 21
139.262970
  0
LINE
  8
0
 62
     4
 10
328.503448
 20
237.262970
 11
334.753265
 21
237.262970
  0
LINE
  8
0
 62
     4
 10
328.503448
 20
139.262970
 11
344.503448
 21
139.262970
  0
LINE
  8
0
 62
     4
 10
344.004272
 20
226.762726
 11
344.002930
 21
147.262741
  0
LINE
  8
0
 62
     4
 10
329.004272
 20
226.762985
 11
329.004150
 21
220.263062
  0
LINE
  8
0
 62
     4
 10
343.504272
 20
227.262756
 11
337.003265
 21
227.262863
  0
LINE
  8
0
 62
     4
 10
343.502930
 20
146.762756
 11
329.502930
 21
146.763000
  0
LINE
  8
0
 62
     4
 10
329.002930
 20
147.763077
 11
329.002930
 21
147.263000
  0
LINE
  8
0
 62
     4
 10
343.003265
 20
147.763092
 11
343.003265
 21
220.263077
  0
LINE
  8
0
 62
     4
 10
328.003265
 20
180.263077
 11
343.003265
 21
180.263077
  0
LINE
  8
0
 62
     4
 10
328.003265
 20
147.763077
 11
343.003265
 21
147.763077
  0
LINE
  8
0
 10
328.503448
 20
147.763077
 11
328.503448
 21
138.262970
  0
LINE
  8
0
 62
     4
 10
328.003265
 20
220.263077
 11
343.003265
 21
220.263077
  0
LINE
  8
0
  6
CENTER
 62
     1
 10
335.503265
 20
144.585373
 11
335.503265
 21
241.124954
  0
LINE
  8
0
 62
     4
 10
329.003265
 20
220.263077
 11
330.003235
 21
222.763062
  0
LINE
  8
0
 62
     4
 10
330.003265
 20
222.763077
 11
341.003265
 21
222.763077
  0
LINE
  8
0
 62
     4
 10
341.003265
 20
222.763077
 11
342.003265
 21
220.263062
  0
LINE
  8
0
 62
     4
 10
337.003265
 20
222.763077
 11
337.003265
 21
227.733887
  0
LINE
  8
0
 62
     4
 10
334.003265
 20
222.763077
 11
334.003265
 21
228.262909
  0
LINE
  8
0
 62
     4
 10
334.003265
 20
227.262924
 11
329.504272
 21
227.263000
  0
LINE
  8
0
 62
     1
 10
338.003204
 20
227.557510
 11
333.003204
 21
228.439224
  0
LINE
  8
0
 62
     1
 10
338.003204
 20
229.588364
 11
333.003235
 21
230.470078
  0
LINE
  8
0
 62
     4
 10
334.003265
 20
230.293777
 11
334.003265
 21
232.428009
  0
LINE
  8
0
 62
     4
 10
337.003265
 20
229.764740
 11
337.003265
 21
232.428009
  0
LINE
  8
0
 62
     4
 10
334.003265
 20
232.428009
 11
337.003265
 21
232.428009
  0
LINE
  8
0
 10
328.003265
 20
157.013077
 11
328.503265
 21
157.013077
  0
LINE
  8
0
 10
328.003265
 20
163.513077
 11
328.503265
 21
163.513077
  0
LINE
  8
0
 10
328.503265
 20
157.013077
 11
328.503265
 21
163.513077
  0
LINE
  8
0
 62
     4
 10
334.753265
 20
240.428009
 11
336.253265
 21
240.428009
  0
LINE
  8
0
 62
     4
 10
334.753265
 20
232.428009
 11
334.753265
 21
240.428009
  0
LINE
  8
0
 62
     4
 10
335.753265
 20
232.428009
 11
335.753265
 21
240.428009
  0
LINE
  8
0
 62
     4
 10
335.253265
 20
232.428009
 11
335.253265
 21
240.428009
  0
LINE
  8
0
 62
     4
 10
336.253265
 20
232.428009
 11
336.253265
 21
240.428009
  0
LINE
  8
0
 62
     4
 10
336.253265
 20
237.262970
 11
344.503448
 21
237.262970
  0
LINE
  8
0
 10
325.003235
 20
137.262955
 11
325.503235
 21
137.762970
  0
LINE
  8
0
  6
CENTER
 62
     2
 10
319.503265
 20
143.262970
 11
319.503265
 21
135.262970
  0
LINE
  8
0
  6
CENTER
 62
     2
 10
321.503265
 20
143.262970
 11
321.503265
 21
135.262970
  0
LINE
  8
0
 10
313.503265
 20
138.262970
 11
313.503265
 21
137.762970
  0
LINE
  8
0
 10
327.503265
 20
138.262970
 11
327.503265
 21
137.762970
  0
LINE
  8
0
 10
312.503448
 20
138.262970
 11
328.503448
 21
138.262970
  0
LINE
  8
0
 10
314.003265
 20
137.262970
 11
327.003265
 21
137.262970
  0
LINE
  8
0
 10
313.503235
 20
137.762939
 11
314.003235
 21
137.262939
  0
LINE
  8
0
 10
327.003235
 20
137.262939
 11
327.503235
 21
137.762955
  0
LINE
  8
0
 10
325.503265
 20
138.262970
 11
325.503265
 21
137.762970
  0
LINE
  8
0
 62
     4
 10
215.503448
 20
146.762970
 11
213.503448
 21
146.762970
  0
LINE
  8
0
 10
213.503448
 20
183.263016
 11
237.503937
 21
183.263016
  0
LINE
  8
0
  6
CENTER
 62
     2
 10
225.503693
 20
231.263351
 11
225.503693
 21
145.501770
  0
LINE
  8
0
 10
213.503448
 20
200.263123
 11
213.503448
 21
147.762741
  0
LINE
  8
0
 10
213.503448
 20
147.762741
 11
237.503937
 21
147.762741
  0
LINE
  8
0
 10
213.003693
 20
200.263123
 11
237.503693
 21
200.263123
  0
LINE
  8
0
 10
237.503693
 20
200.263168
 11
238.003693
 21
200.763153
  0
LINE
  8
0
 10
238.003693
 20
200.763199
 11
242.521133
 21
200.920944
  0
LINE
  8
0
 10
238.003693
 20
200.763138
 11
238.003693
 21
226.663132
  0
LINE
  8
0
 10
213.003693
 20
226.663132
 11
243.003693
 21
226.663132
  0
LINE
  8
0
 10
214.003784
 20
228.663132
 11
236.503693
 21
228.663132
  0
LINE
  8
0
 10
213.003754
 20
226.663116
 11
214.003784
 21
228.663162
  0
LINE
  8
0
 10
237.503662
 20
226.663132
 11
236.503662
 21
228.663116
  0
LINE
  8
0
 10
213.003693
 20
226.663132
 11
213.003693
 21
200.263123
  0
LINE
  8
0
 10
243.003693
 20
226.663132
 11
243.003693
 21
201.420578
  0
LINE
  8
0
 10
237.503693
 20
226.663132
 11
237.503693
 21
200.263138
  0
LINE
  8
0
 10
238.853149
 20
147.762741
 11
262.154694
 21
147.762741
  0
LINE
  8
0
 62
     4
 10
238.503937
 20
200.780640
 11
238.503937
 21
187.762726
  0
LINE
  8
0
 10
262.503937
 20
187.762726
 11
262.503937
 21
157.762863
  0
LINE
  8
0
 10
238.503906
 20
157.762741
 11
262.503906
 21
157.762741
  0
LINE
  8
0
 10
238.503784
 20
177.762741
 11
262.503784
 21
177.762741
  0
LINE
  8
0
 10
238.503693
 20
187.762726
 11
262.503937
 21
187.762726
  0
LINE
  8
0
 10
237.503937
 20
200.263123
 11
237.503937
 21
147.762741
  0
LINE
  8
0
 10
238.503937
 20
157.762741
 11
238.853134
 21
147.762726
  0
LINE
  8
0
 10
262.503937
 20
157.762833
 11
262.154724
 21
147.762726
  0
LINE
  8
0
 62
     4
 10
238.503937
 20
157.762741
 11
238.503937
 21
147.762741
  0
LINE
  8
0
  6
CENTER
 62
     1
 10
222.503937
 20
241.903320
 11
222.503937
 21
227.591629
  0
LINE
  8
0
 62
     4
 10
221.003937
 20
228.663132
 11
221.003937
 21
232.427658
  0
LINE
  8
0
 62
     4
 10
224.003937
 20
228.663132
 11
224.003937
 21
232.427658
  0
LINE
  8
0
 62
     4
 10
221.003937
 20
232.427658
 11
224.003937
 21
232.427658
  0
LINE
  8
0
 62
     4
 10
222.253937
 20
232.427658
 11
222.253937
 21
240.427658
  0
LINE
  8
0
 62
     4
 10
221.753937
 20
232.427658
 11
221.753937
 21
240.427658
  0
LINE
  8
0
 62
     4
 10
222.753937
 20
232.427658
 11
222.753937
 21
240.427658
  0
LINE
  8
0
 62
     4
 10
223.253937
 20
232.427658
 11
223.253937
 21
240.427658
  0
LINE
  8
0
 62
     4
 10
221.753937
 20
240.427658
 11
223.253937
 21
240.427658
  0
LINE
  8
0
 10
212.503418
 20
195.763214
 11
213.503448
 21
195.763214
  0
LINE
  8
0
 10
212.503448
 20
155.262726
 11
213.503448
 21
155.262726
  0
LINE
  8
0
 10
213.003693
 20
225.663132
 11
243.003693
 21
225.663132
  0
LINE
  8
0
 10
243.003693
 20
225.463135
 11
213.003693
 21
225.463135
  0
LINE
  8
0
 10
238.503693
 20
187.762726
 11
238.503693
 21
157.762741
  0
LINE
  8
0
 10
238.503784
 20
177.762436
 11
237.503784
 21
177.762436
  0
LINE
  8
0
 10
238.503845
 20
157.762436
 11
237.503845
 21
157.762436
  0
LINE
  8
0
 62
     4
 10
215.503448
 20
147.762741
 11
215.503448
 21
146.762970
  0
LINE
  8
0
 62
     4
 10
237.503937
 20
147.762741
 11
238.503937
 21
147.762741
  0
LINE
  8
0
  6
CENTER
 62
     2
 10
193.003448
 20
140.934021
 11
193.003448
 21
135.228058
  0
LINE
  8
0
  6
CENTER
 62
     2
 10
205.003448
 20
140.934021
 11
205.003448
 21
135.228058
  0
LINE
  8
0
 10
187.503448
 20
137.262970
 11
198.503448
 21
137.262970
  0
LINE
  8
0
 10
187.003448
 20
138.262970
 11
187.003448
 21
137.762970
  0
LINE
  8
0
 10
199.003448
 20
138.262970
 11
199.003448
 21
137.762970
  0
LINE
  8
0
 10
211.003448
 20
138.262970
 11
211.003448
 21
137.762970
  0
LINE
  8
0
 10
199.503448
 20
137.262970
 11
210.503448
 21
137.262970
  0
LINE
  8
0
 10
211.003448
 20
137.762970
 11
210.503448
 21
137.262970
  0
LINE
  8
0
 10
199.503448
 20
137.262939
 11
199.003448
 21
137.762939
  0
LINE
  8
0
 10
199.003448
 20
137.762970
 11
198.503448
 21
137.262970
  0
LINE
  8
0
 10
187.003387
 20
137.762909
 11
187.503387
 21
137.262909
  0
LINE
  8
0
 10
185.503448
 20
138.262970
 11
212.503448
 21
138.262970
  0
LINE
  8
0
 10
212.503448
 20
139.262970
 11
212.503448
 21
138.262970
  0
LINE
  8
0
 10
185.503448
 20
139.262970
 11
185.503448
 21
138.262970
  0
LINE
  8
0
 62
     4
 10
213.503448
 20
147.762741
 11
213.503448
 21
146.762970
  0
LINE
  8
0
 10
312.503448
 20
32.262966
 11
312.503448
 21
59.262970
  0
LINE
  8
0
 10
328.503448
 20
32.262966
 11
328.503448
 21
59.262970
  0
LINE
  8
0
 10
312.503448
 20
32.262966
 11
328.503448
 21
32.262966
  0
LINE
  8
0
  6
CENTER
 62
     2
 10
320.503448
 20
110.219780
 11
320.503448
 21
30.762970
  0
LINE
  8
0
 10
328.503448
 20
59.262970
 11
312.503448
 21
59.262970
  0
LINE
  8
0
 10
313.003448
 20
60.262970
 11
313.003448
 21
84.262962
  0
LINE
  8
0
 10
328.003448
 20
60.262970
 11
328.003448
 21
84.262947
  0
LINE
  8
0
 10
313.003387
 20
84.262962
 11
313.203400
 21
84.462959
  0
LINE
  8
0
 10
327.803345
 20
84.462875
 11
328.003326
 21
84.262894
  0
LINE
  8
0
 10
328.003448
 20
109.062981
 11
328.003448
 21
85.262993
  0
LINE
  8
0
 10
313.003448
 20
109.062981
 11
313.003448
 21
85.262993
  0
LINE
  8
0
 10
327.803467
 20
109.262993
 11
313.203461
 21
109.262993
  0
LINE
  8
0
  6
CENTER
 62
     2
 10
323.503479
 20
97.262993
 11
317.503479
 21
97.262993
  0
LINE
  8
0
  6
CENTER
 62
     2
 10
314.003479
 20
75.262962
 11
327.003479
 21
75.262962
  0
LINE
  8
0
 10
314.885406
 20
74.662956
 11
326.121521
 21
74.662956
  0
LINE
  8
0
 10
314.885406
 20
75.862968
 11
326.121521
 21
75.862968
  0
LINE
  8
0
 62
     4
 10
344.503448
 20
59.262970
 11
328.503448
 21
59.262970
  0
LINE
  8
0
 62
     4
 10
344.503448
 20
32.262966
 11
344.503448
 21
59.262970
  0
LINE
  8
0
 62
     4
 10
328.503448
 20
32.262966
 11
344.503448
 21
32.262966
  0
LINE
  8
0
  6
CENTER
 62
     1
 10
336.503448
 20
65.962959
 11
336.503448
 21
30.762962
  0
LINE
  8
0
 62
     4
 10
344.253479
 20
63.562965
 11
339.753479
 21
63.562965
  0
LINE
  8
0
 62
     4
 10
344.253448
 20
64.256706
 11
344.253448
 21
62.962959
  0
LINE
  8
0
 62
     4
 10
339.753448
 20
64.256706
 11
339.753448
 21
62.962959
  0
LINE
  8
0
 62
     4
 10
344.253479
 20
62.962959
 11
328.753479
 21
62.962959
  0
LINE
  8
0
 62
     4
 10
344.003448
 20
62.962959
 11
344.003448
 21
60.262962
  0
LINE
  8
0
 62
     4
 10
329.003448
 20
62.962959
 11
329.003448
 21
60.262962
  0
LINE
  8
0
 62
     4
 10
344.003479
 20
60.962971
 11
329.003479
 21
60.962971
  0
LINE
  8
0
 62
     4
 10
328.753448
 20
64.256706
 11
328.753448
 21
62.962959
  0
LINE
  8
0
 62
     4
 10
333.253448
 20
64.256706
 11
333.253448
 21
62.962959
  0
LINE
  8
0
 62
     4
 10
333.253479
 20
63.562965
 11
328.753479
 21
63.562965
  0
LINE
  8
0
 62
     4
 10
328.203461
 20
85.262993
 11
342.803467
 21
85.262993
  0
LINE
  8
0
 62
     4
 10
343.003448
 20
65.262993
 11
343.003448
 21
85.062981
  0
LINE
  8
0
 62
     4
 10
328.003448
 20
65.262993
 11
343.003448
 21
65.262993
  0
LINE
  8
0
 62
     4
 10
328.003479
 20
85.062996
 11
328.203491
 21
85.262993
  0
LINE
  8
0
 62
     4
 10
342.803436
 20
85.262978
 11
343.003418
 21
85.062981
  0
LINE
  8
0
 10
328.003448
 20
85.262993
 11
313.003448
 21
85.262993
  0
LINE
  8
0
 10
313.203461
 20
85.262993
 11
313.203461
 21
84.262993
  0
LINE
  8
0
 10
327.803467
 20
84.262993
 11
313.203461
 21
84.262993
  0
LINE
  8
0
 10
327.803467
 20
85.262993
 11
327.803467
 21
84.262993
  0
LINE
  8
0
 10
313.503479
 20
60.262962
 11
313.503479
 21
59.262962
  0
LINE
  8
0
 10
313.503479
 20
60.262962
 11
327.503479
 21
60.262962
  0
LINE
  8
0
 10
327.503479
 20
59.262962
 11
327.503479
 21
60.262962
  0
LINE
  8
0
 62
     4
 10
329.503479
 20
60.262962
 11
329.503479
 21
59.262962
  0
LINE
  8
0
 62
     4
 10
344.003448
 20
60.262962
 11
329.003448
 21
60.262962
  0
LINE
  8
0
 62
     4
 10
343.503479
 20
60.262962
 11
343.503479
 21
59.262962
  0
LINE
  8
0
 62
     4
 10
328.003448
 20
84.262947
 11
328.003448
 21
85.062981
  0
LINE
  8
0
  6
CENTER
 62
     2
 10
319.503448
 20
58.788006
 11
319.503448
 21
45.047134
  0
LINE
  8
0
  6
CENTER
 62
     2
 10
321.503448
 20
46.474758
 11
321.503448
 21
33.001572
  0
LINE
  8
0
  6
CENTER
 62
     2
 10
326.916260
 20
51.762966
 11
312.729248
 21
51.762966
  0
LINE
  8
0
  6
CENTER
 62
     2
 10
328.076202
 20
39.762966
 11
314.870697
 21
39.762966
  0
LINE
  8
0
 10
-212.922501
 20
-128.136948
 11
-213.296661
 21
-127.936928
  0
LINE
  8
0
 10
-203.470886
 20
-128.137039
 11
-212.922577
 21
-128.137039
  0
LINE
  8
0
  6
CENTER
 62
     2
 10
-208.196747
 20
-125.237030
 11
-208.196747
 21
-132.637024
  0
LINE
  8
0
 10
-211.696747
 20
-128.137039
 11
-211.696747
 21
-129.437027
  0
LINE
  8
0
 10
-204.696747
 20
-128.137039
 11
-204.696747
 21
-129.437027
  0
LINE
  8
0
 10
-203.296738
 20
-130.637024
 11
-213.096741
 21
-130.637024
  0
LINE
  8
0
 10
-203.296738
 20
-129.437027
 11
-213.096741
 21
-129.437027
  0
LINE
  8
0
 10
-213.296753
 20
-127.237030
 11
-213.296753
 21
-127.937027
  0
LINE
  8
0
 10
-203.096741
 20
-127.237030
 11
-203.096741
 21
-127.937027
  0
LINE
  8
0
 10
-203.096741
 20
-127.937027
 11
-213.296753
 21
-127.937027
  0
LINE
  8
0
 10
-203.096741
 20
-127.937050
 11
-203.470886
 21
-128.137054
  0
LINE
  8
0
 10
-213.096741
 20
-129.437027
 11
-213.096741
 21
-130.637024
  0
LINE
  8
0
 10
-203.296738
 20
-129.437027
 11
-203.296738
 21
-130.637024
  0
LINE
  8
0
  6
CENTER
 62
     2
 10
-207.196747
 20
-27.237030
 11
-207.196747
 21
-129.237030
  0
LINE
  8
0
 10
-231.196564
 20
-29.237030
 11
-231.196564
 21
-127.237030
  0
LINE
  8
0
 10
-199.196564
 20
-29.237030
 11
-199.196564
 21
-46.236923
  0
LINE
  8
0
  6
CENTER
 62
     2
 10
-223.196747
 20
-27.237030
 11
-223.196747
 21
-129.237030
  0
LINE
  8
0
 10
-215.196564
 20
-29.237030
 11
-215.196564
 21
-83.237030
  0
LINE
  8
0
 10
-230.696564
 20
-118.737030
 11
-199.696564
 21
-118.737030
  0
LINE
  8
0
 10
-230.696564
 20
-66.237030
 11
-230.696564
 21
-118.737030
  0
LINE
  8
0
 10
-199.696564
 20
-66.237030
 11
-199.696564
 21
-78.737030
  0
LINE
  8
0
 10
-215.696564
 20
-83.237030
 11
-214.696564
 21
-83.237030
  0
LINE
  8
0
 10
-215.696564
 20
-66.237030
 11
-215.696564
 21
-83.237030
  0
LINE
  8
0
 10
-214.696564
 20
-66.237030
 11
-214.696564
 21
-83.237030
  0
LINE
  8
0
  6
CENTER
 62
     2
 10
-226.461731
 20
-69.737030
 11
-219.882675
 21
-69.737030
  0
LINE
  8
0
  6
CENTER
 62
     2
 10
-210.014069
 20
-69.737030
 11
-204.579193
 21
-69.737030
  0
LINE
  8
0
 10
-199.696564
 20
-107.267197
 11
-199.696564
 21
-118.737030
  0
LINE
  8
0
 10
-215.196564
 20
-118.737030
 11
-215.196564
 21
-127.237030
  0
LINE
  8
0
 10
-230.696594
 20
-66.237030
 11
-215.696594
 21
-66.237030
  0
LINE
  8
0
 10
-230.021973
 20
-65.562424
 11
-216.371185
 21
-65.562424
  0
LINE
  8
0
 10
-228.696579
 20
-64.437027
 11
-217.696594
 21
-64.437027
  0
LINE
  8
0
 10
-228.696579
 20
-50.237030
 11
-217.696594
 21
-50.237030
  0
LINE
  8
0
 10
-228.696564
 20
-42.737030
 11
-217.696579
 21
-42.737030
  0
LINE
  8
0
 10
-228.696579
 20
-42.737030
 11
-228.696579
 21
-50.237030
  0
LINE
  8
0
 10
-217.696594
 20
-42.737030
 11
-217.696594
 21
-50.237030
  0
LINE
  8
0
 10
-219.696594
 20
-57.237030
 11
-219.696594
 21
-61.237030
  0
LINE
  8
0
 10
-226.696594
 20
-57.237030
 11
-226.696594
 21
-61.237030
  0
LINE
  8
0
 10
-228.696579
 20
-51.937027
 11
-228.696579
 21
-64.437027
  0
LINE
  8
0
 10
-217.696594
 20
-51.937027
 11
-217.696594
 21
-64.437035
  0
LINE
  8
0
 10
-228.696579
 20
-51.937027
 11
-217.696594
 21
-51.937027
  0
LINE
  8
0
 10
-226.696594
 20
-61.237030
 11
-219.696594
 21
-61.237030
  0
LINE
  8
0
 10
-226.696594
 20
-57.237030
 11
-219.696594
 21
-57.237030
  0
LINE
  8
0
 10
-230.696594
 20
-39.837036
 11
-215.696594
 21
-39.837036
  0
LINE
  8
0
 10
-229.596481
 20
-37.837036
 11
-216.796585
 21
-37.837036
  0
LINE
  8
0
 10
-230.021973
 20
-41.037033
 11
-230.021973
 21
-65.562424
  0
LINE
  8
0
 10
-216.371185
 20
-41.037033
 11
-216.371185
 21
-65.562424
  0
LINE
  8
0
 10
-230.696365
 20
-39.837086
 11
-229.596359
 21
-37.837067
  0
LINE
  8
0
 10
-216.796478
 20
-37.836994
 11
-215.696487
 21
-39.836990
  0
LINE
  8
0
 10
-215.696594
 20
-39.837036
 11
-215.696594
 21
-66.237030
  0
LINE
  8
0
 10
-230.696594
 20
-39.837036
 11
-230.696594
 21
-66.237030
  0
LINE
  8
0
 10
-230.696594
 20
-41.037033
 11
-215.696579
 21
-41.037033
  0
LINE
  8
0
 10
-230.696594
 20
-40.837036
 11
-215.696579
 21
-40.837036
  0
LINE
  8
0
 10
-214.696594
 20
-66.237030
 11
-199.696594
 21
-66.237030
  0
LINE
  8
0
 10
-214.021973
 20
-65.562424
 11
-200.371201
 21
-65.562424
  0
LINE
  8
0
 10
-212.696579
 20
-64.437027
 11
-201.696594
 21
-64.437027
  0
LINE
  8
0
 10
-212.696579
 20
-50.237030
 11
-201.696594
 21
-50.237030
  0
LINE
  8
0
 10
-212.696579
 20
-42.737030
 11
-201.696579
 21
-42.737030
  0
LINE
  8
0
 10
-212.696579
 20
-42.737030
 11
-212.696579
 21
-50.237030
  0
LINE
  8
0
 10
-201.696594
 20
-42.737030
 11
-201.696594
 21
-50.237030
  0
LINE
  8
0
 10
-203.696594
 20
-57.237030
 11
-203.696594
 21
-61.237030
  0
LINE
  8
0
 10
-210.696594
 20
-57.237030
 11
-210.696594
 21
-61.237030
  0
LINE
  8
0
 10
-212.696579
 20
-51.937027
 11
-212.696579
 21
-64.437027
  0
LINE
  8
0
 10
-201.696594
 20
-51.937027
 11
-201.696594
 21
-64.437035
  0
LINE
  8
0
 10
-212.696579
 20
-51.937027
 11
-201.696594
 21
-51.937027
  0
LINE
  8
0
 10
-210.696594
 20
-61.237030
 11
-203.696594
 21
-61.237030
  0
LINE
  8
0
 10
-210.696594
 20
-57.237030
 11
-203.696594
 21
-57.237030
  0
LINE
  8
0
 10
-214.696594
 20
-39.837036
 11
-199.696594
 21
-39.837036
  0
LINE
  8
0
 10
-213.596497
 20
-37.837036
 11
-200.796600
 21
-37.837036
  0
LINE
  8
0
 10
-214.021973
 20
-41.037033
 11
-214.021973
 21
-65.562424
  0
LINE
  8
0
 10
-200.371201
 20
-41.037033
 11
-200.371201
 21
-65.562424
  0
LINE
  8
0
 10
-214.696411
 20
-39.837055
 11
-213.596405
 21
-37.837051
  0
LINE
  8
0
 10
-200.796509
 20
-37.836994
 11
-199.696518
 21
-39.836979
  0
LINE
  8
0
 10
-199.696594
 20
-39.837036
 11
-199.696594
 21
-66.237030
  0
LINE
  8
0
 10
-214.696594
 20
-39.837036
 11
-214.696594
 21
-66.237030
  0
LINE
  8
0
 10
-214.696594
 20
-41.037033
 11
-199.696579
 21
-41.037033
  0
LINE
  8
0
 10
-214.696594
 20
-40.837036
 11
-199.696579
 21
-40.837036
  0
LINE
  8
0
 10
-230.696564
 20
-81.237030
 11
-215.696564
 21
-81.237030
  0
LINE
  8
0
 10
-199.696564
 20
-78.737030
 11
-214.696564
 21
-78.737030
  0
LINE
  8
0
 10
-199.696548
 20
-108.737030
 11
-214.696548
 21
-108.737030
  0
LINE
  8
0
 10
-199.696548
 20
-88.737030
 11
-214.696548
 21
-88.737030
  0
LINE
  8
0
 10
-214.346512
 20
-118.737030
 11
-200.046539
 21
-118.737030
  0
LINE
  8
0
 10
-199.696564
 20
-108.738205
 11
-199.696564
 21
-78.737030
  0
LINE
  8
0
 10
-214.696503
 20
-108.737015
 11
-214.346497
 21
-118.737022
  0
LINE
  8
0
 10
-199.696442
 20
-108.736984
 11
-200.046432
 21
-118.737022
  0
LINE
  8
0
 10
-214.696564
 20
-78.737030
 11
-214.696564
 21
-108.735779
  0
LINE
  8
0
  6
CENTER
 62
     2
 10
-228.196747
 20
-76.837029
 11
-218.196747
 21
-76.837029
  0
LINE
  8
0
 62
     4
 10
-183.196564
 20
-29.237030
 11
-183.196564
 21
-127.237030
  0
LINE
  8
0
 10
-231.196564
 20
-29.237030
 11
-199.196564
 21
-29.237030
  0
LINE
  8
0
 10
-231.196564
 20
-127.237030
 11
-199.196564
 21
-127.237030
  0
LINE
  8
0
 62
     4
 10
-183.695740
 20
-39.737263
 11
-183.697098
 21
-119.237244
  0
LINE
  8
0
 62
     4
 10
-198.695740
 20
-39.737000
 11
-198.695847
 21
-46.236923
  0
LINE
  8
0
 62
     4
 10
-184.195740
 20
-39.237251
 11
-190.696747
 21
-39.237141
  0
LINE
  8
0
 62
     4
 10
-184.197128
 20
-119.737228
 11
-198.197128
 21
-119.736992
  0
LINE
  8
0
 62
     4
 10
-198.697083
 20
-118.736923
 11
-198.697098
 21
-119.236984
  0
LINE
  8
0
 62
     4
 10
-184.696747
 20
-118.736908
 11
-184.696747
 21
-46.236923
  0
LINE
  8
0
 62
     4
 10
-199.696747
 20
-86.236923
 11
-184.696747
 21
-86.236923
  0
LINE
  8
0
 62
     4
 10
-199.696747
 20
-46.236923
 11
-184.696747
 21
-46.236923
  0
LINE
  8
0
  6
CENTER
 62
     1
 10
-192.196747
 20
-121.914627
 11
-192.196747
 21
-25.375046
  0
LINE
  8
0
 62
     4
 10
-198.696732
 20
-46.236931
 11
-197.696732
 21
-43.736931
  0
LINE
  8
0
 62
     4
 10
-197.696747
 20
-43.736923
 11
-186.696747
 21
-43.736923
  0
LINE
  8
0
 62
     4
 10
-186.696732
 20
-43.736931
 11
-185.696732
 21
-46.236927
  0
LINE
  8
0
 62
     4
 10
-190.696747
 20
-43.736923
 11
-190.696747
 21
-38.766113
  0
LINE
  8
0
 62
     4
 10
-193.696747
 20
-43.736923
 11
-193.696747
 21
-38.237091
  0
LINE
  8
0
 62
     4
 10
-193.696747
 20
-39.237087
 11
-198.195740
 21
-39.237011
  0
LINE
  8
0
 62
     1
 10
-189.696732
 20
-38.942459
 11
-194.696732
 21
-38.060738
  0
LINE
  8
0
 62
     1
 10
-189.696732
 20
-36.911606
 11
-194.696716
 21
-36.029888
  0
LINE
  8
0
 62
     4
 10
-193.696747
 20
-36.206223
 11
-193.696747
 21
-34.071991
  0
LINE
  8
0
 62
     4
 10
-190.696747
 20
-36.735260
 11
-190.696747
 21
-34.071991
  0
LINE
  8
0
 62
     4
 10
-193.696747
 20
-34.071991
 11
-190.696747
 21
-34.071991
  0
LINE
  8
0
 10
-199.696747
 20
-109.486923
 11
-199.196747
 21
-109.486923
  0
LINE
  8
0
 10
-199.696747
 20
-102.986923
 11
-199.196747
 21
-102.986923
  0
LINE
  8
0
 10
-199.196747
 20
-109.486923
 11
-199.196747
 21
-102.986923
  0
LINE
  8
0
 62
     4
 10
-192.946747
 20
-26.071991
 11
-191.446747
 21
-26.071991
  0
LINE
  8
0
 62
     4
 10
-192.946747
 20
-34.071991
 11
-192.946747
 21
-26.071991
  0
LINE
  8
0
 62
     4
 10
-191.946747
 20
-34.071991
 11
-191.946747
 21
-26.071991
  0
LINE
  8
0
 62
     4
 10
-192.446747
 20
-34.071991
 11
-192.446747
 21
-26.071991
  0
LINE
  8
0
 62
     4
 10
-191.446747
 20
-34.071991
 11
-191.446747
 21
-26.071991
  0
LINE
  8
0
 62
     4
 10
-191.446747
 20
-29.237030
 11
-183.196564
 21
-29.237030
  0
LINE
  8
0
 10
-199.196564
 20
-118.737030
 11
-199.196564
 21
-127.237030
  0
LINE
  8
0
 62
     4
 10
-200.046539
 20
-118.737030
 11
-184.696747
 21
-118.737030
  0
LINE
  8
0
 62
     4
 10
-199.196564
 20
-29.237030
 11
-192.946747
 21
-29.237030
  0
LINE
  8
0
 62
     4
 10
-199.196564
 20
-127.237030
 11
-183.196564
 21
-127.237030
  0
LINE
  8
0
 10
-343.422424
 20
-128.137085
 11
-343.796570
 21
-127.937065
  0
LINE
  8
0
 10
-332.796570
 20
-129.437027
 11
-332.796570
 21
-130.637024
  0
LINE
  8
0
 10
-333.970734
 20
-128.137039
 11
-343.422394
 21
-128.137039
  0
LINE
  8
0
 10
-344.596558
 20
-129.437027
 11
-344.596558
 21
-130.637024
  0
LINE
  8
0
  6
CENTER
 62
     2
 10
-338.696564
 20
-125.237030
 11
-338.696564
 21
-132.637024
  0
LINE
  8
0
 10
-342.196564
 20
-128.137039
 11
-342.196564
 21
-129.437027
  0
LINE
  8
0
 10
-335.196564
 20
-128.137039
 11
-335.196564
 21
-129.437027
  0
LINE
  8
0
 10
-332.796570
 20
-130.637024
 11
-344.596558
 21
-130.637024
  0
LINE
  8
0
 10
-332.796570
 20
-129.437027
 11
-344.596558
 21
-129.437027
  0
LINE
  8
0
 10
-343.796570
 20
-127.237030
 11
-343.796570
 21
-127.937027
  0
LINE
  8
0
 10
-333.596558
 20
-127.237030
 11
-333.596558
 21
-127.937027
  0
LINE
  8
0
 10
-333.596558
 20
-127.937027
 11
-343.796570
 21
-127.937027
  0
LINE
  8
0
 10
-333.596558
 20
-127.937019
 11
-333.970703
 21
-128.137039
  0
LINE
  8
0
  6
CENTER
 62
     2
 10
-318.196320
 20
-35.236649
 11
-318.196320
 21
-120.998230
  0
LINE
  8
0
 10
-330.196564
 20
-111.237213
 11
-330.196564
 21
-116.737350
  0
LINE
  8
0
 10
-330.196564
 20
-66.236870
 11
-330.196564
 21
-118.737259
  0
LINE
  8
0
 10
-330.196564
 20
-118.737259
 11
-306.196075
 21
-118.737259
  0
LINE
  8
0
 62
     4
 10
-328.196564
 20
-118.737259
 11
-328.196564
 21
-119.737030
  0
LINE
  8
0
 10
-330.696320
 20
-40.836868
 11
-300.696320
 21
-40.836868
  0
LINE
  8
0
 10
-300.696320
 20
-41.036880
 11
-330.696320
 21
-41.036880
  0
LINE
  8
0
 10
-330.696320
 20
-66.236870
 11
-306.196320
 21
-66.236870
  0
LINE
  8
0
 10
-306.196350
 20
-66.236847
 11
-305.696320
 21
-65.736816
  0
LINE
  8
0
 10
-305.696289
 20
-65.736832
 11
-301.178864
 21
-65.579079
  0
LINE
  8
0
 10
-305.696320
 20
-65.736862
 11
-305.696320
 21
-39.836868
  0
LINE
  8
0
 10
-330.696320
 20
-39.836868
 11
-300.696320
 21
-39.836868
  0
LINE
  8
0
 10
-329.696259
 20
-37.836868
 11
-307.196320
 21
-37.836868
  0
LINE
  8
0
 10
-330.696411
 20
-39.836849
 11
-329.696381
 21
-37.836807
  0
LINE
  8
0
 10
-306.196259
 20
-39.836845
 11
-307.196259
 21
-37.836853
  0
LINE
  8
0
 10
-330.696320
 20
-39.836868
 11
-330.696320
 21
-66.236870
  0
LINE
  8
0
 10
-300.696320
 20
-39.836868
 11
-300.696320
 21
-65.079422
  0
LINE
  8
0
 10
-306.196320
 20
-39.836868
 11
-306.196320
 21
-66.236862
  0
LINE
  8
0
 10
-304.846863
 20
-118.737259
 11
-281.545288
 21
-118.737259
  0
LINE
  8
0
 10
-305.196075
 20
-80.086868
 11
-305.196075
 21
-88.737259
  0
LINE
  8
0
 10
-281.196075
 20
-78.937256
 11
-281.196075
 21
-108.737129
  0
LINE
  8
0
 10
-305.196106
 20
-108.737259
 11
-281.196106
 21
-108.737259
  0
LINE
  8
0
 10
-305.196228
 20
-88.737259
 11
-281.196228
 21
-88.737259
  0
LINE
  8
0
 10
-299.996094
 20
-78.737267
 11
-298.396088
 21
-78.737267
  0
LINE
  8
0
 10
-306.196075
 20
-66.236870
 11
-306.196075
 21
-118.737259
  0
LINE
  8
0
 10
-305.196106
 20
-108.737244
 11
-304.846893
 21
-118.737267
  0
LINE
  8
0
 10
-281.196075
 20
-108.737137
 11
-281.545288
 21
-118.737267
  0
LINE
  8
0
 10
-293.396088
 20
-78.737267
 11
-281.396057
 21
-78.737267
  0
LINE
  8
0
 10
-330.196564
 20
-81.236984
 11
-306.196075
 21
-81.236984
  0
LINE
  8
0
 10
-302.996094
 20
-73.836868
 11
-302.996094
 21
-79.836868
  0
LINE
  8
0
 10
-306.196075
 20
-73.586868
 11
-303.496094
 21
-73.586868
  0
LINE
  8
0
 10
-306.196075
 20
-80.086868
 11
-303.496094
 21
-80.086868
  0
LINE
  8
0
 10
-303.496155
 20
-80.086830
 11
-302.996124
 21
-79.586823
  0
LINE
  8
0
 10
-302.996063
 20
-74.086823
 11
-303.496033
 21
-73.586830
  0
LINE
  8
0
 10
-302.496094
 20
-80.336868
 11
-300.496094
 21
-80.336868
  0
LINE
  8
0
 10
-302.496094
 20
-73.336868
 11
-300.496094
 21
-73.336868
  0
LINE
  8
0
 10
-299.996094
 20
-73.836868
 11
-299.996094
 21
-79.836868
  0
LINE
  8
0
 10
-302.996063
 20
-73.836914
 11
-302.496094
 21
-73.336922
  0
LINE
  8
0
 10
-300.496002
 20
-73.336845
 11
-299.996002
 21
-73.836845
  0
LINE
  8
0
 10
-299.996094
 20
-79.836929
 11
-300.496063
 21
-80.336922
  0
LINE
  8
0
 10
-302.496155
 20
-80.336899
 11
-302.996155
 21
-79.836899
  0
LINE
  8
0
 10
-298.396088
 20
-74.836868
 11
-298.396088
 21
-78.836868
  0
LINE
  8
0
 10
-299.996094
 20
-75.586868
 11
-298.396088
 21
-75.586868
  0
LINE
  8
0
 10
-299.996094
 20
-78.086868
 11
-298.396088
 21
-78.086868
  0
LINE
  8
0
 62
     2
 10
-299.996094
 20
-77.843369
 11
-298.396088
 21
-77.843369
  0
LINE
  8
0
 62
     2
 10
-299.996094
 20
-75.830368
 11
-298.396088
 21
-75.830368
  0
LINE
  8
0
 10
-293.396088
 20
-74.836868
 11
-293.396088
 21
-78.836868
  0
LINE
  8
0
 10
-297.896088
 20
-79.336868
 11
-293.896088
 21
-79.336868
  0
LINE
  8
0
 10
-297.896088
 20
-74.336868
 11
-293.896088
 21
-74.336868
  0
LINE
  8
0
 10
-298.396057
 20
-78.836823
 11
-297.896057
 21
-79.336823
  0
LINE
  8
0
 10
-293.896027
 20
-79.336876
 11
-293.395996
 21
-78.836861
  0
LINE
  8
0
 10
-293.396118
 20
-74.836876
 11
-293.896118
 21
-74.336868
  0
LINE
  8
0
 10
-297.896027
 20
-74.336861
 11
-298.396057
 21
-74.836891
  0
LINE
  8
0
 10
-293.896088
 20
-74.336868
 11
-293.896088
 21
-79.336868
  0
LINE
  8
0
 10
-303.496094
 20
-73.586868
 11
-303.496094
 21
-80.086868
  0
LINE
  8
0
 10
-297.896088
 20
-74.336868
 11
-297.896088
 21
-79.336868
  0
LINE
  8
0
 10
-300.496094
 20
-73.336868
 11
-300.496094
 21
-80.336868
  0
LINE
  8
0
 10
-302.496094
 20
-73.336868
 11
-302.496094
 21
-80.336868
  0
LINE
  8
0
 62
     4
 10
-305.196075
 20
-65.719368
 11
-305.196075
 21
-73.586868
  0
LINE
  8
0
 62
     4
 10
-305.196075
 20
-108.737259
 11
-305.196075
 21
-118.737259
  0
LINE
  8
0
 62
     4
 10
-319.696075
 20
-37.836868
 11
-319.696075
 21
-34.072342
  0
LINE
  8
0
 62
     4
 10
-320.446075
 20
-34.072342
 11
-320.446075
 21
-26.072342
  0
LINE
  8
0
 62
     4
 10
-320.946075
 20
-34.072342
 11
-320.946075
 21
-26.072342
  0
LINE
  8
0
  6
CENTER
 62
     1
 10
-321.196075
 20
-24.596680
 11
-321.196075
 21
-38.908371
  0
LINE
  8
0
 62
     4
 10
-321.446075
 20
-34.072342
 11
-321.446075
 21
-26.072342
  0
LINE
  8
0
 62
     4
 10
-321.946075
 20
-34.072342
 11
-321.946075
 21
-26.072342
  0
LINE
  8
0
 62
     4
 10
-322.696075
 20
-34.072342
 11
-319.696075
 21
-34.072342
  0
LINE
  8
0
 62
     4
 10
-322.696075
 20
-37.836868
 11
-322.696075
 21
-34.072342
  0
LINE
  8
0
 62
     4
 10
-321.946075
 20
-26.072342
 11
-320.446075
 21
-26.072342
  0
LINE
  8
0
 10
-305.196075
 20
-80.086868
 11
-305.196075
 21
-108.737259
  0
LINE
  8
0
 10
-331.196594
 20
-70.736794
 11
-330.196564
 21
-70.736794
  0
LINE
  8
0
 10
-331.196564
 20
-111.237267
 11
-330.196564
 21
-111.237267
  0
LINE
  8
0
 10
-305.196228
 20
-88.737564
 11
-306.196228
 21
-88.737564
  0
LINE
  8
0
 10
-305.196167
 20
-108.737564
 11
-306.196167
 21
-108.737564
  0
LINE
  8
0
 62
     4
 10
-328.196564
 20
-119.737030
 11
-330.196564
 21
-119.737030
  0
LINE
  8
0
 62
     4
 10
-306.196075
 20
-118.737259
 11
-305.196075
 21
-118.737259
  0
LINE
  8
0
 62
     4
 10
-330.196564
 20
-118.737259
 11
-330.196564
 21
-119.737030
  0
LINE
  8
0
 10
-199.196564
 20
-234.237030
 11
-199.196564
 21
-207.237030
  0
LINE
  8
0
 10
-215.196564
 20
-234.237030
 11
-215.196564
 21
-207.237030
  0
LINE
  8
0
 10
-231.196564
 20
-234.237030
 11
-231.196564
 21
-207.237030
  0
LINE
  8
0
 10
-231.196564
 20
-234.237030
 11
-199.196564
 21
-234.237030
  0
LINE
  8
0
  6
CENTER
 62
     2
 10
-223.196564
 20
-167.437042
 11
-223.196564
 21
-235.737030
  0
LINE
  8
0
 10
-199.696564
 20
-182.237030
 11
-230.696564
 21
-182.237030
  0
LINE
  8
0
 10
-230.696564
 20
-206.237030
 11
-199.696564
 21
-206.237030
  0
LINE
  8
0
 10
-230.696564
 20
-206.237030
 11
-230.696564
 21
-182.237030
  0
LINE
  8
0
 10
-230.696564
 20
-182.237030
 11
-230.196548
 21
-181.737015
  0
LINE
  8
0
 10
-216.196472
 20
-181.736938
 11
-215.696472
 21
-182.236938
  0
LINE
  8
0
 10
-230.021957
 20
-176.737030
 11
-226.696564
 21
-176.737030
  0
LINE
  8
0
 10
-216.196503
 20
-181.737030
 11
-216.371094
 21
-176.737015
  0
LINE
  8
0
 10
-230.196487
 20
-181.737030
 11
-230.021881
 21
-176.737030
  0
LINE
  8
0
 10
-199.696564
 20
-206.237030
 11
-199.696564
 21
-182.237000
  0
LINE
  8
0
 10
-226.196564
 20
-179.037033
 11
-220.196564
 21
-179.037033
  0
LINE
  8
0
 10
-226.446564
 20
-182.237030
 11
-226.446564
 21
-179.537033
  0
LINE
  8
0
 10
-219.946564
 20
-182.237030
 11
-219.946564
 21
-179.537033
  0
LINE
  8
0
 10
-219.946457
 20
-179.536957
 11
-220.446457
 21
-179.036957
  0
LINE
  8
0
 10
-225.946564
 20
-179.037048
 11
-226.446564
 21
-179.537048
  0
LINE
  8
0
 10
-219.696564
 20
-178.537033
 11
-219.696564
 21
-176.537033
  0
LINE
  8
0
 10
-226.696564
 20
-178.537033
 11
-226.696564
 21
-176.537033
  0
LINE
  8
0
 10
-226.196564
 20
-176.037033
 11
-220.196564
 21
-176.037033
  0
LINE
  8
0
 10
-226.196518
 20
-179.037003
 11
-226.696518
 21
-178.537003
  0
LINE
  8
0
 10
-226.696533
 20
-176.537033
 11
-226.196533
 21
-176.037048
  0
LINE
  8
0
 10
-220.196518
 20
-176.037003
 11
-219.696518
 21
-176.536987
  0
LINE
  8
0
 10
-219.696564
 20
-178.537079
 11
-220.196548
 21
-179.037064
  0
LINE
  8
0
 10
-225.196564
 20
-174.437042
 11
-221.196564
 21
-174.437042
  0
LINE
  8
0
 10
-224.446564
 20
-176.037033
 11
-224.446564
 21
-174.437042
  0
LINE
  8
0
 10
-221.946564
 20
-176.037033
 11
-221.946564
 21
-174.437042
  0
LINE
  8
0
 62
     2
 10
-222.190063
 20
-176.037033
 11
-222.190063
 21
-174.437042
  0
LINE
  8
0
 62
     2
 10
-224.203064
 20
-176.037033
 11
-224.203064
 21
-174.437042
  0
LINE
  8
0
 10
-225.196564
 20
-169.437042
 11
-221.196564
 21
-169.437042
  0
LINE
  8
0
 10
-220.696564
 20
-173.937042
 11
-220.696564
 21
-169.937042
  0
LINE
  8
0
 10
-225.696564
 20
-173.937042
 11
-225.696564
 21
-169.937042
  0
LINE
  8
0
 10
-221.196564
 20
-174.437057
 11
-220.696564
 21
-173.937042
  0
LINE
  8
0
 10
-220.696518
 20
-169.936981
 11
-221.196518
 21
-169.436981
  0
LINE
  8
0
 10
-225.196579
 20
-169.437042
 11
-225.696564
 21
-169.937027
  0
LINE
  8
0
 10
-225.696518
 20
-173.936996
 11
-225.196518
 21
-174.436996
  0
LINE
  8
0
 10
-225.696564
 20
-169.937042
 11
-220.696564
 21
-169.937042
  0
LINE
  8
0
 10
-226.446564
 20
-179.537033
 11
-219.946564
 21
-179.537033
  0
LINE
  8
0
 10
-225.696564
 20
-173.937042
 11
-220.696564
 21
-173.937042
  0
LINE
  8
0
 10
-226.696564
 20
-176.537033
 11
-219.696564
 21
-176.537033
  0
LINE
  8
0
 10
-226.696564
 20
-178.537033
 11
-219.696564
 21
-178.537033
  0
LINE
  8
0
 10
-219.696564
 20
-176.737030
 11
-216.371201
 21
-176.737030
  0
LINE
  8
0
  6
CENTER
 62
     2
 10
-207.196564
 20
-156.280212
 11
-207.196564
 21
-235.737030
  0
LINE
  8
0
 10
-199.696564
 20
-157.437012
 11
-199.696564
 21
-181.237000
  0
LINE
  8
0
 10
-214.696564
 20
-157.437012
 11
-214.696564
 21
-181.237000
  0
LINE
  8
0
 10
-199.896576
 20
-157.237000
 11
-214.496567
 21
-157.237000
  0
LINE
  8
0
  6
CENTER
 62
     2
 10
-204.196564
 20
-169.237000
 11
-210.196564
 21
-169.237000
  0
LINE
  8
0
  6
CENTER
 62
     2
 10
-213.696564
 20
-191.237030
 11
-200.696564
 21
-191.237030
  0
LINE
  8
0
 10
-212.814621
 20
-191.837036
 11
-201.578522
 21
-191.837036
  0
LINE
  8
0
 10
-212.814621
 20
-190.637039
 11
-201.578522
 21
-190.637039
  0
LINE
  8
0
 62
     4
 10
-183.196564
 20
-234.237030
 11
-183.196564
 21
-207.237030
  0
LINE
  8
0
 62
     4
 10
-199.196564
 20
-234.237030
 11
-183.196564
 21
-234.237030
  0
LINE
  8
0
  6
CENTER
 62
     1
 10
-191.196564
 20
-200.537033
 11
-191.196564
 21
-235.737030
  0
LINE
  8
0
 62
     4
 10
-183.446564
 20
-202.243286
 11
-183.446564
 21
-203.537033
  0
LINE
  8
0
 62
     4
 10
-187.946564
 20
-202.243286
 11
-187.946564
 21
-203.537033
  0
LINE
  8
0
 62
     4
 10
-183.446548
 20
-203.537018
 11
-198.946548
 21
-203.537018
  0
LINE
  8
0
 62
     4
 10
-183.696564
 20
-204.037033
 11
-183.696564
 21
-206.237030
  0
LINE
  8
0
 62
     4
 10
-198.696564
 20
-204.037033
 11
-198.696564
 21
-206.237030
  0
LINE
  8
0
 62
     4
 10
-183.696548
 20
-205.537018
 11
-198.696548
 21
-205.537018
  0
LINE
  8
0
 62
     4
 10
-183.696548
 20
-206.237015
 11
-198.696564
 21
-206.237015
  0
LINE
  8
0
 62
     4
 10
-198.946564
 20
-202.243286
 11
-198.946564
 21
-203.537033
  0
LINE
  8
0
 62
     4
 10
-194.446564
 20
-202.243286
 11
-194.446564
 21
-203.537033
  0
LINE
  8
0
 62
     4
 10
-199.496552
 20
-181.237000
 11
-184.896545
 21
-181.237000
  0
LINE
  8
0
 62
     4
 10
-184.696564
 20
-201.237000
 11
-184.696564
 21
-181.437012
  0
LINE
  8
0
 62
     4
 10
-199.696564
 20
-201.237000
 11
-184.696564
 21
-201.237000
  0
LINE
  8
0
 62
     4
 10
-199.696564
 20
-181.437012
 11
-199.496552
 21
-181.237000
  0
LINE
  8
0
 62
     4
 10
-184.896515
 20
-181.236969
 11
-184.696518
 21
-181.436966
  0
LINE
  8
0
  6
CENTER
 62
     2
 10
-208.196564
 20
-208.237030
 11
-208.196564
 21
-221.237030
  0
LINE
  8
0
  6
CENTER
 62
     2
 10
-206.196564
 20
-220.885498
 11
-206.196564
 21
-232.531525
  0
LINE
  8
0
  6
CENTER
 62
     2
 10
-201.696564
 20
-214.737030
 11
-214.696564
 21
-214.737030
  0
LINE
  8
0
  6
CENTER
 62
     2
 10
-200.878479
 20
-226.737030
 11
-211.831284
 21
-226.737030
  0
LINE
  8
0
 10
-213.096573
 20
-213.737030
 11
-213.096573
 21
-215.737030
  0
LINE
  8
0
 10
-203.296570
 20
-213.737030
 11
-203.296570
 21
-215.737030
  0
LINE
  8
0
 10
-203.696564
 20
-221.237030
 11
-208.696564
 21
-221.237030
  0
LINE
  8
0
 10
-203.696564
 20
-221.237030
 11
-203.696564
 21
-222.291809
  0
LINE
  8
0
 10
-208.696564
 20
-221.237030
 11
-208.696564
 21
-222.291809
  0
LINE
  8
0
 10
-210.696564
 20
-209.237030
 11
-210.696564
 21
-209.522766
  0
LINE
  8
0
 10
-205.696564
 20
-209.237030
 11
-205.696564
 21
-209.522766
  0
LINE
  8
0
 10
-205.696564
 20
-209.237030
 11
-206.257492
 21
-209.237030
  0
LINE
  8
0
 10
-210.135651
 20
-209.237030
 11
-210.696564
 21
-209.237030
  0
LINE
  8
0
 10
-214.196564
 20
-206.237030
 11
-214.196564
 21
-207.237030
  0
LINE
  8
0
 10
-200.196564
 20
-207.237030
 11
-200.196564
 21
-206.237030
  0
LINE
  8
0
 10
-199.696564
 20
-181.237000
 11
-214.696564
 21
-181.237000
  0
LINE
  8
0
 10
-214.496567
 20
-181.237000
 11
-214.496567
 21
-182.237000
  0
LINE
  8
0
 10
-199.896561
 20
-182.237000
 11
-214.496567
 21
-182.237000
  0
LINE
  8
0
 10
-199.896561
 20
-181.237000
 11
-199.896561
 21
-182.237000
  0
LINE
  8
0
 10
-230.196564
 20
-206.237030
 11
-230.196564
 21
-207.237030
  0
LINE
  8
0
 10
-216.196564
 20
-207.237030
 11
-216.196564
 21
-206.237030
  0
LINE
  8
0
 62
     4
 10
-198.196548
 20
-206.237030
 11
-198.196548
 21
-207.237030
  0
LINE
  8
0
 62
     4
 10
-184.196548
 20
-206.237030
 11
-184.196548
 21
-207.237030
  0
LINE
  8
0
 62
     4
 10
-183.196564
 20
-207.237030
 11
-199.196564
 21
-207.237030
  0
LINE
  8
0
 10
-199.196564
 20
-207.237030
 11
-231.196564
 21
-207.237030
  0
LINE
  8
0
 62
     4
 10
-199.696564
 20
-182.237000
 11
-199.696564
 21
-181.437012
  0
LINE
  8
0
  6
CENTER
 62
     2
 10
59.153229
 20
-27.237030
 11
59.153229
 21
-129.237030
  0
LINE
  8
0
 10
35.153412
 20
-29.237030
 11
35.153412
 21
-127.237030
  0
LINE
  8
0
 10
67.153412
 20
-29.237030
 11
67.153412
 21
-46.236923
  0
LINE
  8
0
  6
CENTER
 62
     2
 10
43.153229
 20
-27.237030
 11
43.153229
 21
-129.237030
  0
LINE
  8
0
 10
51.153412
 20
-29.237030
 11
51.153412
 21
-83.237030
  0
LINE
  8
0
 10
35.653412
 20
-118.737030
 11
66.653412
 21
-118.737030
  0
LINE
  8
0
 10
35.653412
 20
-66.237030
 11
35.653412
 21
-118.737030
  0
LINE
  8
0
 10
66.653412
 20
-66.237030
 11
66.653412
 21
-78.737030
  0
LINE
  8
0
 10
50.653412
 20
-83.237030
 11
51.653412
 21
-83.237030
  0
LINE
  8
0
 10
50.653412
 20
-66.237030
 11
50.653412
 21
-83.237030
  0
LINE
  8
0
 10
51.653412
 20
-66.237030
 11
51.653412
 21
-83.237030
  0
LINE
  8
0
  6
CENTER
 62
     2
 10
39.888245
 20
-69.737030
 11
46.467300
 21
-69.737030
  0
LINE
  8
0
  6
CENTER
 62
     2
 10
56.335907
 20
-69.737030
 11
61.770782
 21
-69.737030
  0
LINE
  8
0
 10
66.653412
 20
-107.267197
 11
66.653412
 21
-118.737030
  0
LINE
  8
0
 10
51.153412
 20
-118.737030
 11
51.153412
 21
-127.237030
  0
LINE
  8
0
 10
35.653381
 20
-66.237030
 11
50.653381
 21
-66.237030
  0
LINE
  8
0
 10
36.328003
 20
-65.562424
 11
49.978790
 21
-65.562424
  0
LINE
  8
0
 10
37.653397
 20
-64.437027
 11
48.653381
 21
-64.437027
  0
LINE
  8
0
 10
37.653397
 20
-50.237030
 11
48.653381
 21
-50.237030
  0
LINE
  8
0
 10
37.653412
 20
-42.737030
 11
48.653397
 21
-42.737030
  0
LINE
  8
0
 10
37.653397
 20
-42.737030
 11
37.653397
 21
-50.237030
  0
LINE
  8
0
 10
48.653381
 20
-42.737030
 11
48.653381
 21
-50.237030
  0
LINE
  8
0
 10
46.653381
 20
-57.237030
 11
46.653381
 21
-61.237030
  0
LINE
  8
0
 10
39.653381
 20
-57.237030
 11
39.653381
 21
-61.237030
  0
LINE
  8
0
 10
37.653397
 20
-51.937027
 11
37.653397
 21
-64.437027
  0
LINE
  8
0
 10
48.653381
 20
-51.937027
 11
48.653381
 21
-64.437035
  0
LINE
  8
0
 10
37.653397
 20
-51.937027
 11
48.653381
 21
-51.937027
  0
LINE
  8
0
 10
39.653381
 20
-61.237030
 11
46.653381
 21
-61.237030
  0
LINE
  8
0
 10
39.653381
 20
-57.237030
 11
46.653381
 21
-57.237030
  0
LINE
  8
0
 10
35.653381
 20
-39.837036
 11
50.653381
 21
-39.837036
  0
LINE
  8
0
 10
36.753494
 20
-37.837036
 11
49.553391
 21
-37.837036
  0
LINE
  8
0
 10
36.328003
 20
-41.037033
 11
36.328003
 21
-65.562424
  0
LINE
  8
0
 10
49.978790
 20
-41.037033
 11
49.978790
 21
-65.562424
  0
LINE
  8
0
 10
35.653538
 20
-39.837063
 11
36.753548
 21
-37.837044
  0
LINE
  8
0
 10
49.553440
 20
-37.836987
 11
50.653442
 21
-39.836990
  0
LINE
  8
0
 10
50.653381
 20
-39.837036
 11
50.653381
 21
-66.237030
  0
LINE
  8
0
 10
35.653381
 20
-39.837036
 11
35.653381
 21
-66.237030
  0
LINE
  8
0
 10
35.653381
 20
-41.037033
 11
50.653397
 21
-41.037033
  0
LINE
  8
0
 10
35.653381
 20
-40.837036
 11
50.653397
 21
-40.837036
  0
LINE
  8
0
 10
51.653381
 20
-66.237030
 11
66.653381
 21
-66.237030
  0
LINE
  8
0
 10
52.328003
 20
-65.562424
 11
65.978775
 21
-65.562424
  0
LINE
  8
0
 10
53.653397
 20
-64.437027
 11
64.653381
 21
-64.437027
  0
LINE
  8
0
 10
53.653397
 20
-50.237030
 11
64.653381
 21
-50.237030
  0
LINE
  8
0
 10
53.653397
 20
-42.737030
 11
64.653397
 21
-42.737030
  0
LINE
  8
0
 10
53.653397
 20
-42.737030
 11
53.653397
 21
-50.237030
  0
LINE
  8
0
 10
64.653381
 20
-42.737030
 11
64.653381
 21
-50.237030
  0
LINE
  8
0
 10
62.653381
 20
-57.237030
 11
62.653381
 21
-61.237030
  0
LINE
  8
0
 10
55.653381
 20
-57.237030
 11
55.653381
 21
-61.237030
  0
LINE
  8
0
 10
53.653397
 20
-51.937027
 11
53.653397
 21
-64.437027
  0
LINE
  8
0
 10
64.653381
 20
-51.937027
 11
64.653381
 21
-64.437035
  0
LINE
  8
0
 10
53.653397
 20
-51.937027
 11
64.653381
 21
-51.937027
  0
LINE
  8
0
 10
55.653381
 20
-61.237030
 11
62.653381
 21
-61.237030
  0
LINE
  8
0
 10
55.653381
 20
-57.237030
 11
62.653381
 21
-57.237030
  0
LINE
  8
0
 10
51.653381
 20
-39.837036
 11
66.653381
 21
-39.837036
  0
LINE
  8
0
 10
52.753479
 20
-37.837036
 11
65.553375
 21
-37.837036
  0
LINE
  8
0
 10
52.328003
 20
-41.037033
 11
52.328003
 21
-65.562424
  0
LINE
  8
0
 10
65.978775
 20
-41.037033
 11
65.978775
 21
-65.562424
  0
LINE
  8
0
 10
51.653503
 20
-39.837051
 11
52.753506
 21
-37.837048
  0
LINE
  8
0
 10
65.553421
 20
-37.837006
 11
66.653412
 21
-39.836983
  0
LINE
  8
0
 10
66.653381
 20
-39.837036
 11
66.653381
 21
-66.237030
  0
LINE
  8
0
 10
51.653381
 20
-39.837036
 11
51.653381
 21
-66.237030
  0
LINE
  8
0
 10
51.653381
 20
-41.037033
 11
66.653397
 21
-41.037033
  0
LINE
  8
0
 10
51.653381
 20
-40.837036
 11
66.653397
 21
-40.837036
  0
LINE
  8
0
 10
35.653412
 20
-81.237030
 11
50.653412
 21
-81.237030
  0
LINE
  8
0
 10
66.653412
 20
-78.737030
 11
51.653412
 21
-78.737030
  0
LINE
  8
0
 10
66.653427
 20
-108.737030
 11
51.653427
 21
-108.737030
  0
LINE
  8
0
 10
66.653427
 20
-88.737030
 11
51.653427
 21
-88.737030
  0
LINE
  8
0
 10
52.003464
 20
-118.737030
 11
66.303436
 21
-118.737030
  0
LINE
  8
0
 10
66.653412
 20
-108.738205
 11
66.653412
 21
-78.737030
  0
LINE
  8
0
 10
51.653458
 20
-108.736992
 11
52.003460
 21
-118.737000
  0
LINE
  8
0
 10
66.653458
 20
-108.736992
 11
66.303467
 21
-118.737030
  0
LINE
  8
0
 10
51.653412
 20
-78.737030
 11
51.653412
 21
-108.735779
  0
LINE
  8
0
  6
CENTER
 62
     2
 10
38.153229
 20
-76.837036
 11
48.153229
 21
-76.837036
  0
LINE
  8
0
 62
     4
 10
83.153412
 20
-29.237030
 11
83.153412
 21
-127.237030
  0
LINE
  8
0
 10
35.153412
 20
-29.237030
 11
67.153412
 21
-29.237030
  0
LINE
  8
0
 10
35.153412
 20
-127.237030
 11
67.153412
 21
-127.237030
  0
LINE
  8
0
 62
     4
 10
82.654221
 20
-39.737259
 11
82.652870
 21
-119.237244
  0
LINE
  8
0
 62
     4
 10
67.654221
 20
-39.737019
 11
67.654106
 21
-46.236942
  0
LINE
  8
0
 62
     4
 10
82.154243
 20
-39.237259
 11
75.653236
 21
-39.237148
  0
LINE
  8
0
 62
     4
 10
82.152847
 20
-119.737244
 11
68.152847
 21
-119.737007
  0
LINE
  8
0
 62
     4
 10
67.652878
 20
-118.736938
 11
67.652870
 21
-119.237000
  0
LINE
  8
0
 62
     4
 10
81.653229
 20
-118.736908
 11
81.653229
 21
-46.236923
  0
LINE
  8
0
 62
     4
 10
66.653229
 20
-86.236923
 11
81.653229
 21
-86.236923
  0
LINE
  8
0
 62
     4
 10
66.653229
 20
-46.236923
 11
81.653229
 21
-46.236923
  0
LINE
  8
0
  6
CENTER
 62
     1
 10
74.153229
 20
-121.914627
 11
74.153229
 21
-25.375046
  0
LINE
  8
0
 62
     4
 10
67.653244
 20
-46.236946
 11
68.653236
 21
-43.736946
  0
LINE
  8
0
 62
     4
 10
68.653229
 20
-43.736923
 11
79.653229
 21
-43.736923
  0
LINE
  8
0
 62
     4
 10
79.653244
 20
-43.736931
 11
80.653244
 21
-46.236931
  0
LINE
  8
0
 62
     4
 10
75.653229
 20
-43.736923
 11
75.653229
 21
-38.766113
  0
LINE
  8
0
 62
     4
 10
72.653229
 20
-43.736923
 11
72.653229
 21
-38.237091
  0
LINE
  8
0
 62
     4
 10
72.653236
 20
-39.237095
 11
68.154243
 21
-39.237019
  0
LINE
  8
0
 62
     1
 10
76.653252
 20
-38.942463
 11
71.653252
 21
-38.060745
  0
LINE
  8
0
 62
     1
 10
76.653214
 20
-36.911602
 11
71.653229
 21
-36.029884
  0
LINE
  8
0
 62
     4
 10
72.653229
 20
-36.206223
 11
72.653229
 21
-34.071991
  0
LINE
  8
0
 62
     4
 10
75.653229
 20
-36.735260
 11
75.653229
 21
-34.071991
  0
LINE
  8
0
 62
     4
 10
72.653229
 20
-34.071991
 11
75.653229
 21
-34.071991
  0
LINE
  8
0
 10
66.653229
 20
-109.486923
 11
67.153229
 21
-109.486923
  0
LINE
  8
0
 10
66.653229
 20
-102.986923
 11
67.153229
 21
-102.986923
  0
LINE
  8
0
 10
67.153229
 20
-109.486923
 11
67.153229
 21
-102.986923
  0
LINE
  8
0
 62
     4
 10
73.403229
 20
-26.071991
 11
74.903229
 21
-26.071991
  0
LINE
  8
0
 62
     4
 10
73.403229
 20
-34.071991
 11
73.403229
 21
-26.071991
  0
LINE
  8
0
 62
     4
 10
74.403229
 20
-34.071991
 11
74.403229
 21
-26.071991
  0
LINE
  8
0
 62
     4
 10
73.903229
 20
-34.071991
 11
73.903229
 21
-26.071991
  0
LINE
  8
0
 62
     4
 10
74.903229
 20
-34.071991
 11
74.903229
 21
-26.071991
  0
LINE
  8
0
 62
     4
 10
74.903229
 20
-29.237030
 11
83.153412
 21
-29.237030
  0
LINE
  8
0
 10
67.153412
 20
-118.737030
 11
67.153412
 21
-127.237030
  0
LINE
  8
0
 62
     4
 10
66.303436
 20
-118.737030
 11
81.653229
 21
-118.737030
  0
LINE
  8
0
 62
     4
 10
67.153412
 20
-29.237030
 11
73.403229
 21
-29.237030
  0
LINE
  8
0
 62
     4
 10
67.153412
 20
-127.237030
 11
83.153412
 21
-127.237030
  0
LINE
  8
0
  6
CENTER
 62
     2
 10
58.153229
 20
-125.237030
 11
58.153229
 21
-140.237030
  0
LINE
  8
0
 10
52.003235
 20
-127.237030
 11
52.003235
 21
-128.037018
  0
LINE
  8
0
 10
64.003288
 20
-128.037064
 11
63.103283
 21
-129.037064
  0
LINE
  8
0
 10
52.903240
 20
-129.037033
 11
52.003235
 21
-128.037033
  0
LINE
  8
0
 10
52.903244
 20
-129.037033
 11
54.940750
 21
-129.037033
  0
LINE
  8
0
 10
64.003235
 20
-128.037018
 11
64.003235
 21
-127.237030
  0
LINE
  8
0
 10
64.003235
 20
-128.037018
 11
59.538864
 21
-128.037018
  0
LINE
  8
0
  6
CENTER
 62
     2
 10
52.003235
 20
-133.737030
 11
64.003235
 21
-133.737030
  0
LINE
  8
0
 10
54.153229
 20
-129.037033
 11
54.153229
 21
-129.906830
  0
LINE
  8
0
 10
62.153229
 20
-129.037033
 11
62.153229
 21
-129.906830
  0
LINE
  8
0
 10
61.365707
 20
-129.037033
 11
63.103241
 21
-129.037033
  0
LINE
  8
0
 10
56.767609
 20
-128.037018
 11
52.003235
 21
-128.037018
  0
LINE
  8
0
 10
53.253235
 20
-132.737030
 11
53.253235
 21
-134.737030
  0
LINE
  8
0
 10
63.053238
 20
-132.737030
 11
63.053238
 21
-134.737030
  0
LINE
  8
0
  6
CENTER
 62
     2
 10
-51.846344
 20
-35.236649
 11
-51.846344
 21
-120.998230
  0
LINE
  8
0
 10
-63.846588
 20
-111.237213
 11
-63.846588
 21
-116.737350
  0
LINE
  8
0
 10
-63.846588
 20
-66.236870
 11
-63.846588
 21
-118.737259
  0
LINE
  8
0
 10
-63.846588
 20
-118.737259
 11
-39.846100
 21
-118.737259
  0
LINE
  8
0
 10
-64.346344
 20
-40.836868
 11
-34.346344
 21
-40.836868
  0
LINE
  8
0
 10
-34.346344
 20
-41.036880
 11
-64.346344
 21
-41.036880
  0
LINE
  8
0
 10
-64.346344
 20
-66.236877
 11
-39.846344
 21
-66.236877
  0
LINE
  8
0
 10
-39.846363
 20
-66.236855
 11
-39.346352
 21
-65.736847
  0
LINE
  8
0
 10
-39.346348
 20
-65.736855
 11
-34.828899
 21
-65.579102
  0
LINE
  8
0
 10
-39.346344
 20
-65.736862
 11
-39.346344
 21
-39.836868
  0
LINE
  8
0
 10
-64.346344
 20
-39.836868
 11
-34.346344
 21
-39.836868
  0
LINE
  8
0
 10
-63.346283
 20
-37.836868
 11
-40.846344
 21
-37.836868
  0
LINE
  8
0
 10
-64.346352
 20
-39.836887
 11
-63.346329
 21
-37.836845
  0
LINE
  8
0
 10
-39.846302
 20
-39.836845
 11
-40.846302
 21
-37.836849
  0
LINE
  8
0
 10
-64.346344
 20
-39.836868
 11
-64.346344
 21
-66.236870
  0
LINE
  8
0
 10
-34.346344
 20
-39.836868
 11
-34.346344
 21
-65.079422
  0
LINE
  8
0
 10
-39.846344
 20
-39.836868
 11
-39.846344
 21
-66.236862
  0
LINE
  8
0
 10
-38.496887
 20
-118.737259
 11
-15.195313
 21
-118.737259
  0
LINE
  8
0
 10
-38.846100
 20
-80.086868
 11
-38.846100
 21
-88.737259
  0
LINE
  8
0
 10
-14.846100
 20
-78.937256
 11
-14.846100
 21
-108.737129
  0
LINE
  8
0
 10
-38.846130
 20
-108.737259
 11
-14.846130
 21
-108.737259
  0
LINE
  8
0
 10
-38.846252
 20
-88.737259
 11
-14.846252
 21
-88.737259
  0
LINE
  8
0
 10
-33.646118
 20
-78.737274
 11
-32.046112
 21
-78.737274
  0
LINE
  8
0
 10
-39.846100
 20
-66.236870
 11
-39.846100
 21
-118.737259
  0
LINE
  8
0
 10
-38.846119
 20
-108.737244
 11
-38.496910
 21
-118.737267
  0
LINE
  8
0
 10
-14.846118
 20
-108.737144
 11
-15.195329
 21
-118.737274
  0
LINE
  8
0
 10
-27.046112
 20
-78.737274
 11
-15.046082
 21
-78.737274
  0
LINE
  8
0
 10
-63.846588
 20
-81.236984
 11
-39.846100
 21
-81.236984
  0
LINE
  8
0
 10
-36.646118
 20
-73.836868
 11
-36.646118
 21
-79.836868
  0
LINE
  8
0
 10
-39.846100
 20
-73.586868
 11
-37.146118
 21
-73.586868
  0
LINE
  8
0
 10
-39.846100
 20
-80.086868
 11
-37.146118
 21
-80.086868
  0
LINE
  8
0
 10
-37.146149
 20
-80.086861
 11
-36.646137
 21
-79.586845
  0
LINE
  8
0
 10
-36.646072
 20
-74.086815
 11
-37.146061
 21
-73.586830
  0
LINE
  8
0
 10
-36.146118
 20
-80.336868
 11
-34.146118
 21
-80.336868
  0
LINE
  8
0
 10
-36.146118
 20
-73.336868
 11
-34.146118
 21
-73.336868
  0
LINE
  8
0
 10
-33.646118
 20
-73.836868
 11
-33.646118
 21
-79.836868
  0
LINE
  8
0
 10
-36.646111
 20
-73.836906
 11
-36.146118
 21
-73.336914
  0
LINE
  8
0
 10
-34.146042
 20
-73.336838
 11
-33.646042
 21
-73.836838
  0
LINE
  8
0
 10
-33.646095
 20
-79.836922
 11
-34.146084
 21
-80.336906
  0
LINE
  8
0
 10
-36.146126
 20
-80.336899
 11
-36.646126
 21
-79.836899
  0
LINE
  8
0
 10
-32.046112
 20
-74.836868
 11
-32.046112
 21
-78.836868
  0
LINE
  8
0
 10
-33.646118
 20
-75.586868
 11
-32.046112
 21
-75.586868
  0
LINE
  8
0
 10
-33.646118
 20
-78.086868
 11
-32.046112
 21
-78.086868
  0
LINE
  8
0
 62
     2
 10
-33.646118
 20
-77.843369
 11
-32.046112
 21
-77.843369
  0
LINE
  8
0
 62
     2
 10
-33.646118
 20
-75.830368
 11
-32.046112
 21
-75.830368
  0
LINE
  8
0
 10
-27.046112
 20
-74.836868
 11
-27.046112
 21
-78.836868
  0
LINE
  8
0
 10
-31.546112
 20
-79.336868
 11
-27.546112
 21
-79.336868
  0
LINE
  8
0
 10
-31.546112
 20
-74.336868
 11
-27.546112
 21
-74.336868
  0
LINE
  8
0
 10
-32.046097
 20
-78.836823
 11
-31.546095
 21
-79.336823
  0
LINE
  8
0
 10
-27.546089
 20
-79.336891
 11
-27.046087
 21
-78.836891
  0
LINE
  8
0
 10
-27.046104
 20
-74.836884
 11
-27.546118
 21
-74.336876
  0
LINE
  8
0
 10
-31.546070
 20
-74.336868
 11
-32.046089
 21
-74.836884
  0
LINE
  8
0
 10
-27.546112
 20
-74.336868
 11
-27.546112
 21
-79.336868
  0
LINE
  8
0
 10
-37.146118
 20
-73.586868
 11
-37.146118
 21
-80.086868
  0
LINE
  8
0
 10
-31.546112
 20
-74.336868
 11
-31.546112
 21
-79.336868
  0
LINE
  8
0
 10
-34.146118
 20
-73.336868
 11
-34.146118
 21
-80.336868
  0
LINE
  8
0
 10
-36.146118
 20
-73.336868
 11
-36.146118
 21
-80.336868
  0
LINE
  8
0
 62
     4
 10
-38.846100
 20
-65.719368
 11
-38.846100
 21
-73.586868
  0
LINE
  8
0
 62
     4
 10
-38.846100
 20
-108.737259
 11
-38.846100
 21
-118.737259
  0
LINE
  8
0
 62
     4
 10
-53.346100
 20
-37.836868
 11
-53.346100
 21
-34.072342
  0
LINE
  8
0
 62
     4
 10
-54.096100
 20
-34.072342
 11
-54.096100
 21
-26.072342
  0
LINE
  8
0
 62
     4
 10
-54.596100
 20
-34.072342
 11
-54.596100
 21
-26.072342
  0
LINE
  8
0
  6
CENTER
 62
     1
 10
-54.846100
 20
-24.596680
 11
-54.846100
 21
-38.908371
  0
LINE
  8
0
 62
     4
 10
-55.096100
 20
-34.072342
 11
-55.096100
 21
-26.072342
  0
LINE
  8
0
 62
     4
 10
-55.596100
 20
-34.072342
 11
-55.596100
 21
-26.072342
  0
LINE
  8
0
 62
     4
 10
-56.346100
 20
-34.072342
 11
-53.346100
 21
-34.072342
  0
LINE
  8
0
 62
     4
 10
-56.346100
 20
-37.836868
 11
-56.346100
 21
-34.072342
  0
LINE
  8
0
 62
     4
 10
-55.596100
 20
-26.072342
 11
-54.096100
 21
-26.072342
  0
LINE
  8
0
 10
-38.846100
 20
-80.086868
 11
-38.846100
 21
-108.737259
  0
LINE
  8
0
 10
-64.846619
 20
-70.736786
 11
-63.846588
 21
-70.736786
  0
LINE
  8
0
 10
-64.846588
 20
-111.237274
 11
-63.846588
 21
-111.237274
  0
LINE
  8
0
 10
-38.846252
 20
-88.737564
 11
-39.846252
 21
-88.737564
  0
LINE
  8
0
 10
-38.846191
 20
-108.737564
 11
-39.846191
 21
-108.737564
  0
LINE
  8
0
 62
     4
 10
-39.846100
 20
-118.737259
 11
-38.846100
 21
-118.737259
  0
LINE
  8
0
 62
     4
 10
-63.846588
 20
-118.737259
 11
-63.846588
 21
-119.737030
  0
LINE
  8
0
 62
     4
 10
-61.846588
 20
-119.737030
 11
-63.846588
 21
-119.737030
  0
LINE
  8
0
 62
     4
 10
-61.846588
 20
-118.737259
 11
-61.846588
 21
-119.737030
  0
LINE
  8
0
 10
-56.096588
 20
-127.837021
 11
-56.096588
 21
-139.637024
  0
LINE
  8
0
 10
-57.296585
 20
-127.837021
 11
-57.296585
 21
-139.637024
  0
LINE
  8
0
 10
-57.296581
 20
-139.637024
 11
-56.096584
 21
-139.637024
  0
LINE
  8
0
 10
-57.296581
 20
-127.837021
 11
-56.096584
 21
-127.837021
  0
LINE
  8
0
 10
-66.896576
 20
-137.687027
 11
-73.346573
 21
-137.687027
  0
LINE
  8
0
 10
-75.246582
 20
-130.637024
 11
-75.246582
 21
-135.787033
  0
LINE
  8
0
 10
-66.296577
 20
-128.487030
 11
-59.096584
 21
-128.487030
  0
LINE
  8
0
 10
-59.096584
 20
-128.737030
 11
-58.296581
 21
-128.737030
  0
LINE
  8
0
 10
-58.296585
 20
-128.737030
 11
-58.296585
 21
-138.737030
  0
LINE
  8
0
 10
-59.096584
 20
-138.737030
 11
-58.296581
 21
-138.737030
  0
LINE
  8
0
 10
-58.296581
 20
-137.237030
 11
-57.296581
 21
-137.237030
  0
LINE
  8
0
 10
-58.296581
 20
-130.237030
 11
-57.296581
 21
-130.237030
  0
LINE
  8
0
 10
-59.096588
 20
-128.487030
 11
-59.096588
 21
-138.987030
  0
LINE
  8
0
 10
-73.346573
 20
-138.987030
 11
-59.096584
 21
-138.987030
  0
LINE
  8
0
 10
-66.296585
 20
-128.487030
 11
-66.296585
 21
-138.987030
  0
LINE
  8
0
 10
-66.896576
 20
-129.787033
 11
-66.896576
 21
-137.687027
  0
LINE
  8
0
 10
-66.296593
 20
-128.487045
 11
-66.896599
 21
-129.787048
  0
LINE
  8
0
 10
-66.896553
 20
-137.687042
 11
-66.296555
 21
-138.987030
  0
LINE
  8
0
 10
-66.896576
 20
-129.787033
 11
-68.346573
 21
-129.787033
  0
LINE
  8
0
 10
-66.496582
 20
-128.037018
 11
-66.496582
 21
-127.237030
  0
LINE
  8
0
 10
-66.496582
 20
-128.037018
 11
-78.496582
 21
-128.037018
  0
LINE
  8
0
 10
-77.596573
 20
-129.037033
 11
-67.396576
 21
-129.037033
  0
LINE
  8
0
 10
-66.496574
 20
-128.037048
 11
-67.396576
 21
-129.037048
  0
LINE
  8
0
 10
-68.346581
 20
-129.037033
 11
-68.346581
 21
-130.037033
  0
LINE
  8
0
 10
-69.446587
 20
-130.637009
 11
-68.346588
 21
-130.037003
  0
LINE
  8
0
 10
-69.446564
 20
-130.637024
 11
-75.246582
 21
-130.637024
  0
LINE
  8
0
 10
-76.346573
 20
-130.037033
 11
-68.346573
 21
-130.037033
  0
LINE
  8
0
 10
-75.246590
 20
-130.637024
 11
-76.346581
 21
-130.037018
  0
LINE
  8
0
 10
-76.346581
 20
-129.037033
 11
-76.346581
 21
-135.987030
  0
LINE
  8
0
 10
-77.596603
 20
-129.037064
 11
-78.496605
 21
-128.037064
  0
LINE
  8
0
  6
CENTER
 62
     2
 10
-78.346573
 20
-133.737030
 11
-55.146587
 21
-133.737030
  0
LINE
  8
0
  6
CENTER
 62
     2
 10
-72.346581
 20
-125.237030
 11
-72.346581
 21
-140.237030
  0
LINE
  8
0
 10
-78.496582
 20
-127.237030
 11
-78.496582
 21
-128.037018
  0
LINE
  8
0
 10
67.153412
 20
-234.237030
 11
67.153412
 21
-207.237030
  0
LINE
  8
0
 10
51.153412
 20
-234.237030
 11
51.153412
 21
-207.237030
  0
LINE
  8
0
 10
35.153412
 20
-234.237030
 11
35.153412
 21
-207.237030
  0
LINE
  8
0
 10
35.153412
 20
-234.237030
 11
67.153412
 21
-234.237030
  0
LINE
  8
0
  6
CENTER
 62
     2
 10
43.153412
 20
-167.437042
 11
43.153412
 21
-235.737030
  0
LINE
  8
0
 10
66.653412
 20
-182.237030
 11
35.653412
 21
-182.237030
  0
LINE
  8
0
 10
35.653412
 20
-206.237030
 11
52.903397
 21
-206.237030
  0
LINE
  8
0
 10
35.653412
 20
-206.237030
 11
35.653412
 21
-182.237030
  0
LINE
  8
0
 10
35.653336
 20
-182.237015
 11
36.153347
 21
-181.737000
  0
LINE
  8
0
 10
50.153450
 20
-181.736954
 11
50.653450
 21
-182.236954
  0
LINE
  8
0
 10
36.328018
 20
-176.737030
 11
39.653412
 21
-176.737030
  0
LINE
  8
0
 10
50.153412
 20
-181.737030
 11
49.978809
 21
-176.737030
  0
LINE
  8
0
 10
36.153431
 20
-181.737030
 11
36.328037
 21
-176.737030
  0
LINE
  8
0
 10
66.653412
 20
-206.237030
 11
66.653412
 21
-182.237000
  0
LINE
  8
0
 10
40.153412
 20
-179.037033
 11
46.153412
 21
-179.037033
  0
LINE
  8
0
 10
39.903412
 20
-182.237030
 11
39.903412
 21
-179.537033
  0
LINE
  8
0
 10
46.403412
 20
-182.237030
 11
46.403412
 21
-179.537033
  0
LINE
  8
0
 10
46.403461
 20
-179.536957
 11
45.903458
 21
-179.036957
  0
LINE
  8
0
 10
40.403374
 20
-179.037033
 11
39.903385
 21
-179.537018
  0
LINE
  8
0
 10
46.653412
 20
-178.537033
 11
46.653412
 21
-176.537033
  0
LINE
  8
0
 10
39.653412
 20
-178.537033
 11
39.653412
 21
-176.537033
  0
LINE
  8
0
 10
40.153412
 20
-176.037033
 11
46.153412
 21
-176.037033
  0
LINE
  8
0
 10
40.153442
 20
-179.037003
 11
39.653442
 21
-178.537003
  0
LINE
  8
0
 10
39.653423
 20
-176.537033
 11
40.153412
 21
-176.037033
  0
LINE
  8
0
 10
46.153454
 20
-176.037003
 11
46.653446
 21
-176.536987
  0
LINE
  8
0
 10
46.653378
 20
-178.537048
 11
46.153389
 21
-179.037048
  0
LINE
  8
0
 10
41.153412
 20
-174.437042
 11
45.153412
 21
-174.437042
  0
LINE
  8
0
 10
41.903412
 20
-176.037033
 11
41.903412
 21
-174.437042
  0
LINE
  8
0
 10
44.403412
 20
-176.037033
 11
44.403412
 21
-174.437042
  0
LINE
  8
0
 62
     2
 10
44.159912
 20
-176.037033
 11
44.159912
 21
-174.437042
  0
LINE
  8
0
 62
     2
 10
42.146912
 20
-176.037033
 11
42.146912
 21
-174.437042
  0
LINE
  8
0
 10
41.153412
 20
-169.437042
 11
45.153412
 21
-169.437042
  0
LINE
  8
0
 10
45.653412
 20
-173.937042
 11
45.653412
 21
-169.937042
  0
LINE
  8
0
 10
40.653412
 20
-173.937042
 11
40.653412
 21
-169.937042
  0
LINE
  8
0
 10
45.153400
 20
-174.437042
 11
45.653412
 21
-173.937027
  0
LINE
  8
0
 10
45.653439
 20
-169.936996
 11
45.153439
 21
-169.436996
  0
LINE
  8
0
 10
41.153416
 20
-169.437027
 11
40.653427
 21
-169.937012
  0
LINE
  8
0
 10
40.653439
 20
-173.936981
 11
41.153450
 21
-174.436996
  0
LINE
  8
0
 10
40.653412
 20
-169.937042
 11
45.653412
 21
-169.937042
  0
LINE
  8
0
 10
39.903412
 20
-179.537033
 11
46.403412
 21
-179.537033
  0
LINE
  8
0
 10
40.653412
 20
-173.937042
 11
45.653412
 21
-173.937042
  0
LINE
  8
0
 10
39.653412
 20
-176.537033
 11
46.653412
 21
-176.537033
  0
LINE
  8
0
 10
39.653412
 20
-178.537033
 11
46.653412
 21
-178.537033
  0
LINE
  8
0
 10
46.653412
 20
-176.737030
 11
49.978775
 21
-176.737030
  0
LINE
  8
0
  6
CENTER
 62
     2
 10
59.153412
 20
-156.280212
 11
59.153412
 21
-235.737030
  0
LINE
  8
0
 10
66.653412
 20
-157.437012
 11
66.653412
 21
-181.237000
  0
LINE
  8
0
 10
51.653412
 20
-157.437012
 11
51.653412
 21
-181.237000
  0
LINE
  8
0
 10
66.453400
 20
-157.237000
 11
51.853409
 21
-157.237000
  0
LINE
  8
0
  6
CENTER
 62
     2
 10
62.153412
 20
-169.237000
 11
56.153412
 21
-169.237000
  0
LINE
  8
0
  6
CENTER
 62
     2
 10
52.653412
 20
-191.237030
 11
65.653412
 21
-191.237030
  0
LINE
  8
0
 10
53.535355
 20
-191.837036
 11
64.771454
 21
-191.837036
  0
LINE
  8
0
 10
53.535355
 20
-190.637039
 11
64.771454
 21
-190.637039
  0
LINE
  8
0
 62
     4
 10
83.153412
 20
-234.237030
 11
83.153412
 21
-207.237030
  0
LINE
  8
0
 62
     4
 10
67.153412
 20
-234.237030
 11
83.153412
 21
-234.237030
  0
LINE
  8
0
  6
CENTER
 62
     1
 10
75.153412
 20
-200.537033
 11
75.153412
 21
-235.737030
  0
LINE
  8
0
 62
     4
 10
82.903412
 20
-202.243286
 11
82.903412
 21
-203.537033
  0
LINE
  8
0
 62
     4
 10
78.403412
 20
-202.243286
 11
78.403412
 21
-203.537033
  0
LINE
  8
0
 62
     4
 10
82.903427
 20
-203.537018
 11
67.403427
 21
-203.537018
  0
LINE
  8
0
 62
     4
 10
82.653412
 20
-204.037033
 11
82.653412
 21
-206.237030
  0
LINE
  8
0
 62
     4
 10
67.653412
 20
-204.037033
 11
67.653412
 21
-206.237030
  0
LINE
  8
0
 62
     4
 10
82.653427
 20
-205.537018
 11
67.653427
 21
-205.537018
  0
LINE
  8
0
 62
     4
 10
82.653427
 20
-206.237015
 11
67.653412
 21
-206.237015
  0
LINE
  8
0
 62
     4
 10
67.403412
 20
-202.243286
 11
67.403412
 21
-203.537033
  0
LINE
  8
0
 62
     4
 10
71.903412
 20
-202.243286
 11
71.903412
 21
-203.537033
  0
LINE
  8
0
 62
     4
 10
66.853424
 20
-181.237000
 11
81.453430
 21
-181.237000
  0
LINE
  8
0
 62
     4
 10
81.653412
 20
-201.237000
 11
81.653412
 21
-181.437012
  0
LINE
  8
0
 62
     4
 10
66.653412
 20
-201.237000
 11
81.653412
 21
-201.237000
  0
LINE
  8
0
 62
     4
 10
66.653450
 20
-181.437012
 11
66.853470
 21
-181.237000
  0
LINE
  8
0
 62
     4
 10
81.453461
 20
-181.236969
 11
81.653458
 21
-181.436966
  0
LINE
  8
0
 10
52.153412
 20
-206.237030
 11
52.153412
 21
-207.237030
  0
LINE
  8
0
 10
66.153412
 20
-207.237030
 11
66.153412
 21
-206.237030
  0
LINE
  8
0
 10
66.653412
 20
-181.237000
 11
51.653412
 21
-181.237000
  0
LINE
  8
0
 10
51.853409
 20
-181.237000
 11
51.853409
 21
-182.237000
  0
LINE
  8
0
 10
66.453415
 20
-182.237000
 11
51.853409
 21
-182.237000
  0
LINE
  8
0
 10
66.453415
 20
-181.237000
 11
66.453415
 21
-182.237000
  0
LINE
  8
0
 10
36.153412
 20
-206.237030
 11
36.153412
 21
-207.237030
  0
LINE
  8
0
 10
50.153412
 20
-207.237030
 11
50.153412
 21
-206.237030
  0
LINE
  8
0
 62
     4
 10
68.153427
 20
-206.237030
 11
68.153427
 21
-207.237030
  0
LINE
  8
0
 62
     4
 10
82.153427
 20
-206.237030
 11
82.153427
 21
-207.237030
  0
LINE
  8
0
 62
     4
 10
83.153412
 20
-207.237030
 11
67.153412
 21
-207.237030
  0
LINE
  8
0
 10
67.153412
 20
-207.237030
 11
63.403397
 21
-207.237030
  0
LINE
  8
0
 62
     4
 10
66.653412
 20
-182.237000
 11
66.653412
 21
-181.437012
  0
LINE
  8
0
  6
CENTER
 62
     2
 10
60.153412
 20
-220.498581
 11
60.153412
 21
-233.737030
  0
LINE
  8
0
  6
CENTER
 62
     2
 10
65.871445
 20
-226.737030
 11
54.427002
 21
-226.737030
  0
LINE
  8
0
  6
CENTER
 62
     2
 10
65.153412
 20
-214.737030
 11
51.153412
 21
-214.737030
  0
LINE
  8
0
  6
CENTER
 62
     2
 10
58.153397
 20
-221.737030
 11
58.153397
 21
-197.387039
  0
LINE
  8
0
 10
63.403397
 20
-208.537018
 11
63.403397
 21
-201.337036
  0
LINE
  8
0
 10
62.103394
 20
-212.137024
 11
62.103394
 21
-209.137024
  0
LINE
  8
0
 10
54.203400
 20
-212.137024
 11
54.203400
 21
-209.137024
  0
LINE
  8
0
 10
57.653397
 20
-218.705658
 11
57.653397
 21
-208.537018
  0
LINE
  8
0
 10
58.653397
 20
-218.705658
 11
58.653397
 21
-208.537018
  0
LINE
  8
0
 10
63.053406
 20
-198.487030
 11
53.253403
 21
-198.487030
  0
LINE
  8
0
 10
63.053406
 20
-199.687027
 11
53.253403
 21
-199.687027
  0
LINE
  8
0
 10
53.253403
 20
-199.687027
 11
53.253403
 21
-198.487030
  0
LINE
  8
0
 10
63.053406
 20
-199.687027
 11
63.053406
 21
-198.487030
  0
LINE
  8
0
 10
54.653397
 20
-200.687027
 11
54.653397
 21
-199.687027
  0
LINE
  8
0
 10
61.653397
 20
-200.687027
 11
61.653397
 21
-199.687027
  0
LINE
  8
0
 10
63.153397
 20
-200.687027
 11
53.153397
 21
-200.687027
  0
LINE
  8
0
 10
52.903397
 20
-201.337036
 11
63.403397
 21
-201.337036
  0
LINE
  8
0
 10
52.903397
 20
-208.537018
 11
63.403397
 21
-208.537018
  0
LINE
  8
0
 10
54.203400
 20
-209.137024
 11
57.653397
 21
-209.137024
  0
LINE
  8
0
 10
53.153397
 20
-201.337036
 11
53.153397
 21
-200.687027
  0
LINE
  8
0
 10
63.153397
 20
-201.337036
 11
63.153397
 21
-200.687027
  0
LINE
  8
0
 10
58.653397
 20
-209.137024
 11
62.103394
 21
-209.137024
  0
LINE
  8
0
 10
52.903408
 20
-208.536957
 11
54.203419
 21
-209.136948
  0
LINE
  8
0
 10
62.103352
 20
-209.136932
 11
63.403366
 21
-208.536926
  0
LINE
  8
0
 10
55.203400
 20
-213.137024
 11
57.653397
 21
-213.137024
  0
LINE
  8
0
 10
58.653397
 20
-213.137024
 11
61.103394
 21
-213.137024
  0
LINE
  8
0
 10
61.053391
 20
-214.737030
 11
61.053391
 21
-213.137024
  0
LINE
  8
0
 10
55.253403
 20
-214.737030
 11
55.253403
 21
-213.137024
  0
LINE
  8
0
 10
62.653412
 20
-221.237030
 11
57.653412
 21
-221.237030
  0
LINE
  8
0
 10
62.653412
 20
-221.237030
 11
62.653412
 21
-222.291809
  0
LINE
  8
0
 10
57.653412
 20
-221.237030
 11
57.653412
 21
-222.291809
  0
LINE
  8
0
 10
52.903397
 20
-208.537018
 11
52.903397
 21
-201.337036
  0
LINE
  8
0
 10
63.403397
 20
-206.237030
 11
66.653412
 21
-206.237030
  0
LINE
  8
0
 10
52.903397
 20
-207.237030
 11
35.153412
 21
-207.237030
  0
LINE
  8
0
  6
CENTER
 62
     2
 10
325.503204
 20
-17.237030
 11
325.503204
 21
-119.237030
  0
LINE
  8
0
 10
301.503387
 20
-19.237030
 11
301.503387
 21
-117.237030
  0
LINE
  8
0
 10
333.503387
 20
-19.237030
 11
333.503387
 21
-36.236923
  0
LINE
  8
0
  6
CENTER
 62
     2
 10
309.503204
 20
-17.237030
 11
309.503204
 21
-119.237030
  0
LINE
  8
0
 10
317.503387
 20
-19.237030
 11
317.503387
 21
-73.237030
  0
LINE
  8
0
 10
302.003387
 20
-108.737030
 11
333.003387
 21
-108.737030
  0
LINE
  8
0
 10
302.003387
 20
-56.237030
 11
302.003387
 21
-108.737030
  0
LINE
  8
0
 10
333.003387
 20
-56.237030
 11
333.003387
 21
-68.737030
  0
LINE
  8
0
 10
317.003387
 20
-73.237030
 11
318.003387
 21
-73.237030
  0
LINE
  8
0
 10
317.003387
 20
-56.237030
 11
317.003387
 21
-73.237030
  0
LINE
  8
0
 10
318.003387
 20
-56.237030
 11
318.003387
 21
-73.237030
  0
LINE
  8
0
  6
CENTER
 62
     2
 10
306.238220
 20
-59.737030
 11
312.817261
 21
-59.737030
  0
LINE
  8
0
  6
CENTER
 62
     2
 10
322.685883
 20
-59.737030
 11
328.120758
 21
-59.737030
  0
LINE
  8
0
 10
333.003387
 20
-97.267197
 11
333.003387
 21
-108.737030
  0
LINE
  8
0
 10
317.503387
 20
-108.737030
 11
317.503387
 21
-118.237030
  0
LINE
  8
0
 10
302.003357
 20
-56.237030
 11
317.003357
 21
-56.237030
  0
LINE
  8
0
 10
302.677979
 20
-55.562424
 11
316.328766
 21
-55.562424
  0
LINE
  8
0
 10
304.003357
 20
-54.437027
 11
315.003357
 21
-54.437027
  0
LINE
  8
0
 10
304.003357
 20
-40.237030
 11
315.003357
 21
-40.237030
  0
LINE
  8
0
 10
304.003387
 20
-32.737030
 11
315.003357
 21
-32.737030
  0
LINE
  8
0
 10
304.003357
 20
-32.737030
 11
304.003357
 21
-40.237030
  0
LINE
  8
0
 10
315.003357
 20
-32.737030
 11
315.003357
 21
-40.237030
  0
LINE
  8
0
 10
313.003357
 20
-47.237030
 11
313.003357
 21
-51.237030
  0
LINE
  8
0
 10
306.003357
 20
-47.237030
 11
306.003357
 21
-51.237030
  0
LINE
  8
0
 10
304.003357
 20
-41.937027
 11
304.003357
 21
-54.437027
  0
LINE
  8
0
 10
315.003357
 20
-41.937027
 11
315.003357
 21
-54.437035
  0
LINE
  8
0
 10
304.003357
 20
-41.937027
 11
315.003357
 21
-41.937027
  0
LINE
  8
0
 10
306.003357
 20
-51.237030
 11
313.003357
 21
-51.237030
  0
LINE
  8
0
 10
306.003357
 20
-47.237030
 11
313.003357
 21
-47.237030
  0
LINE
  8
0
 10
302.003357
 20
-29.837036
 11
317.003357
 21
-29.837036
  0
LINE
  8
0
 10
303.103455
 20
-27.837036
 11
315.903381
 21
-27.837036
  0
LINE
  8
0
 10
302.677979
 20
-31.037033
 11
302.677979
 21
-55.562424
  0
LINE
  8
0
 10
316.328766
 20
-31.037033
 11
316.328766
 21
-55.562424
  0
LINE
  8
0
 10
302.003326
 20
-29.836952
 11
303.103333
 21
-27.836933
  0
LINE
  8
0
 10
315.903229
 20
-27.837133
 11
317.003235
 21
-29.837124
  0
LINE
  8
0
 10
317.003357
 20
-29.837036
 11
317.003357
 21
-56.237030
  0
LINE
  8
0
 10
302.003357
 20
-29.837036
 11
302.003357
 21
-56.237030
  0
LINE
  8
0
 10
302.003357
 20
-31.037033
 11
317.003357
 21
-31.037033
  0
LINE
  8
0
 10
302.003357
 20
-30.837036
 11
317.003357
 21
-30.837036
  0
LINE
  8
0
 10
318.003357
 20
-56.237030
 11
333.003357
 21
-56.237030
  0
LINE
  8
0
 10
318.677979
 20
-55.562424
 11
332.328735
 21
-55.562424
  0
LINE
  8
0
 10
320.003357
 20
-54.437027
 11
331.003357
 21
-54.437027
  0
LINE
  8
0
 10
320.003357
 20
-40.237030
 11
331.003357
 21
-40.237030
  0
LINE
  8
0
 10
320.003357
 20
-32.737030
 11
331.003357
 21
-32.737030
  0
LINE
  8
0
 10
320.003357
 20
-32.737030
 11
320.003357
 21
-40.237030
  0
LINE
  8
0
 10
331.003357
 20
-32.737030
 11
331.003357
 21
-40.237030
  0
LINE
  8
0
 10
329.003357
 20
-47.237030
 11
329.003357
 21
-51.237030
  0
LINE
  8
0
 10
322.003357
 20
-47.237030
 11
322.003357
 21
-51.237030
  0
LINE
  8
0
 10
320.003357
 20
-41.937027
 11
320.003357
 21
-54.437027
  0
LINE
  8
0
 10
331.003357
 20
-41.937027
 11
331.003357
 21
-54.437035
  0
LINE
  8
0
 10
320.003357
 20
-41.937027
 11
331.003357
 21
-41.937027
  0
LINE
  8
0
 10
322.003357
 20
-51.237030
 11
329.003357
 21
-51.237030
  0
LINE
  8
0
 10
322.003357
 20
-47.237030
 11
329.003357
 21
-47.237030
  0
LINE
  8
0
 10
318.003357
 20
-29.837036
 11
333.003357
 21
-29.837036
  0
LINE
  8
0
 10
319.103455
 20
-27.837036
 11
331.903351
 21
-27.837036
  0
LINE
  8
0
 10
318.677979
 20
-31.037033
 11
318.677979
 21
-55.562424
  0
LINE
  8
0
 10
332.328735
 20
-31.037033
 11
332.328735
 21
-55.562424
  0
LINE
  8
0
 10
318.003296
 20
-29.836977
 11
319.103271
 21
-27.836973
  0
LINE
  8
0
 10
331.903168
 20
-27.837135
 11
333.003174
 21
-29.837126
  0
LINE
  8
0
 10
333.003357
 20
-29.837036
 11
333.003357
 21
-56.237030
  0
LINE
  8
0
 10
318.003357
 20
-29.837036
 11
318.003357
 21
-56.237030
  0
LINE
  8
0
 10
318.003357
 20
-31.037033
 11
333.003357
 21
-31.037033
  0
LINE
  8
0
 10
318.003357
 20
-30.837036
 11
333.003357
 21
-30.837036
  0
LINE
  8
0
 10
302.003387
 20
-71.237030
 11
317.003387
 21
-71.237030
  0
LINE
  8
0
 10
333.003387
 20
-68.737030
 11
318.003387
 21
-68.737030
  0
LINE
  8
0
 10
333.003418
 20
-98.737030
 11
318.003418
 21
-98.737030
  0
LINE
  8
0
 10
333.003418
 20
-78.737030
 11
318.003418
 21
-78.737030
  0
LINE
  8
0
 10
318.353455
 20
-108.737030
 11
332.653412
 21
-108.737030
  0
LINE
  8
0
 10
333.003387
 20
-98.738205
 11
333.003387
 21
-68.737030
  0
LINE
  8
0
 10
318.003357
 20
-98.736961
 11
318.353363
 21
-108.736984
  0
LINE
  8
0
 10
333.003265
 20
-98.737000
 11
332.653259
 21
-108.737038
  0
LINE
  8
0
 10
318.003387
 20
-68.737030
 11
318.003387
 21
-98.735779
  0
LINE
  8
0
  6
CENTER
 62
     2
 10
304.503204
 20
-66.837036
 11
314.503204
 21
-66.837036
  0
LINE
  8
0
 62
     4
 10
349.503387
 20
-19.237030
 11
349.503387
 21
-117.237030
  0
LINE
  8
0
 10
301.503387
 20
-19.237030
 11
333.503387
 21
-19.237030
  0
LINE
  8
0
 10
301.503387
 20
-117.237030
 11
333.503387
 21
-117.237030
  0
LINE
  8
0
 62
     4
 10
349.004211
 20
-29.737230
 11
349.002869
 21
-109.237213
  0
LINE
  8
0
 62
     4
 10
334.004211
 20
-29.737030
 11
334.004120
 21
-36.236954
  0
LINE
  8
0
 62
     4
 10
348.504242
 20
-29.237255
 11
342.003235
 21
-29.237144
  0
LINE
  8
0
 62
     4
 10
348.502838
 20
-109.737236
 11
334.502838
 21
-109.737000
  0
LINE
  8
0
 62
     4
 10
334.002899
 20
-108.736969
 11
334.002869
 21
-109.237030
  0
LINE
  8
0
 62
     4
 10
348.003204
 20
-108.736908
 11
348.003204
 21
-36.236923
  0
LINE
  8
0
 62
     4
 10
333.003204
 20
-76.236923
 11
348.003204
 21
-76.236923
  0
LINE
  8
0
 62
     4
 10
333.003204
 20
-36.236923
 11
348.003204
 21
-36.236923
  0
LINE
  8
0
  6
CENTER
 62
     1
 10
340.503204
 20
-111.914627
 11
340.503204
 21
-15.375046
  0
LINE
  8
0
 62
     4
 10
334.003174
 20
-36.236916
 11
335.003174
 21
-33.736919
  0
LINE
  8
0
 62
     4
 10
335.003204
 20
-33.736923
 11
346.003204
 21
-33.736923
  0
LINE
  8
0
 62
     4
 10
346.003174
 20
-33.736961
 11
347.003174
 21
-36.236977
  0
LINE
  8
0
 62
     4
 10
342.003204
 20
-33.736923
 11
342.003204
 21
-28.766113
  0
LINE
  8
0
 62
     4
 10
339.003204
 20
-33.736923
 11
339.003204
 21
-28.237091
  0
LINE
  8
0
 62
     4
 10
339.003235
 20
-29.237093
 11
334.504242
 21
-29.237017
  0
LINE
  8
0
 62
     1
 10
343.003235
 20
-28.942488
 11
338.003235
 21
-28.060768
  0
LINE
  8
0
 62
     1
 10
343.003143
 20
-26.911631
 11
338.003174
 21
-26.029917
  0
LINE
  8
0
 62
     4
 10
339.003204
 20
-26.206223
 11
339.003204
 21
-24.071991
  0
LINE
  8
0
 62
     4
 10
342.003204
 20
-26.735260
 11
342.003204
 21
-24.071991
  0
LINE
  8
0
 62
     4
 10
339.003204
 20
-24.071991
 11
342.003204
 21
-24.071991
  0
LINE
  8
0
 10
333.003204
 20
-99.486923
 11
333.503204
 21
-99.486923
  0
LINE
  8
0
 10
333.003204
 20
-92.986923
 11
333.503204
 21
-92.986923
  0
LINE
  8
0
 10
333.503204
 20
-99.486923
 11
333.503204
 21
-92.986923
  0
LINE
  8
0
 62
     4
 10
339.753204
 20
-16.071991
 11
341.253204
 21
-16.071991
  0
LINE
  8
0
 62
     4
 10
339.753204
 20
-24.071991
 11
339.753204
 21
-16.071991
  0
LINE
  8
0
 62
     4
 10
340.753204
 20
-24.071991
 11
340.753204
 21
-16.071991
  0
LINE
  8
0
 62
     4
 10
340.253204
 20
-24.071991
 11
340.253204
 21
-16.071991
  0
LINE
  8
0
 62
     4
 10
341.253204
 20
-24.071991
 11
341.253204
 21
-16.071991
  0
LINE
  8
0
 62
     4
 10
341.253204
 20
-19.237030
 11
349.503387
 21
-19.237030
  0
LINE
  8
0
 10
333.503387
 20
-108.737030
 11
333.503387
 21
-118.237030
  0
LINE
  8
0
 62
     4
 10
332.653412
 20
-108.737030
 11
348.003204
 21
-108.737030
  0
LINE
  8
0
 62
     4
 10
333.503387
 20
-19.237030
 11
339.753204
 21
-19.237030
  0
LINE
  8
0
 62
     4
 10
333.503387
 20
-117.237030
 11
349.503387
 21
-117.237030
  0
LINE
  8
0
 10
330.003174
 20
-119.237061
 11
330.503174
 21
-118.737045
  0
LINE
  8
0
  6
CENTER
 62
     2
 10
324.503204
 20
-113.237030
 11
324.503204
 21
-121.237030
  0
LINE
  8
0
  6
CENTER
 62
     2
 10
326.503204
 20
-113.237030
 11
326.503204
 21
-121.237030
  0
LINE
  8
0
 10
318.503204
 20
-118.237030
 11
318.503204
 21
-118.737030
  0
LINE
  8
0
 10
332.503204
 20
-118.237030
 11
332.503204
 21
-118.737030
  0
LINE
  8
0
 10
317.503387
 20
-118.237030
 11
333.503387
 21
-118.237030
  0
LINE
  8
0
 10
319.003204
 20
-119.237030
 11
332.003204
 21
-119.237030
  0
LINE
  8
0
 10
318.503174
 20
-118.737068
 11
319.003174
 21
-119.237061
  0
LINE
  8
0
 10
332.003143
 20
-119.237045
 11
332.503143
 21
-118.737038
  0
LINE
  8
0
 10
330.503204
 20
-118.237030
 11
330.503204
 21
-118.737030
  0
LINE
  8
0
  6
CENTER
 62
     2
 10
214.503632
 20
-25.236649
 11
214.503632
 21
-110.998230
  0
LINE
  8
0
 10
202.503387
 20
-101.237213
 11
202.503387
 21
-106.737350
  0
LINE
  8
0
 10
202.503387
 20
-56.236870
 11
202.503387
 21
-108.737259
  0
LINE
  8
0
 10
202.503387
 20
-108.737259
 11
226.503876
 21
-108.737259
  0
LINE
  8
0
 10
202.003632
 20
-30.836868
 11
232.003632
 21
-30.836868
  0
LINE
  8
0
 10
232.003632
 20
-31.036880
 11
202.003632
 21
-31.036880
  0
LINE
  8
0
 10
202.003632
 20
-56.236877
 11
226.503632
 21
-56.236877
  0
LINE
  8
0
 10
226.503723
 20
-56.236897
 11
227.003723
 21
-55.736885
  0
LINE
  8
0
 10
227.003632
 20
-55.736858
 11
231.521072
 21
-55.579105
  0
LINE
  8
0
 10
227.003632
 20
-55.736862
 11
227.003632
 21
-29.836868
  0
LINE
  8
0
 10
202.003632
 20
-29.836868
 11
232.003632
 21
-29.836868
  0
LINE
  8
0
 10
203.003693
 20
-27.836868
 11
225.503632
 21
-27.836868
  0
LINE
  8
0
 10
202.003754
 20
-29.836931
 11
203.003769
 21
-27.836893
  0
LINE
  8
0
 10
226.503647
 20
-29.836823
 11
225.503647
 21
-27.836836
  0
LINE
  8
0
 10
202.003632
 20
-29.836868
 11
202.003632
 21
-56.236870
  0
LINE
  8
0
 10
232.003632
 20
-29.836868
 11
232.003632
 21
-55.079422
  0
LINE
  8
0
 10
226.503632
 20
-29.836868
 11
226.503632
 21
-56.236862
  0
LINE
  8
0
 10
227.853088
 20
-108.737259
 11
251.154663
 21
-108.737259
  0
LINE
  8
0
 10
227.503876
 20
-70.086868
 11
227.503876
 21
-78.737259
  0
LINE
  8
0
 10
251.503876
 20
-68.937256
 11
251.503876
 21
-98.737129
  0
LINE
  8
0
 10
227.503845
 20
-98.737259
 11
251.503845
 21
-98.737259
  0
LINE
  8
0
 10
227.503723
 20
-78.737259
 11
251.503723
 21
-78.737259
  0
LINE
  8
0
 10
232.703857
 20
-68.737274
 11
234.303864
 21
-68.737274
  0
LINE
  8
0
 10
226.503876
 20
-56.236870
 11
226.503876
 21
-108.737259
  0
LINE
  8
0
 10
227.503922
 20
-98.737244
 11
227.853134
 21
-108.737267
  0
LINE
  8
0
 10
251.503937
 20
-98.737160
 11
251.154724
 21
-108.737289
  0
LINE
  8
0
 10
239.303864
 20
-68.737274
 11
251.303894
 21
-68.737274
  0
LINE
  8
0
 10
202.503387
 20
-71.236984
 11
226.503876
 21
-71.236984
  0
LINE
  8
0
 10
229.703857
 20
-63.836868
 11
229.703857
 21
-69.836868
  0
LINE
  8
0
 10
226.503876
 20
-63.586868
 11
229.203857
 21
-63.586868
  0
LINE
  8
0
 10
226.503876
 20
-70.086868
 11
229.203857
 21
-70.086868
  0
LINE
  8
0
 10
229.203888
 20
-70.086906
 11
229.703888
 21
-69.586899
  0
LINE
  8
0
 10
229.703888
 20
-64.086815
 11
229.203888
 21
-63.586830
  0
LINE
  8
0
 10
230.203857
 20
-70.336868
 11
232.203857
 21
-70.336868
  0
LINE
  8
0
 10
230.203857
 20
-63.336868
 11
232.203857
 21
-63.336868
  0
LINE
  8
0
 10
232.703857
 20
-63.836868
 11
232.703857
 21
-69.836868
  0
LINE
  8
0
 10
229.703812
 20
-63.836876
 11
230.203796
 21
-63.336887
  0
LINE
  8
0
 10
232.203888
 20
-63.336823
 11
232.703888
 21
-63.836823
  0
LINE
  8
0
 10
232.703857
 20
-69.836891
 11
232.203873
 21
-70.336884
  0
LINE
  8
0
 10
230.203873
 20
-70.336830
 11
229.703873
 21
-69.836830
  0
LINE
  8
0
 10
234.303864
 20
-64.836868
 11
234.303864
 21
-68.836868
  0
LINE
  8
0
 10
232.703857
 20
-65.586868
 11
234.303864
 21
-65.586868
  0
LINE
  8
0
 10
232.703857
 20
-68.086868
 11
234.303864
 21
-68.086868
  0
LINE
  8
0
 62
     2
 10
232.703857
 20
-67.843369
 11
234.303864
 21
-67.843369
  0
LINE
  8
0
 62
     2
 10
232.703857
 20
-65.830368
 11
234.303864
 21
-65.830368
  0
LINE
  8
0
 10
239.303864
 20
-64.836868
 11
239.303864
 21
-68.836868
  0
LINE
  8
0
 10
234.803864
 20
-69.336868
 11
238.803864
 21
-69.336868
  0
LINE
  8
0
 10
234.803864
 20
-64.336868
 11
238.803864
 21
-64.336868
  0
LINE
  8
0
 10
234.303864
 20
-68.836823
 11
234.803848
 21
-69.336815
  0
LINE
  8
0
 10
238.803818
 20
-69.336884
 11
239.303818
 21
-68.836884
  0
LINE
  8
0
 10
239.303894
 20
-64.836884
 11
238.803879
 21
-64.336876
  0
LINE
  8
0
 10
234.803864
 20
-64.336853
 11
234.303848
 21
-64.836876
  0
LINE
  8
0
 10
238.803864
 20
-64.336868
 11
238.803864
 21
-69.336868
  0
LINE
  8
0
 10
229.203857
 20
-63.586868
 11
229.203857
 21
-70.086868
  0
LINE
  8
0
 10
234.803864
 20
-64.336868
 11
234.803864
 21
-69.336868
  0
LINE
  8
0
 10
232.203857
 20
-63.336868
 11
232.203857
 21
-70.336868
  0
LINE
  8
0
 10
230.203857
 20
-63.336868
 11
230.203857
 21
-70.336868
  0
LINE
  8
0
 62
     4
 10
227.503876
 20
-55.719368
 11
227.503876
 21
-63.586868
  0
LINE
  8
0
 62
     4
 10
227.503876
 20
-98.737259
 11
227.503876
 21
-108.737259
  0
LINE
  8
0
 62
     4
 10
213.003876
 20
-27.836868
 11
213.003876
 21
-24.072342
  0
LINE
  8
0
 62
     4
 10
212.253876
 20
-24.072342
 11
212.253876
 21
-16.072342
  0
LINE
  8
0
 62
     4
 10
211.753876
 20
-24.072342
 11
211.753876
 21
-16.072342
  0
LINE
  8
0
  6
CENTER
 62
     1
 10
211.503876
 20
-14.596680
 11
211.503876
 21
-28.908371
  0
LINE
  8
0
 62
     4
 10
211.253876
 20
-24.072342
 11
211.253876
 21
-16.072342
  0
LINE
  8
0
 62
     4
 10
210.753876
 20
-24.072342
 11
210.753876
 21
-16.072342
  0
LINE
  8
0
 62
     4
 10
210.003876
 20
-24.072342
 11
213.003876
 21
-24.072342
  0
LINE
  8
0
 62
     4
 10
210.003876
 20
-27.836868
 11
210.003876
 21
-24.072342
  0
LINE
  8
0
 62
     4
 10
210.753876
 20
-16.072342
 11
212.253876
 21
-16.072342
  0
LINE
  8
0
 10
227.503876
 20
-70.086868
 11
227.503876
 21
-98.737259
  0
LINE
  8
0
 10
201.503357
 20
-60.736786
 11
202.503387
 21
-60.736786
  0
LINE
  8
0
 10
201.503387
 20
-101.237274
 11
202.503387
 21
-101.237274
  0
LINE
  8
0
 10
227.503723
 20
-78.737564
 11
226.503723
 21
-78.737564
  0
LINE
  8
0
 10
227.503784
 20
-98.737564
 11
226.503784
 21
-98.737564
  0
LINE
  8
0
 62
     4
 10
226.503876
 20
-108.737259
 11
227.503876
 21
-108.737259
  0
LINE
  8
0
 62
     4
 10
202.503387
 20
-108.737259
 11
202.503387
 21
-109.737030
  0
LINE
  8
0
 62
     4
 10
204.503387
 20
-109.737030
 11
202.503387
 21
-109.737030
  0
LINE
  8
0
 62
     4
 10
204.503387
 20
-108.737259
 11
204.503387
 21
-109.737030
  0
LINE
  8
0
  6
CENTER
 62
     2
 10
182.003387
 20
-115.565979
 11
182.003387
 21
-121.271942
  0
LINE
  8
0
  6
CENTER
 62
     2
 10
194.003387
 20
-115.565979
 11
194.003387
 21
-121.271942
  0
LINE
  8
0
 10
176.503387
 20
-119.237030
 11
187.503387
 21
-119.237030
  0
LINE
  8
0
 10
176.003387
 20
-118.237030
 11
176.003387
 21
-118.737030
  0
LINE
  8
0
 10
188.003387
 20
-118.237030
 11
188.003387
 21
-118.737030
  0
LINE
  8
0
 10
200.003387
 20
-118.237030
 11
200.003387
 21
-118.737030
  0
LINE
  8
0
 10
188.503387
 20
-119.237030
 11
199.503387
 21
-119.237030
  0
LINE
  8
0
 10
200.003387
 20
-118.737030
 11
199.503387
 21
-119.237030
  0
LINE
  8
0
 10
188.503403
 20
-119.237061
 11
188.003403
 21
-118.737061
  0
LINE
  8
0
 10
188.003387
 20
-118.737022
 11
187.503387
 21
-119.237022
  0
LINE
  8
0
 10
176.003326
 20
-118.737061
 11
176.503326
 21
-119.237061
  0
LINE
  8
0
 10
174.503387
 20
-118.237030
 11
201.503387
 21
-118.237030
  0
LINE
  8
0
 10
201.503387
 20
-117.237030
 11
201.503387
 21
-118.237030
  0
LINE
  8
0
 10
174.503387
 20
-117.237030
 11
174.503387
 21
-118.237030
  0
LINE
  8
0
 10
333.503387
 20
-224.237030
 11
333.503387
 21
-197.237030
  0
LINE
  8
0
 10
317.503387
 20
-224.237030
 11
317.503387
 21
-197.237030
  0
LINE
  8
0
 10
301.503387
 20
-224.237030
 11
301.503387
 21
-197.237030
  0
LINE
  8
0
 10
301.503387
 20
-224.237030
 11
333.503387
 21
-224.237030
  0
LINE
  8
0
  6
CENTER
 62
     2
 10
309.503387
 20
-157.437042
 11
309.503387
 21
-225.737030
  0
LINE
  8
0
 10
333.003387
 20
-172.237030
 11
302.003387
 21
-172.237030
  0
LINE
  8
0
 10
302.003387
 20
-196.237030
 11
333.003387
 21
-196.237030
  0
LINE
  8
0
 10
302.003387
 20
-196.237030
 11
302.003387
 21
-172.237030
  0
LINE
  8
0
 10
302.003174
 20
-172.236847
 11
302.503174
 21
-171.736832
  0
LINE
  8
0
 10
316.503326
 20
-171.736984
 11
317.003357
 21
-172.236984
  0
LINE
  8
0
 10
302.677979
 20
-166.737030
 11
306.003387
 21
-166.737030
  0
LINE
  8
0
 10
316.503143
 20
-171.737045
 11
316.328552
 21
-166.737045
  0
LINE
  8
0
 10
302.503235
 20
-171.737015
 11
302.677856
 21
-166.737015
  0
LINE
  8
0
 10
333.003387
 20
-196.237030
 11
333.003387
 21
-172.237000
  0
LINE
  8
0
 10
306.503387
 20
-169.037033
 11
312.503387
 21
-169.037033
  0
LINE
  8
0
 10
306.253387
 20
-172.237030
 11
306.253387
 21
-169.537033
  0
LINE
  8
0
 10
312.753387
 20
-172.237030
 11
312.753387
 21
-169.537033
  0
LINE
  8
0
 10
312.753326
 20
-169.537003
 11
312.253326
 21
-169.037018
  0
LINE
  8
0
 10
306.753296
 20
-169.036987
 11
306.253296
 21
-169.536972
  0
LINE
  8
0
 10
313.003387
 20
-168.537033
 11
313.003387
 21
-166.537033
  0
LINE
  8
0
 10
306.003387
 20
-168.537033
 11
306.003387
 21
-166.537033
  0
LINE
  8
0
 10
306.503387
 20
-166.037033
 11
312.503387
 21
-166.037033
  0
LINE
  8
0
 10
306.503418
 20
-169.037003
 11
306.003448
 21
-168.537018
  0
LINE
  8
0
 10
306.003357
 20
-166.537033
 11
306.503357
 21
-166.037048
  0
LINE
  8
0
 10
312.503448
 20
-166.037079
 11
313.003418
 21
-166.537064
  0
LINE
  8
0
 10
313.003143
 20
-168.536880
 11
312.503143
 21
-169.036865
  0
LINE
  8
0
 10
307.503387
 20
-164.437042
 11
311.503387
 21
-164.437042
  0
LINE
  8
0
 10
308.253387
 20
-166.037033
 11
308.253387
 21
-164.437042
  0
LINE
  8
0
 10
310.753387
 20
-166.037033
 11
310.753387
 21
-164.437042
  0
LINE
  8
0
 62
     2
 10
310.509888
 20
-166.037033
 11
310.509888
 21
-164.437042
  0
LINE
  8
0
 62
     2
 10
308.496887
 20
-166.037033
 11
308.496887
 21
-164.437042
  0
LINE
  8
0
 10
307.503387
 20
-159.437042
 11
311.503387
 21
-159.437042
  0
LINE
  8
0
 10
312.003387
 20
-163.937042
 11
312.003387
 21
-159.937042
  0
LINE
  8
0
 10
307.003387
 20
-163.937042
 11
307.003387
 21
-159.937042
  0
LINE
  8
0
 10
311.503296
 20
-164.436996
 11
312.003326
 21
-163.936981
  0
LINE
  8
0
 10
312.003418
 20
-159.937027
 11
311.503448
 21
-159.437042
  0
LINE
  8
0
 10
307.503479
 20
-159.437057
 11
307.003479
 21
-159.937057
  0
LINE
  8
0
 10
307.003387
 20
-163.936935
 11
307.503418
 21
-164.436966
  0
LINE
  8
0
 10
307.003387
 20
-159.937042
 11
312.003387
 21
-159.937042
  0
LINE
  8
0
 10
306.253387
 20
-169.537033
 11
312.753387
 21
-169.537033
  0
LINE
  8
0
 10
307.003387
 20
-163.937042
 11
312.003387
 21
-163.937042
  0
LINE
  8
0
 10
306.003387
 20
-166.537033
 11
313.003387
 21
-166.537033
  0
LINE
  8
0
 10
306.003387
 20
-168.537033
 11
313.003387
 21
-168.537033
  0
LINE
  8
0
 10
313.003387
 20
-166.737030
 11
316.328735
 21
-166.737030
  0
LINE
  8
0
  6
CENTER
 62
     2
 10
325.503387
 20
-146.280212
 11
325.503387
 21
-225.737030
  0
LINE
  8
0
 10
333.003387
 20
-147.437012
 11
333.003387
 21
-171.237000
  0
LINE
  8
0
 10
318.003387
 20
-147.437012
 11
318.003387
 21
-171.237000
  0
LINE
  8
0
 10
332.803375
 20
-147.237000
 11
318.203369
 21
-147.237000
  0
LINE
  8
0
  6
CENTER
 62
     2
 10
328.503387
 20
-159.237000
 11
322.503387
 21
-159.237000
  0
LINE
  8
0
  6
CENTER
 62
     2
 10
319.003387
 20
-181.237030
 11
332.003387
 21
-181.237030
  0
LINE
  8
0
 10
319.885315
 20
-181.837036
 11
331.121429
 21
-181.837036
  0
LINE
  8
0
 10
319.885315
 20
-180.637039
 11
331.121429
 21
-180.637039
  0
LINE
  8
0
 62
     4
 10
349.503387
 20
-224.237030
 11
349.503387
 21
-197.237030
  0
LINE
  8
0
 62
     4
 10
333.503387
 20
-224.237030
 11
349.503387
 21
-224.237030
  0
LINE
  8
0
  6
CENTER
 62
     1
 10
341.503387
 20
-190.537033
 11
341.503387
 21
-225.737030
  0
LINE
  8
0
 62
     4
 10
349.253387
 20
-192.243286
 11
349.253387
 21
-193.537033
  0
LINE
  8
0
 62
     4
 10
344.753387
 20
-192.243286
 11
344.753387
 21
-193.537033
  0
LINE
  8
0
 62
     4
 10
349.253418
 20
-193.537018
 11
333.753418
 21
-193.537018
  0
LINE
  8
0
 62
     4
 10
349.003387
 20
-194.037033
 11
349.003387
 21
-196.237030
  0
LINE
  8
0
 62
     4
 10
334.003387
 20
-194.037033
 11
334.003387
 21
-196.237030
  0
LINE
  8
0
 62
     4
 10
349.003418
 20
-195.537018
 11
334.003418
 21
-195.537018
  0
LINE
  8
0
 62
     4
 10
349.003418
 20
-196.237015
 11
334.003387
 21
-196.237015
  0
LINE
  8
0
 62
     4
 10
333.753387
 20
-192.243286
 11
333.753387
 21
-193.537033
  0
LINE
  8
0
 62
     4
 10
338.253387
 20
-192.243286
 11
338.253387
 21
-193.537033
  0
LINE
  8
0
 62
     4
 10
333.203400
 20
-171.237000
 11
347.803406
 21
-171.237000
  0
LINE
  8
0
 62
     4
 10
348.003387
 20
-191.237000
 11
348.003387
 21
-171.437012
  0
LINE
  8
0
 62
     4
 10
333.003387
 20
-191.237000
 11
348.003387
 21
-191.237000
  0
LINE
  8
0
 62
     4
 10
333.003479
 20
-171.437119
 11
333.203491
 21
-171.237106
  0
LINE
  8
0
 62
     4
 10
347.803406
 20
-171.237000
 11
348.003387
 21
-171.436996
  0
LINE
  8
0
 10
318.503387
 20
-196.237030
 11
318.503387
 21
-197.237030
  0
LINE
  8
0
 10
332.503387
 20
-197.237030
 11
332.503387
 21
-196.237030
  0
LINE
  8
0
 10
333.003387
 20
-171.237000
 11
318.003387
 21
-171.237000
  0
LINE
  8
0
 10
318.203369
 20
-171.237000
 11
318.203369
 21
-172.237000
  0
LINE
  8
0
 10
332.803406
 20
-172.237000
 11
318.203369
 21
-172.237000
  0
LINE
  8
0
 10
332.803406
 20
-171.237000
 11
332.803406
 21
-172.237000
  0
LINE
  8
0
 10
302.503387
 20
-196.237030
 11
302.503387
 21
-197.237030
  0
LINE
  8
0
 10
316.503387
 20
-197.237030
 11
316.503387
 21
-196.237030
  0
LINE
  8
0
 62
     4
 10
334.503418
 20
-196.237030
 11
334.503418
 21
-197.237030
  0
LINE
  8
0
 62
     4
 10
348.503418
 20
-196.237030
 11
348.503418
 21
-197.237030
  0
LINE
  8
0
 62
     4
 10
349.503387
 20
-197.237030
 11
333.503387
 21
-197.237030
  0
LINE
  8
0
 10
333.503387
 20
-197.237030
 11
301.503387
 21
-197.237030
  0
LINE
  8
0
 62
     4
 10
333.003387
 20
-172.237000
 11
333.003387
 21
-171.437012
  0
LINE
  8
0
  6
CENTER
 62
     2
 10
324.503387
 20
-197.711990
 11
324.503387
 21
-211.452866
  0
LINE
  8
0
  6
CENTER
 62
     2
 10
326.503387
 20
-210.025238
 11
326.503387
 21
-223.498428
  0
LINE
  8
0
  6
CENTER
 62
     2
 10
331.916199
 20
-204.737030
 11
317.729187
 21
-204.737030
  0
LINE
  8
0
  6
CENTER
 62
     2
 10
333.076141
 20
-216.737030
 11
319.870636
 21
-216.737030
  0
ARC
  8
0
 10
-346.593933
 20
233.462967
 40
0.199988
 50
214.417557
 51
270.000000
  0
ARC
  8
0
 10
-218.522141
 20
201.437683
 40
0.500000
 50
180.000000
 51
270.000000
  0
ARC
  8
0
 10
-205.871353
 20
201.437683
 40
0.500000
 50
270.000000
 51
0.000000
  0
ARC
  8
0
 10
-218.419388
 20
228.363068
 40
0.300003
 50
90.000000
 51
151.188828
  0
ARC
  8
0
 10
-205.974152
 20
228.363083
 40
0.299999
 50
28.811176
 51
90.000000
  0
CIRCLE
  8
0
 10
-212.196732
 20
196.763077
 40
1.599999
  0
ARC
  8
0
 62
     4
 10
-189.197098
 20
147.262756
 40
0.500000
 50
269.998260
 51
359.998260
  0
ARC
  8
0
 62
     4
 10
-203.197098
 20
147.263000
 40
0.500000
 50
179.998245
 51
269.998260
  0
ARC
  8
0
 62
     4
 10
-189.195740
 20
226.762756
 40
0.500000
 50
359.998260
 51
89.998253
  0
ARC
  8
0
 62
     4
 10
-203.195740
 20
226.763000
 40
0.500000
 50
89.998253
 51
179.998245
  0
ARC
  8
0
 62
     4
 10
-197.196747
 20
220.263077
 40
1.500000
 50
0.000000
 51
180.000000
  0
ARC
  8
0
 10
-290.196320
 20
201.420578
 40
0.500000
 50
272.000732
 51
0.000000
  0
ARC
  8
0
 10
-218.696548
 20
61.262962
 40
1.000000
 50
180.000000
 51
270.000000
  0
ARC
  8
0
 10
-218.696548
 20
83.262962
 40
1.000000
 50
90.000000
 51
180.000000
  0
ARC
  8
0
 10
-205.696548
 20
61.262962
 40
1.000000
 50
270.000000
 51
0.000000
  0
ARC
  8
0
 10
-205.696548
 20
83.262962
 40
1.000000
 50
0.000000
 51
90.000000
  0
ARC
  8
0
 10
-219.196548
 20
60.262962
 40
0.500000
 50
180.000000
 51
270.000000
  0
ARC
  8
0
 10
-205.196548
 20
60.262962
 40
0.500000
 50
270.000000
 51
0.000000
  0
ARC
  8
0
 10
-219.496552
 20
109.062981
 40
0.199997
 50
90.000000
 51
180.000000
  0
ARC
  8
0
 10
-204.896545
 20
109.062981
 40
0.199997
 50
0.000000
 51
90.000000
  0
CIRCLE
  8
0
 10
-212.196548
 20
97.262993
 40
2.500000
  0
CIRCLE
  8
0
 10
-212.196548
 20
75.262947
 40
5.650000
  0
ARC
  8
0
 10
-212.196548
 20
75.262947
 40
5.150000
 50
6.690413
 51
173.309586
  0
ARC
  8
0
 10
-212.196548
 20
75.262947
 40
5.150000
 50
186.690414
 51
353.309601
  0
ARC
  8
0
 62
     4
 10
-190.696548
 20
59.262962
 40
6.000002
 50
73.808617
 51
106.191238
  0
ARC
  8
0
 62
     4
 10
-189.246552
 20
64.256706
 40
0.800003
 50
0.000000
 51
73.808273
  0
ARC
  8
0
 62
     4
 10
-192.146561
 20
64.256706
 40
0.800005
 50
106.191727
 51
180.000000
  0
ARC
  8
0
 62
     4
 10
-203.146561
 20
64.256706
 40
0.800005
 50
106.191727
 51
180.000000
  0
ARC
  8
0
 62
     4
 10
-201.696548
 20
59.262966
 40
5.999999
 50
73.808609
 51
106.191254
  0
ARC
  8
0
 62
     4
 10
-200.246552
 20
64.256706
 40
0.800003
 50
0.000000
 51
73.808273
  0
CIRCLE
  8
0
 10
-213.196548
 20
51.762959
 40
5.599999
  0
ARC
  8
0
 10
-213.196548
 20
52.762959
 40
3.899994
 50
0.000000
 51
179.999939
  0
ARC
  8
0
 10
-213.196548
 20
50.762959
 40
3.899994
 50
180.000000
 51
359.999939
  0
CIRCLE
  8
0
 10
-213.196548
 20
51.762959
 40
2.000000
  0
CIRCLE
  8
0
 10
-213.196548
 20
51.762959
 40
5.099999
  0
ARC
  8
0
 10
-211.196548
 20
39.762962
 40
5.100006
 50
0.000000
 51
60.646545
  0
ARC
  8
0
 10
-211.196548
 20
39.762962
 40
5.100000
 50
119.353668
 51
0.000000
  0
ARC
  8
0
 10
58.449799
 20
133.612976
 40
4.000002
 50
347.148376
 51
0.000000
  0
CIRCLE
  8
0
 10
58.449799
 20
133.762970
 40
2.000000
  0
ARC
  8
0
 10
58.449799
 20
134.762970
 40
3.900002
 50
0.000000
 51
180.000000
  0
ARC
  8
0
 10
58.449799
 20
132.762970
 40
3.900002
 50
180.000000
 51
0.000000
  0
ARC
  8
0
 10
58.449799
 20
133.612976
 40
4.000000
 50
0.000000
 51
13.274586
  0
ARC
  8
0
 10
58.449799
 20
133.612976
 40
4.000000
 50
166.725418
 51
192.851639
  0
ARC
  8
0
 10
53.124397
 20
201.437683
 40
0.500000
 50
180.000000
 51
270.000000
  0
ARC
  8
0
 10
65.775185
 20
201.437683
 40
0.500000
 50
270.000000
 51
0.000000
  0
CIRCLE
  8
0
 10
59.449791
 20
196.763077
 40
1.599999
  0
ARC
  8
0
 62
     4
 10
82.449432
 20
147.262756
 40
0.500000
 50
269.999115
 51
359.998260
  0
ARC
  8
0
 62
     4
 10
68.449432
 20
147.263000
 40
0.500000
 50
179.998245
 51
269.999115
  0
ARC
  8
0
 62
     4
 10
82.450790
 20
226.762756
 40
0.500000
 50
359.998260
 51
89.999123
  0
ARC
  8
0
 62
     4
 10
68.450790
 20
226.763000
 40
0.500000
 50
89.999123
 51
179.998245
  0
ARC
  8
0
 62
     4
 10
74.449783
 20
220.263077
 40
1.500000
 50
0.000000
 51
180.000000
  0
ARC
  8
0
 10
-64.300018
 20
132.862976
 40
2.000000
 50
180.000000
 51
270.000000
  0
ARC
  8
0
 10
-25.899769
 20
201.420563
 40
0.499999
 50
272.000061
 51
0.000000
  0
ARC
  8
0
 10
-64.300018
 20
132.862976
 40
3.099998
 50
180.000000
 51
270.000000
  0
ARC
  8
0
 10
52.949982
 20
61.262970
 40
1.000000
 50
180.000000
 51
270.000000
  0
ARC
  8
0
 10
52.949982
 20
83.262970
 40
1.000000
 50
90.000000
 51
180.000000
  0
ARC
  8
0
 10
65.949982
 20
61.262970
 40
1.000000
 50
270.000000
 51
0.000000
  0
ARC
  8
0
 10
65.949982
 20
83.262970
 40
1.000000
 50
0.000000
 51
90.000000
  0
ARC
  8
0
 10
52.449982
 20
60.262970
 40
0.500000
 50
180.000000
 51
270.000000
  0
ARC
  8
0
 10
66.449982
 20
60.262970
 40
0.500000
 50
270.000000
 51
0.000000
  0
ARC
  8
0
 10
52.149979
 20
109.062988
 40
0.199997
 50
90.000000
 51
180.000000
  0
ARC
  8
0
 10
66.749985
 20
109.062988
 40
0.199997
 50
0.000000
 51
90.000000
  0
CIRCLE
  8
0
 10
59.449982
 20
97.263000
 40
2.500000
  0
CIRCLE
  8
0
 10
59.449982
 20
75.262955
 40
5.650000
  0
ARC
  8
0
 10
59.449982
 20
75.262955
 40
5.150000
 50
6.690413
 51
173.309586
  0
ARC
  8
0
 10
59.449982
 20
75.262955
 40
5.150000
 50
186.690414
 51
353.309601
  0
ARC
  8
0
 62
     4
 10
80.949982
 20
59.262970
 40
6.000000
 50
73.808693
 51
106.191307
  0
ARC
  8
0
 62
     4
 10
82.399979
 20
64.256714
 40
0.800003
 50
0.000000
 51
73.808800
  0
ARC
  8
0
 62
     4
 10
79.499969
 20
64.256714
 40
0.800003
 50
106.191200
 51
180.000000
  0
ARC
  8
0
 62
     4
 10
68.499969
 20
64.256714
 40
0.800003
 50
106.191200
 51
180.000000
  0
ARC
  8
0
 62
     4
 10
69.949982
 20
59.262974
 40
5.999997
 50
73.808678
 51
106.191322
  0
ARC
  8
0
 62
     4
 10
71.399979
 20
64.256714
 40
0.800003
 50
0.000000
 51
73.808800
  0
ARC
  8
0
 10
58.449978
 20
51.762970
 40
5.099998
 50
131.810303
 51
48.189762
  0
ARC
  8
0
 10
58.449978
 20
51.762970
 40
6.000001
 50
124.518112
 51
55.481934
  0
ARC
  8
0
 10
58.449978
 20
51.762970
 40
3.900001
 50
150.667923
 51
29.332281
  0
ARC
  8
0
 10
58.449978
 20
51.762970
 40
3.399998
 50
180.000061
 51
261.543365
  0
ARC
  8
0
 10
58.449978
 20
51.762970
 40
3.399998
 50
278.456390
 51
0.000064
  0
ARC
  8
0
 10
60.449978
 20
39.762966
 40
5.099999
 50
119.353477
 51
0.000000
  0
ARC
  8
0
 10
60.449978
 20
39.762966
 40
5.100002
 50
0.000000
 51
60.646523
  0
ARC
  8
0
 10
314.177856
 20
201.437683
 40
0.500000
 50
180.000000
 51
270.000000
  0
ARC
  8
0
 10
326.828674
 20
201.437683
 40
0.500000
 50
270.000000
 51
0.000000
  0
ARC
  8
0
 10
314.280640
 20
228.363068
 40
0.300003
 50
90.000000
 51
151.190231
  0
ARC
  8
0
 10
326.725861
 20
228.363083
 40
0.300013
 50
28.809772
 51
90.000000
  0
CIRCLE
  8
0
 10
320.503296
 20
196.763077
 40
1.599999
  0
ARC
  8
0
 62
     4
 10
343.502930
 20
147.262756
 40
0.500000
 50
270.000000
 51
359.998260
  0
ARC
  8
0
 62
     4
 10
329.502930
 20
147.263000
 40
0.500000
 50
179.998245
 51
270.000000
  0
ARC
  8
0
 62
     4
 10
343.504272
 20
226.762756
 40
0.500000
 50
359.998260
 51
90.000000
  0
ARC
  8
0
 62
     4
 10
329.504272
 20
226.763000
 40
0.500000
 50
90.000000
 51
179.998245
  0
ARC
  8
0
 62
     4
 10
335.503265
 20
220.263077
 40
1.500000
 50
0.000000
 51
180.000000
  0
ARC
  8
0
 10
242.503693
 20
201.420578
 40
0.500000
 50
272.000732
 51
0.000000
  0
ARC
  8
0
 10
186.106079
 20
233.462967
 40
0.200000
 50
214.415085
 51
270.000000
  0
ARC
  8
0
 10
314.003479
 20
61.262962
 40
1.000000
 50
180.000000
 51
270.000000
  0
ARC
  8
0
 10
314.003479
 20
83.262962
 40
1.000000
 50
90.000000
 51
180.000000
  0
ARC
  8
0
 10
327.003479
 20
61.262962
 40
1.000000
 50
270.000000
 51
0.000000
  0
ARC
  8
0
 10
327.003479
 20
83.262962
 40
1.000000
 50
0.000000
 51
90.000000
  0
ARC
  8
0
 10
313.503479
 20
60.262962
 40
0.500000
 50
180.000000
 51
270.000000
  0
ARC
  8
0
 10
327.503479
 20
60.262962
 40
0.500000
 50
270.000000
 51
0.000000
  0
ARC
  8
0
 10
313.203461
 20
109.062981
 40
0.199997
 50
90.000000
 51
180.000000
  0
ARC
  8
0
 10
327.803467
 20
109.062981
 40
0.200012
 50
0.000000
 51
90.000000
  0
CIRCLE
  8
0
 10
320.503479
 20
97.262993
 40
2.500000
  0
CIRCLE
  8
0
 10
320.503479
 20
75.262947
 40
5.650000
  0
ARC
  8
0
 10
320.503479
 20
75.262947
 40
5.150000
 50
6.690413
 51
173.309586
  0
ARC
  8
0
 10
320.503479
 20
75.262947
 40
5.150000
 50
186.690414
 51
353.309601
  0
ARC
  8
0
 62
     4
 10
342.003479
 20
59.262962
 40
5.999998
 50
73.808762
 51
106.191238
  0
ARC
  8
0
 62
     4
 10
343.453461
 20
64.256706
 40
0.799988
 50
0.000000
 51
73.808273
  0
ARC
  8
0
 62
     4
 10
340.553467
 20
64.256706
 40
0.800005
 50
106.191727
 51
180.000000
  0
ARC
  8
0
 62
     4
 10
329.553467
 20
64.256706
 40
0.800005
 50
106.191727
 51
180.000000
  0
ARC
  8
0
 62
     4
 10
331.003479
 20
59.262966
 40
5.999995
 50
73.808746
 51
106.191254
  0
ARC
  8
0
 62
     4
 10
332.453461
 20
64.256706
 40
0.799988
 50
0.000000
 51
73.808273
  0
CIRCLE
  8
0
 10
321.503448
 20
39.762966
 40
6.000000
  0
CIRCLE
  8
0
 62
     2
 10
319.503448
 20
51.762966
 40
4.000000
  0
CIRCLE
  8
0
 62
     2
 10
321.503448
 20
39.762966
 40
4.000000
  0
CIRCLE
  8
0
 10
319.503448
 20
51.762966
 40
3.625000
  0
CIRCLE
  8
0
 10
321.503448
 20
39.762966
 40
3.625000
  0
CIRCLE
  8
0
 10
319.503448
 20
51.762966
 40
6.000000
  0
CIRCLE
  8
0
 10
-223.196564
 20
-69.737030
 40
1.500000
  0
CIRCLE
  8
0
 10
-207.196564
 20
-69.737030
 40
1.500000
  0
CIRCLE
  8
0
 10
-223.196747
 20
-76.837029
 40
3.500000
  0
CIRCLE
  8
0
 10
-223.196747
 20
-76.837029
 40
3.000000
  0
CIRCLE
  8
0
 10
-223.196747
 20
-76.837029
 40
2.500000
  0
CIRCLE
  8
0
 10
-223.196747
 20
-76.837029
 40
2.000000
  0
CIRCLE
  8
0
 10
-223.196747
 20
-76.837029
 40
1.000000
  0
ARC
  8
0
 62
     4
 10
-184.197098
 20
-119.237244
 40
0.500000
 50
269.998260
 51
359.999115
  0
ARC
  8
0
 62
     4
 10
-198.197098
 20
-119.237000
 40
0.500000
 50
179.999130
 51
269.998260
  0
ARC
  8
0
 62
     4
 10
-184.195740
 20
-39.737244
 40
0.500000
 50
359.999115
 51
89.998253
  0
ARC
  8
0
 62
     4
 10
-198.195740
 20
-39.737000
 40
0.500000
 50
89.998253
 51
179.999130
  0
ARC
  8
0
 62
     4
 10
-192.196747
 20
-46.236923
 40
1.500000
 50
0.000000
 51
180.000000
  0
ARC
  8
0
 10
-281.396057
 20
-78.937256
 40
0.200012
 50
0.000000
 51
90.000000
  0
ARC
  8
0
 10
-301.196320
 20
-65.079422
 40
0.500000
 50
272.000732
 51
0.000000
  0
ARC
  8
0
 10
-214.196564
 20
-206.237030
 40
0.500000
 50
180.000000
 51
270.000000
  0
ARC
  8
0
 10
-200.196564
 20
-206.237030
 40
0.500000
 50
270.000000
 51
0.000000
  0
ARC
  8
0
 10
-207.196564
 20
-191.237030
 40
5.150001
 50
186.690491
 51
353.309509
  0
CIRCLE
  8
0
 10
-207.196564
 20
-169.237000
 40
2.500000
  0
CIRCLE
  8
0
 10
-207.196564
 20
-191.237030
 40
5.650000
  0
ARC
  8
0
 10
-207.196564
 20
-191.237030
 40
5.150001
 50
6.690498
 51
173.309509
  0
ARC
  8
0
 10
-230.196564
 20
-206.237030
 40
0.500000
 50
180.000000
 51
270.000000
  0
ARC
  8
0
 10
-216.196564
 20
-206.237030
 40
0.500000
 50
270.000000
 51
0.000000
  0
ARC
  8
0
 10
-214.496567
 20
-157.437012
 40
0.199997
 50
90.000000
 51
180.000000
  0
ARC
  8
0
 10
-199.896576
 20
-157.437012
 40
0.199997
 50
0.000000
 51
90.000000
  0
ARC
  8
0
 10
-199.896545
 20
-157.436996
 40
0.199997
 50
0.000000
 51
90.000000
  0
ARC
  8
0
 62
     4
 10
-185.696548
 20
-207.237030
 40
5.999995
 50
73.808601
 51
106.191261
  0
ARC
  8
0
 62
     4
 10
-184.246552
 20
-202.243286
 40
0.800003
 50
0.000000
 51
73.808121
  0
ARC
  8
0
 62
     4
 10
-187.146561
 20
-202.243286
 40
0.799998
 50
106.191879
 51
180.000000
  0
ARC
  8
0
 62
     4
 10
-184.196548
 20
-204.037033
 40
0.500000
 50
0.000000
 51
90.000000
  0
ARC
  8
0
 62
     4
 10
-198.196548
 20
-204.037033
 40
0.500000
 50
90.000000
 51
180.000000
  0
ARC
  8
0
 62
     4
 10
-198.146561
 20
-202.243286
 40
0.799998
 50
106.191879
 51
180.000000
  0
ARC
  8
0
 62
     4
 10
-196.696548
 20
-207.237030
 40
5.999995
 50
73.808601
 51
106.191261
  0
ARC
  8
0
 62
     4
 10
-195.246552
 20
-202.243286
 40
0.800003
 50
0.000000
 51
73.808121
  0
ARC
  8
0
 10
-208.196564
 20
-214.737030
 40
5.099993
 50
342.895508
 51
17.104481
  0
ARC
  8
0
 10
-208.196564
 20
-215.737030
 40
4.899994
 50
180.000000
 51
0.000000
  0
ARC
  8
0
 10
-208.196564
 20
-213.737030
 40
4.899994
 50
0.000000
 51
180.000000
  0
CIRCLE
  8
0
 10
-208.196564
 20
-214.737030
 40
3.000000
  0
ARC
  8
0
 10
-208.196564
 20
-214.737030
 40
5.099993
 50
162.895523
 51
197.104477
  0
ARC
  8
0
 10
-206.196564
 20
-226.737030
 40
5.100006
 50
0.000000
 51
60.646523
  0
ARC
  8
0
 10
-206.196564
 20
-226.737030
 40
5.099999
 50
119.353477
 51
0.000000
  0
CIRCLE
  8
0
 10
43.153412
 20
-69.737030
 40
1.500000
  0
CIRCLE
  8
0
 10
59.153412
 20
-69.737030
 40
1.500000
  0
CIRCLE
  8
0
 10
43.153229
 20
-76.837036
 40
3.500000
  0
CIRCLE
  8
0
 10
43.153229
 20
-76.837036
 40
3.000000
  0
CIRCLE
  8
0
 10
43.153229
 20
-76.837036
 40
2.500000
  0
CIRCLE
  8
0
 10
43.153229
 20
-76.837036
 40
2.000000
  0
CIRCLE
  8
0
 10
43.153229
 20
-76.837036
 40
1.000000
  0
ARC
  8
0
 62
     4
 10
82.152878
 20
-119.237244
 40
0.500000
 50
269.999115
 51
359.999115
  0
ARC
  8
0
 62
     4
 10
68.152878
 20
-119.237000
 40
0.500000
 50
179.999130
 51
269.999115
  0
ARC
  8
0
 62
     4
 10
82.154236
 20
-39.737244
 40
0.500000
 50
359.999115
 51
89.999123
  0
ARC
  8
0
 62
     4
 10
68.154236
 20
-39.737000
 40
0.500000
 50
89.999123
 51
179.999130
  0
ARC
  8
0
 62
     4
 10
74.153229
 20
-46.236923
 40
1.500000
 50
0.000000
 51
180.000000
  0
ARC
  8
0
 10
58.153244
 20
-133.737030
 40
5.250003
 50
154.306015
 51
205.693817
  0
ARC
  8
0
 10
58.153229
 20
-132.737030
 40
4.900002
 50
0.000000
 51
180.000000
  0
ARC
  8
0
 10
58.153229
 20
-134.737030
 40
4.900002
 50
180.000000
 51
0.000000
  0
CIRCLE
  8
0
 10
58.153244
 20
-133.737030
 40
3.000000
  0
ARC
  8
0
 10
58.153244
 20
-133.737030
 40
5.249999
 50
334.305267
 51
25.694914
  0
ARC
  8
0
 10
-34.846344
 20
-65.079422
 40
0.499999
 50
272.000275
 51
0.000000
  0
ARC
  8
0
 10
-15.046082
 20
-78.937256
 40
0.200000
 50
0.000000
 51
90.000000
  0
ARC
  8
0
 10
-73.346573
 20
-135.987030
 40
3.000000
 50
180.000000
 51
270.000000
  0
ARC
  8
0
 10
-73.346573
 20
-135.787033
 40
1.900002
 50
180.000000
 51
270.000000
  0
ARC
  8
0
 10
52.153412
 20
-206.237030
 40
0.500000
 50
180.000000
 51
270.000000
  0
ARC
  8
0
 10
66.153412
 20
-206.237030
 40
0.500000
 50
270.000000
 51
0.000000
  0
ARC
  8
0
 10
59.153412
 20
-191.237030
 40
5.150001
 50
186.690491
 51
353.309509
  0
CIRCLE
  8
0
 10
59.153412
 20
-169.237000
 40
2.500000
  0
CIRCLE
  8
0
 10
59.153412
 20
-191.237030
 40
5.650000
  0
ARC
  8
0
 10
59.153412
 20
-191.237030
 40
5.150001
 50
6.690498
 51
173.309509
  0
ARC
  8
0
 10
36.153412
 20
-206.237030
 40
0.500000
 50
180.000000
 51
270.000000
  0
ARC
  8
0
 10
50.153412
 20
-206.237030
 40
0.500000
 50
270.000000
 51
0.000000
  0
ARC
  8
0
 10
51.853409
 20
-157.437012
 40
0.199997
 50
90.000000
 51
180.000000
  0
ARC
  8
0
 10
66.453400
 20
-157.437012
 40
0.199997
 50
0.000000
 51
90.000000
  0
ARC
  8
0
 10
66.453430
 20
-157.436996
 40
0.199997
 50
0.000000
 51
90.000000
  0
ARC
  8
0
 62
     4
 10
80.653427
 20
-207.237030
 40
5.999993
 50
73.808670
 51
106.191330
  0
ARC
  8
0
 62
     4
 10
82.103424
 20
-202.243286
 40
0.800003
 50
0.000000
 51
73.808647
  0
ARC
  8
0
 62
     4
 10
79.203415
 20
-202.243286
 40
0.799996
 50
106.191353
 51
180.000000
  0
ARC
  8
0
 62
     4
 10
82.153427
 20
-204.037033
 40
0.500000
 50
0.000000
 51
90.000000
  0
ARC
  8
0
 62
     4
 10
68.153427
 20
-204.037033
 40
0.500000
 50
90.000000
 51
180.000000
  0
ARC
  8
0
 62
     4
 10
68.203415
 20
-202.243286
 40
0.799996
 50
106.191353
 51
180.000000
  0
ARC
  8
0
 62
     4
 10
69.653427
 20
-207.237030
 40
5.999993
 50
73.808670
 51
106.191330
  0
ARC
  8
0
 62
     4
 10
71.103424
 20
-202.243286
 40
0.800003
 50
0.000000
 51
73.808647
  0
ARC
  8
0
 10
58.153412
 20
-214.737030
 40
5.099999
 50
140.760696
 51
39.239513
  0
ARC
  8
0
 10
55.203400
 20
-212.137024
 40
1.000000
 50
180.000000
 51
267.134277
  0
ARC
  8
0
 10
58.153412
 20
-214.737030
 40
3.999998
 50
153.060532
 51
26.939713
  0
ARC
  8
0
 10
58.153412
 20
-214.737030
 40
6.000002
 50
131.172928
 51
48.827248
  0
ARC
  8
0
 10
61.103394
 20
-212.137024
 40
1.000000
 50
270.000000
 51
0.000000
  0
ARC
  8
0
 10
58.153397
 20
-214.737030
 40
2.900002
 50
180.000000
 51
0.000000
  0
ARC
  8
0
 10
60.153412
 20
-226.737030
 40
5.099998
 50
0.000000
 51
60.646523
  0
ARC
  8
0
 10
60.153412
 20
-226.737030
 40
5.099999
 50
119.353477
 51
0.000000
  0
CIRCLE
  8
0
 10
309.503387
 20
-59.737030
 40
1.500000
  0
CIRCLE
  8
0
 10
325.503387
 20
-59.737030
 40
1.500000
  0
CIRCLE
  8
0
 10
309.503204
 20
-66.837036
 40
3.500000
  0
CIRCLE
  8
0
 10
309.503204
 20
-66.837036
 40
3.000000
  0
CIRCLE
  8
0
 10
309.503204
 20
-66.837036
 40
2.500000
  0
CIRCLE
  8
0
 10
309.503204
 20
-66.837036
 40
2.000000
  0
CIRCLE
  8
0
 10
309.503204
 20
-66.837036
 40
1.000000
  0
ARC
  8
0
 62
     4
 10
348.502869
 20
-109.237244
 40
0.500000
 50
270.000000
 51
359.999115
  0
ARC
  8
0
 62
     4
 10
334.502869
 20
-109.237000
 40
0.500000
 50
179.999130
 51
270.000000
  0
ARC
  8
0
 62
     4
 10
348.504211
 20
-29.737244
 40
0.500000
 50
359.998901
 51
90.000000
  0
ARC
  8
0
 62
     4
 10
334.504211
 20
-29.737000
 40
0.500000
 50
90.000000
 51
179.999130
  0
ARC
  8
0
 62
     4
 10
340.503204
 20
-36.236923
 40
1.500000
 50
0.000000
 51
180.000000
  0
ARC
  8
0
 10
231.503632
 20
-55.079422
 40
0.500000
 50
272.000732
 51
0.000000
  0
ARC
  8
0
 10
251.303894
 20
-68.937256
 40
0.199997
 50
0.000000
 51
90.000000
  0
ARC
  8
0
 10
318.503387
 20
-196.237030
 40
0.500000
 50
180.000000
 51
270.000000
  0
ARC
  8
0
 10
332.503387
 20
-196.237030
 40
0.500000
 50
270.000000
 51
0.000000
  0
ARC
  8
0
 10
325.503387
 20
-181.237030
 40
5.150001
 50
186.690491
 51
353.309509
  0
CIRCLE
  8
0
 10
325.503387
 20
-159.237000
 40
2.500000
  0
CIRCLE
  8
0
 10
325.503387
 20
-181.237030
 40
5.650000
  0
ARC
  8
0
 10
325.503387
 20
-181.237030
 40
5.150001
 50
6.690498
 51
173.309509
  0
ARC
  8
0
 10
302.503387
 20
-196.237030
 40
0.500000
 50
180.000000
 51
270.000000
  0
ARC
  8
0
 10
316.503387
 20
-196.237030
 40
0.500000
 50
270.000000
 51
0.000000
  0
ARC
  8
0
 10
318.203369
 20
-147.437012
 40
0.199997
 50
90.000000
 51
180.000000
  0
ARC
  8
0
 10
332.803375
 20
-147.437012
 40
0.200012
 50
0.000000
 51
90.000000
  0
ARC
  8
0
 10
332.803406
 20
-147.436996
 40
0.200012
 50
0.000000
 51
90.000000
  0
ARC
  8
0
 62
     4
 10
347.003418
 20
-197.237030
 40
5.999991
 50
73.808739
 51
106.191261
  0
ARC
  8
0
 62
     4
 10
348.453400
 20
-192.243286
 40
0.799988
 50
0.000000
 51
73.808121
  0
ARC
  8
0
 62
     4
 10
345.553406
 20
-192.243286
 40
0.799998
 50
106.191879
 51
180.000000
  0
ARC
  8
0
 62
     4
 10
348.503418
 20
-194.037033
 40
0.500000
 50
0.000000
 51
90.000000
  0
ARC
  8
0
 62
     4
 10
334.503418
 20
-194.037033
 40
0.500000
 50
90.000000
 51
180.000000
  0
ARC
  8
0
 62
     4
 10
334.553406
 20
-192.243286
 40
0.799998
 50
106.191879
 51
180.000000
  0
ARC
  8
0
 62
     4
 10
336.003418
 20
-197.237030
 40
5.999991
 50
73.808739
 51
106.191261
  0
ARC
  8
0
 62
     4
 10
337.453400
 20
-192.243286
 40
0.799988
 50
0.000000
 51
73.808121
  0
CIRCLE
  8
0
 10
324.503387
 20
-204.737030
 40
6.000000
  0
CIRCLE
  8
0
 10
326.503387
 20
-216.737030
 40
6.000000
  0
CIRCLE
  8
0
 62
     2
 10
324.503387
 20
-204.737030
 40
4.000000
  0
CIRCLE
  8
0
 62
     2
 10
326.503387
 20
-216.737030
 40
4.000000
  0
CIRCLE
  8
0
 10
324.503387
 20
-204.737030
 40
3.625000
  0
CIRCLE
  8
0
 10
326.503387
 20
-216.737030
 40
3.625000
  0
TEXT
  8
0
 10
-345.785156
 20
253.500000
 40
12.500000
  1
X88M
 50
0.000000
 41
1.052632
 51
0.000000
  7
STANDARD
  0
TEXT
  8
0
 10
242.014816
 20
-274.500000
 40
12.500000
  1
KOGANEI CORP.
 50
0.000000
 41
1.052632
 51
0.000000
  7
STANDARD
  0
TEXT
  8
0
 10
251.264664
 20
256.649994
 40
9.000000
  1
DATE: OCT ,1993
 50
0.000000
 41
1.052632
 51
0.000000
  7
STANDARD
  0
TEXT
  8
0
 10
-350.825012
 20
1.950000
 40
7.000000
  1
MODEL:FMJ05E1-J4S(J6S)-E
 50
0.000000
 41
1.052632
 51
0.000000
  7
STANDARD
  0
TEXT
  8
0
 10
-84.475014
 20
1.950000
 40
7.000000
  1
MODEL:FMJ05E1-J4U(J6U)-E
 50
0.000000
 41
1.052632
 51
0.000000
  7
STANDARD
  0
TEXT
  8
0
 10
199.375000
 20
1.949999
 40
7.000000
  1
MODEL:FMJ05E1-M8M-E
 50
0.000000
 41
1.052632
 51
0.000000
  7
STANDARD
  0
TEXT
  8
0
 10
-350.825012
 20
-274.549988
 40
7.000000
  1
MODEL:FMJ05E2-J6S(J4S)-E
 50
0.000000
 41
1.052632
 51
0.000000
  7
STANDARD
  0
TEXT
  8
0
 10
-84.475014
 20
-274.549988
 40
7.000000
  1
MODEL:FMJ05E2-J6U(J4U)-E
 50
0.000000
 41
1.052632
 51
0.000000
  7
STANDARD
  0
TEXT
  8
0
 10
199.375000
 20
-249.550003
 40
7.000000
  1
MODEL:FMJ05E2-M8M-E
 50
0.000000
 41
1.052632
 51
0.000000
  7
STANDARD
  0
TEXT
  8
0
 10
-218.232178
 20
33.962959
 40
2.000000
  1
A
 50
0.000000
 41
1.052632
 51
0.000000
  7
STANDARD
  0
TEXT
  8
0
 10
-208.232178
 20
55.962963
 40
2.000000
  1
B
 50
0.000000
 41
1.052632
 51
0.000000
  7
STANDARD
  0
TEXT
  8
0
 10
53.414352
 20
33.962967
 40
2.000000
  1
A
 50
0.000000
 41
1.052632
 51
0.000000
  7
STANDARD
  0
TEXT
  8
0
 10
63.414356
 20
55.962967
 40
2.000000
  1
B
 50
0.000000
 41
1.052632
 51
0.000000
  7
STANDARD
  0
TEXT
  8
0
 10
-213.232193
 20
-232.537033
 40
2.000000
  1
A
 50
0.000000
 41
1.052632
 51
0.000000
  7
STANDARD
  0
TEXT
  8
0
 10
-203.232193
 20
-210.537033
 40
2.000000
  1
B
 50
0.000000
 41
1.052632
 51
0.000000
  7
STANDARD
  0
TEXT
  8
0
 10
53.117786
 20
-232.537033
 40
2.000000
  1
A
 50
0.000000
 41
1.052632
 51
0.000000
  7
STANDARD
  0
TEXT
  8
0
 10
63.117786
 20
-210.537033
 40
2.000000
  1
B
 50
0.000000
 41
1.052632
 51
0.000000
  7
STANDARD
  0
ENDSEC
  0
EOF
