  0
SECTION
  2
HEADER
  0
ENDSEC
  0
SECTION
  2
TABLES
  0
TABLE
  2
LTYPE
 70
     4
  0
LTYPE
  2
CONTINUOUS
 70
    64
  3
Solid line
 72
    65
 73
     0
 40
0.000000
  0
LTYPE
  2
DASHED
 70
    64
  3
__ __ __ __ __ __ __ __ __ __ __ __ __ __ __
 72
    65
 73
     2
 40
3.500000
 49
2.000000
 49
-1.500000
  0
LTYPE
  2
CENTER
 70
    64
  3
____ _ ____ _ ____ _ ____ _ ____ _ ____ _ ____
 72
    65
 73
     4
 40
17.500000
 49
13.000000
 49
-1.500000
 49
1.500000
 49
-1.500000
  0
LTYPE
  2
PHANTOM
 70
    64
  3
_____ _ _ _____ _ _ _____ _ _ _____ _ _ ____  
 72
    65
 73
     6
 40
15.500000
 49
8.000000
 49
-1.500000
 49
1.500000
 49
-1.500000
 49
1.500000
 49
-1.500000
  0
LTYPE
  2
DASHED1
 70
    64
  3
__ __ __ __ __ __ __ __ __ __ __ __ __ __ __
 72
    65
 73
     2
 40
1.500000
 49
1.000000
 49
-0.500000
  0
LTYPE
  2
DASHED2
 70
    64
  3
__ __ __ __ __ __ __ __ __ __ __ __ __ __ __
 72
    65
 73
     2
 40
3.500000
 49
2.500000
 49
-1.000000
  0
LTYPE
  2
DASHED3
 70
    64
  3
__ __ __ __ __ __ __ __ __ __ __ __ __ __ __
 72
    65
 73
     2
 40
6.000000
 49
4.000000
 49
-2.000000
  0
LTYPE
  2
DASHED4
 70
    64
  3
__ __ __ __ __ __ __ __ __ __ __ __ __ __ __
 72
    65
 73
     2
 40
12.000000
 49
10.000000
 49
-2.000000
  0
LTYPE
  2
DASHED5
 70
    64
  3
__ __ __ __ __ __ __ __ __ __ __ __ __ __ __
 72
    65
 73
     2
 40
17.000000
 49
15.000000
 49
-2.000000
  0
LTYPE
  2
DASHED6
 70
    64
  3
__ __ __ __ __ __ __ __ __ __ __ __ __ __ __
 72
    65
 73
     2
 40
29.000000
 49
27.000000
 49
-2.000000
  0
LTYPE
  2
PHANTOM1
 70
    64
  3
_____ _ _ _____ _ _ _____ _ _ _____ _ _ ____  
 72
    65
 73
     6
 40
31.000000
 49
25.000000
 49
-1.500000
 49
1.000000
 49
-1.000000
 49
1.000000
 49
-1.500000
  0
LTYPE
  2
PHANTOM2
 70
    64
  3
_____ _ _ _____ _ _ _____ _ _ _____ _ _ ____  
 72
    65
 73
     6
 40
36.000000
 49
27.000000
 49
-1.500000
 49
2.500000
 49
-1.000000
 49
2.500000
 49
-1.500000
  0
LTYPE
  2
PHANTOM3
 70
    64
  3
_____ _ _ _____ _ _ _____ _ _ _____ _ _ ____  
 72
    65
 73
     6
 40
78.000000
 49
64.000000
 49
-2.000000
 49
4.000000
 49
-2.000000
 49
4.000000
 49
-2.000000
  0
LTYPE
  2
CENTER1
 70
    64
  3
____ _ ____ _ ____ _ ____ _ ____ _ ____ _ ____
 72
    65
 73
     4
 40
19.000000
 49
14.000000
 49
-1.000000
 49
3.000000
 49
-1.000000
  0
LTYPE
  2
CENTER2
 70
    64
  3
____ _ ____ _ ____ _ ____ _ ____ _ ____ _ ____
 72
    65
 73
     4
 40
28.500000
 49
25.000000
 49
-1.000000
 49
1.500000
 49
-1.000000
  0
LTYPE
  2
CENTER3
 70
    64
  3
____ _ ____ _ ____ _ ____ _ ____ _ ____ _ ____
 72
    65
 73
     4
 40
31.500000
 49
27.000000
 49
-1.000000
 49
2.500000
 49
-1.000000
  0
LTYPE
  2
CENTER4
 70
    64
  3
____ _ ____ _ ____ _ ____ _ ____ _ ____ _ ____
 72
    65
 73
     4
 40
50.000000
 49
45.000000
 49
-1.000000
 49
3.000000
 49
-1.000000
  0
LTYPE
  2
CENTER5
 70
    64
  3
____ _ ____ _ ____ _ ____ _ ____ _ ____ _ ____
 72
    65
 73
     4
 40
100.000000
 49
92.000000
 49
-2.000000
 49
4.000000
 49
-2.000000
  0
LTYPE
  2
SBK1
 70
    64
  3
______ _ _ _ ______ _ _ _ ______ _ _ _ _____  
 72
    65
 73
     8
 40
60.500000
 49
45.000000
 49
-2.000000
 49
2.500000
 49
-2.000000
 49
2.500000
 49
-2.000000
 49
2.500000
 49
-2.000000
  0
LTYPE
  2
SBK2
 70
    64
  3
______ _ _ _ ______ _ _ _ ______ _ _ _ _____  
 72
    65
 73
     8
 40
84.000000
 49
64.000000
 49
-2.000000
 49
4.000000
 49
-2.000000
 49
4.000000
 49
-2.000000
 49
4.000000
 49
-2.000000
  0
LTYPE
  2
STCH
 70
    64
  3
__ __ __ __ __ __ __ __ __ __ __ __ __ __ __
 72
    65
 73
     2
 40
3.000000
 49
1.000000
 49
-2.000000
  0
LTYPE
  2
MTCH
 70
    64
  3
_____ _ _ _____ _ _ _____ _ _ _____ _ _ ____  
 72
    65
 73
     6
 40
80.000000
 49
66.000000
 49
-2.000000
 49
4.000000
 49
-2.000000
 49
4.000000
 49
-2.000000
  0
ENDTAB
  0
TABLE
  2
LAYER
 70
     1
  0
LAYER
  2
0
 70
     0
 62
     7
  6
CONTINUOUS
  0
ENDTAB
  0
TABLE
  2
STYLE
 70
     1
  0
STYLE
  2
STANDARD
 70
     0
 40
0.000000
 41
1.000000
 50
0.000000
 71
     0
 42
0.200000
  3
txt
  4
BIGFONT
  0
ENDTAB
  0
TABLE
  2
VIEW
 70
     0
  0
ENDTAB
  0
ENDSEC
  0
SECTION
  2
BLOCKS
  0
ENDSEC
  0
SECTION
  2
ENTITIES
  0
LINE
  8
0
 10
399.799988
 20
276.250000
 11
399.799988
 21
-276.750000
  0
LINE
  8
0
 10
-399.250000
 20
276.250000
 11
-399.250000
 21
-276.750000
  0
LINE
  8
0
 10
-399.250000
 20
276.250000
 11
399.799988
 21
276.250000
  0
LINE
  8
0
 10
-399.250000
 20
-276.750000
 11
399.799988
 21
-276.750000
  0
LINE
  8
0
 10
133.449997
 20
-251.750000
 11
399.799988
 21
-251.750000
  0
LINE
  8
0
 10
239.799988
 20
251.250000
 11
399.799988
 21
251.250000
  0
LINE
  8
0
 10
-399.250000
 20
251.250000
 11
-239.250000
 21
251.250000
  0
LINE
  8
0
 10
239.799988
 20
-251.750000
 11
239.799988
 21
-276.750000
  0
LINE
  8
0
 10
239.799988
 20
251.250000
 11
239.799988
 21
276.250000
  0
LINE
  8
0
 10
-239.250000
 20
276.250000
 11
-239.250000
 21
251.250000
  0
LINE
  8
0
 10
-399.250000
 20
-0.250000
 11
399.799988
 21
-0.250000
  0
LINE
  8
0
 62
     2
 10
-399.250000
 20
-261.750000
 11
133.449997
 21
-261.750000
  0
LINE
  8
0
 62
     2
 10
-399.250000
 20
14.750000
 11
399.799988
 21
14.750000
  0
LINE
  8
0
 10
-132.900009
 20
276.250000
 11
-132.900009
 21
-276.750000
  0
LINE
  8
0
 10
133.449997
 20
276.250000
 11
133.449997
 21
-276.750000
  0
LINE
  8
0
 62
     2
 10
133.449997
 20
-236.750000
 11
399.799988
 21
-236.750000
  0
LINE
  8
0
  6
PHANTOM
 62
     2
 10
-354.196564
 20
239.262970
 11
-327.696564
 21
239.262970
  0
LINE
  8
0
  6
PHANTOM
 62
     2
 10
-354.196564
 20
141.262970
 11
-327.196564
 21
141.262970
  0
LINE
  8
0
  6
PHANTOM
 62
     2
 10
-325.696594
 20
237.262985
 11
-325.696594
 21
211.262985
  0
LINE
  8
0
  6
PHANTOM
 62
     2
 10
-325.696503
 20
237.262939
 11
-327.696503
 21
239.262939
  0
LINE
  8
0
  6
PHANTOM
 62
     2
 10
-325.696594
 20
211.263046
 11
-327.196594
 21
209.763031
  0
LINE
  8
0
  6
PHANTOM
 62
     2
 10
-327.196564
 20
209.763123
 11
-327.196564
 21
141.262970
  0
LINE
  8
0
  6
PHANTOM
 62
     2
 10
-354.196564
 20
239.262970
 11
-354.196564
 21
141.262970
  0
LINE
  8
0
  6
PHANTOM
 62
     2
 10
-87.846596
 20
239.262970
 11
-61.346584
 21
239.262970
  0
LINE
  8
0
  6
PHANTOM
 62
     2
 10
-87.846596
 20
141.262970
 11
-60.846588
 21
141.262970
  0
LINE
  8
0
  6
PHANTOM
 62
     2
 10
-59.346603
 20
237.262985
 11
-59.346603
 21
211.262985
  0
LINE
  8
0
  6
PHANTOM
 62
     2
 10
-59.346596
 20
237.262955
 11
-61.346600
 21
239.262970
  0
LINE
  8
0
  6
PHANTOM
 62
     2
 10
-59.346622
 20
211.263031
 11
-60.846638
 21
209.763031
  0
LINE
  8
0
  6
PHANTOM
 62
     2
 10
-60.846588
 20
209.763123
 11
-60.846588
 21
141.262970
  0
LINE
  8
0
  6
PHANTOM
 62
     2
 10
-87.846596
 20
239.262970
 11
-87.846596
 21
141.262970
  0
LINE
  8
0
  6
PHANTOM
 62
     2
 10
178.503448
 20
239.262970
 11
205.003448
 21
239.262970
  0
LINE
  8
0
  6
PHANTOM
 62
     2
 10
178.503448
 20
141.262970
 11
205.503448
 21
141.262970
  0
LINE
  8
0
  6
PHANTOM
 62
     2
 10
207.003433
 20
237.262985
 11
207.003433
 21
211.262985
  0
LINE
  8
0
  6
PHANTOM
 62
     2
 10
207.003418
 20
237.262909
 11
205.003418
 21
239.262909
  0
LINE
  8
0
  6
PHANTOM
 62
     2
 10
207.003403
 20
211.263077
 11
205.503387
 21
209.763062
  0
LINE
  8
0
  6
PHANTOM
 62
     2
 10
205.503448
 20
209.763123
 11
205.503448
 21
141.262970
  0
LINE
  8
0
  6
PHANTOM
 62
     2
 10
178.503448
 20
239.262970
 11
178.503448
 21
141.262970
  0
LINE
  8
0
  6
PHANTOM
 62
     2
 10
-371.696564
 20
-12.237030
 11
-345.196564
 21
-12.237030
  0
LINE
  8
0
  6
PHANTOM
 62
     2
 10
-371.696564
 20
-110.237030
 11
-344.696564
 21
-110.237030
  0
LINE
  8
0
  6
PHANTOM
 62
     2
 10
-343.196594
 20
-14.237015
 11
-343.196594
 21
-40.237015
  0
LINE
  8
0
  6
PHANTOM
 62
     2
 10
-343.196472
 20
-14.236965
 11
-345.196503
 21
-12.236963
  0
LINE
  8
0
  6
PHANTOM
 62
     2
 10
-343.196533
 20
-40.236980
 11
-344.696564
 21
-41.736996
  0
LINE
  8
0
  6
PHANTOM
 62
     2
 10
-344.696564
 20
-41.736877
 11
-344.696564
 21
-110.237030
  0
LINE
  8
0
  6
PHANTOM
 62
     2
 10
-371.696564
 20
-12.237030
 11
-371.696564
 21
-110.237030
  0
LINE
  8
0
  6
PHANTOM
 62
     2
 10
-105.346596
 20
-12.237030
 11
-78.846588
 21
-12.237030
  0
LINE
  8
0
  6
PHANTOM
 62
     2
 10
-105.346596
 20
-110.237030
 11
-78.346588
 21
-110.237030
  0
LINE
  8
0
  6
PHANTOM
 62
     2
 10
-76.846603
 20
-14.237015
 11
-76.846603
 21
-40.237015
  0
LINE
  8
0
  6
PHANTOM
 62
     2
 10
-76.846573
 20
-14.237038
 11
-78.846573
 21
-12.237036
  0
LINE
  8
0
  6
PHANTOM
 62
     2
 10
-76.846634
 20
-40.236935
 11
-78.346649
 21
-41.736946
  0
LINE
  8
0
  6
PHANTOM
 62
     2
 10
-78.346588
 20
-41.736877
 11
-78.346588
 21
-110.237030
  0
LINE
  8
0
  6
PHANTOM
 62
     2
 10
-105.346596
 20
-12.237030
 11
-105.346596
 21
-110.237030
  0
LINE
  8
0
  6
PHANTOM
 62
     2
 10
161.003387
 20
-12.237030
 11
187.503387
 21
-12.237030
  0
LINE
  8
0
  6
PHANTOM
 62
     2
 10
161.003387
 20
-110.237030
 11
188.003387
 21
-110.237030
  0
LINE
  8
0
  6
PHANTOM
 62
     2
 10
189.503372
 20
-14.237015
 11
189.503372
 21
-40.237015
  0
LINE
  8
0
  6
PHANTOM
 62
     2
 10
189.503342
 20
-14.237046
 11
187.503326
 21
-12.237044
  0
LINE
  8
0
  6
PHANTOM
 62
     2
 10
189.503311
 20
-40.236885
 11
188.003296
 21
-41.736897
  0
LINE
  8
0
  6
PHANTOM
 62
     2
 10
188.003387
 20
-41.736877
 11
188.003387
 21
-110.237030
  0
LINE
  8
0
  6
PHANTOM
 62
     2
 10
161.003387
 20
-12.237030
 11
161.003387
 21
-110.237030
  0
LINE
  8
0
 10
-206.296570
 20
137.862976
 11
-214.096558
 21
137.862976
  0
LINE
  8
0
 10
-206.296570
 20
139.062973
 11
-214.096558
 21
139.062973
  0
LINE
  8
0
 10
-212.696564
 20
139.562973
 11
-212.696564
 21
139.062973
  0
LINE
  8
0
 10
-207.696564
 20
139.562973
 11
-207.696564
 21
139.062973
  0
LINE
  8
0
 10
-206.446564
 20
139.562973
 11
-213.946564
 21
139.562973
  0
LINE
  8
0
 10
-215.296570
 20
141.262970
 11
-215.296570
 21
140.562973
  0
LINE
  8
0
 10
-205.096558
 20
141.262970
 11
-205.096558
 21
140.562973
  0
LINE
  8
0
 10
-214.096558
 20
139.062973
 11
-214.096558
 21
137.862976
  0
LINE
  8
0
 10
-206.296570
 20
139.062973
 11
-206.296570
 21
137.862976
  0
LINE
  8
0
 10
-213.946564
 20
139.841278
 11
-213.946564
 21
139.562973
  0
LINE
  8
0
 10
-206.446564
 20
139.841278
 11
-206.446564
 21
139.562973
  0
LINE
  8
0
 10
-205.096558
 20
140.562973
 11
-215.296570
 21
140.562973
  0
LINE
  8
0
 10
-205.096573
 20
140.562988
 11
-206.446564
 21
139.841293
  0
LINE
  8
0
 10
-213.946548
 20
139.841263
 11
-215.296539
 21
140.562943
  0
LINE
  8
0
 10
-206.446564
 20
139.841278
 11
-213.946564
 21
139.841278
  0
LINE
  8
0
  6
CENTER
 62
     2
 10
-210.196564
 20
143.262970
 11
-210.196564
 21
135.862976
  0
LINE
  8
0
 10
-198.196564
 20
239.262970
 11
-198.196564
 21
222.263077
  0
LINE
  8
0
 62
     4
 10
-182.196564
 20
239.262970
 11
-182.196564
 21
141.262970
  0
LINE
  8
0
 62
     4
 10
-198.196564
 20
239.262970
 11
-191.946747
 21
239.262970
  0
LINE
  8
0
 62
     4
 10
-182.695755
 20
228.762741
 11
-182.697098
 21
149.262756
  0
LINE
  8
0
 62
     4
 10
-197.695755
 20
228.763000
 11
-197.695862
 21
222.263062
  0
LINE
  8
0
 62
     4
 10
-183.195724
 20
229.262756
 11
-189.696732
 21
229.262863
  0
LINE
  8
0
 62
     4
 10
-183.197098
 20
148.762756
 11
-197.197098
 21
148.762985
  0
LINE
  8
0
 62
     4
 10
-197.697083
 20
149.763092
 11
-197.697098
 21
149.263000
  0
LINE
  8
0
 62
     4
 10
-183.696747
 20
149.763092
 11
-183.696747
 21
222.263077
  0
LINE
  8
0
 62
     4
 10
-198.696747
 20
149.763077
 11
-183.696747
 21
149.763077
  0
LINE
  8
0
 10
-198.196564
 20
149.763077
 11
-198.196564
 21
141.262970
  0
LINE
  8
0
 62
     4
 10
-198.696747
 20
222.263077
 11
-183.696747
 21
222.263077
  0
LINE
  8
0
  6
CENTER
 62
     1
 10
-191.196747
 20
146.585373
 11
-191.196747
 21
243.124954
  0
LINE
  8
0
 62
     4
 10
-197.696732
 20
222.263062
 11
-196.696732
 21
224.763077
  0
LINE
  8
0
 62
     4
 10
-196.696747
 20
224.763077
 11
-185.696747
 21
224.763077
  0
LINE
  8
0
 62
     4
 10
-185.696732
 20
224.763016
 11
-184.696732
 21
222.263031
  0
LINE
  8
0
 62
     4
 10
-189.696747
 20
224.763077
 11
-189.696747
 21
229.733887
  0
LINE
  8
0
 62
     4
 10
-192.696747
 20
224.763077
 11
-192.696747
 21
230.262909
  0
LINE
  8
0
 62
     4
 10
-192.696732
 20
229.262909
 11
-197.195724
 21
229.262985
  0
LINE
  8
0
 62
     1
 10
-188.696762
 20
229.557541
 11
-193.696747
 21
230.439255
  0
LINE
  8
0
 62
     1
 10
-188.696732
 20
231.588379
 11
-193.696716
 21
232.470093
  0
LINE
  8
0
 62
     4
 10
-192.696747
 20
232.293777
 11
-192.696747
 21
234.428009
  0
LINE
  8
0
 62
     4
 10
-189.696747
 20
231.764740
 11
-189.696747
 21
234.428009
  0
LINE
  8
0
 62
     4
 10
-192.696747
 20
234.428009
 11
-189.696747
 21
234.428009
  0
LINE
  8
0
 10
-198.696747
 20
159.013077
 11
-198.196747
 21
159.013077
  0
LINE
  8
0
 10
-198.696747
 20
165.513077
 11
-198.196747
 21
165.513077
  0
LINE
  8
0
 10
-198.196747
 20
159.013077
 11
-198.196747
 21
165.513077
  0
LINE
  8
0
 62
     4
 10
-191.946747
 20
242.428009
 11
-190.446747
 21
242.428009
  0
LINE
  8
0
 62
     4
 10
-191.946747
 20
234.428009
 11
-191.946747
 21
242.428009
  0
LINE
  8
0
 62
     4
 10
-190.946747
 20
234.428009
 11
-190.946747
 21
242.428009
  0
LINE
  8
0
 62
     4
 10
-191.446747
 20
234.428009
 11
-191.446747
 21
242.428009
  0
LINE
  8
0
 62
     4
 10
-190.446747
 20
234.428009
 11
-190.446747
 21
242.428009
  0
LINE
  8
0
 62
     4
 10
-190.446747
 20
239.262970
 11
-182.196564
 21
239.262970
  0
LINE
  8
0
 10
-217.196564
 20
239.262970
 11
-217.196564
 21
141.262970
  0
LINE
  8
0
 10
-217.196564
 20
239.262970
 11
-198.196564
 21
239.262970
  0
LINE
  8
0
 10
-217.196564
 20
237.262970
 11
-214.976486
 21
237.262970
  0
LINE
  8
0
  6
CENTER
 62
     2
 10
-207.696564
 20
242.262985
 11
-207.696564
 21
136.846313
  0
LINE
  8
0
 10
-215.696548
 20
210.462936
 11
-216.696548
 21
209.462952
  0
LINE
  8
0
 10
-199.696609
 20
210.462967
 11
-198.696609
 21
209.462967
  0
LINE
  8
0
  6
CENTER
 62
     2
 10
-210.618286
 20
206.962967
 11
-204.786880
 21
206.962967
  0
LINE
  8
0
 10
-216.696579
 20
209.462967
 11
-198.696579
 21
209.462967
  0
LINE
  8
0
 10
-215.696579
 20
210.462967
 11
-199.696594
 21
210.462967
  0
LINE
  8
0
 10
-214.521973
 20
211.137589
 11
-200.871185
 21
211.137589
  0
LINE
  8
0
 10
-213.196579
 20
212.262970
 11
-202.196579
 21
212.262970
  0
LINE
  8
0
 10
-213.196579
 20
226.462997
 11
-202.196579
 21
226.462997
  0
LINE
  8
0
 10
-213.196579
 20
233.962997
 11
-202.196579
 21
233.962997
  0
LINE
  8
0
 10
-213.196579
 20
233.962997
 11
-213.196579
 21
226.462997
  0
LINE
  8
0
 10
-202.196579
 20
233.962997
 11
-202.196579
 21
226.462997
  0
LINE
  8
0
 10
-204.196579
 20
219.462982
 11
-204.196579
 21
215.462982
  0
LINE
  8
0
 10
-211.196579
 20
219.462997
 11
-211.196579
 21
215.462997
  0
LINE
  8
0
 10
-213.196579
 20
224.763000
 11
-213.196579
 21
212.262985
  0
LINE
  8
0
 10
-202.196579
 20
224.763000
 11
-202.196579
 21
212.262985
  0
LINE
  8
0
 10
-213.196579
 20
224.762985
 11
-202.196579
 21
224.762985
  0
LINE
  8
0
 10
-211.196579
 20
215.462982
 11
-204.196579
 21
215.462982
  0
LINE
  8
0
 10
-211.196579
 20
219.462982
 11
-204.196579
 21
219.462982
  0
LINE
  8
0
 10
-215.196579
 20
236.862991
 11
-200.196579
 21
236.862991
  0
LINE
  8
0
 10
-214.096451
 20
238.862991
 11
-201.296494
 21
238.862991
  0
LINE
  8
0
 10
-214.521973
 20
235.662994
 11
-214.521973
 21
211.137589
  0
LINE
  8
0
 10
-200.871185
 20
235.663010
 11
-200.871185
 21
211.137589
  0
LINE
  8
0
 10
-215.196396
 20
236.862885
 11
-214.096359
 21
238.862930
  0
LINE
  8
0
 10
-201.296448
 20
238.862946
 11
-200.196457
 21
236.862961
  0
LINE
  8
0
 10
-200.196579
 20
236.862991
 11
-200.196579
 21
210.462997
  0
LINE
  8
0
 10
-215.196579
 20
236.862991
 11
-215.196579
 21
210.462997
  0
LINE
  8
0
 10
-200.416428
 20
237.262970
 11
-198.196564
 21
237.262970
  0
LINE
  8
0
 10
-217.196564
 20
211.262970
 11
-215.196579
 21
211.262970
  0
LINE
  8
0
 10
-217.196564
 20
209.762970
 11
-216.396576
 21
209.762970
  0
LINE
  8
0
 10
-200.196579
 20
211.262970
 11
-198.696564
 21
211.262970
  0
LINE
  8
0
 10
-198.996582
 20
209.762970
 11
-198.696564
 21
209.762970
  0
LINE
  8
0
 10
-216.696564
 20
209.462982
 11
-216.696564
 21
142.262970
  0
LINE
  8
0
 62
     4
 10
-198.696564
 20
222.263077
 11
-198.696564
 21
209.462967
  0
LINE
  8
0
 62
     4
 10
-198.196564
 20
141.262970
 11
-182.196564
 21
141.262970
  0
LINE
  8
0
 10
-216.696564
 20
192.262970
 11
-198.696564
 21
192.262970
  0
LINE
  8
0
 62
     4
 10
-183.696747
 20
182.262970
 11
-198.696564
 21
182.262970
  0
LINE
  8
0
 10
-198.696548
 20
157.262970
 11
-216.696548
 21
157.262970
  0
LINE
  8
0
 10
-198.696564
 20
142.262970
 11
-216.696564
 21
142.262970
  0
LINE
  8
0
 10
-216.696594
 20
157.263016
 11
-216.196609
 21
142.263016
  0
LINE
  8
0
 10
-198.696609
 20
157.262985
 11
-199.196609
 21
142.262985
  0
LINE
  8
0
 10
-215.196579
 20
235.662994
 11
-200.196579
 21
235.662994
  0
LINE
  8
0
 10
-215.196579
 20
235.862991
 11
-200.196579
 21
235.862991
  0
LINE
  8
0
 10
-198.696564
 20
182.262970
 11
-216.696548
 21
182.262970
  0
LINE
  8
0
 10
-198.696564
 20
209.462967
 11
-198.696564
 21
142.262970
  0
LINE
  8
0
 10
-217.196564
 20
141.262970
 11
-198.196564
 21
141.262970
  0
LINE
  8
0
  6
CENTER
 62
     2
 10
-336.196564
 20
143.262985
 11
-336.196564
 21
135.862976
  0
LINE
  8
0
 10
-331.296570
 20
137.862976
 11
-341.096558
 21
137.862976
  0
LINE
  8
0
 10
-331.296570
 20
139.062988
 11
-331.296570
 21
137.862991
  0
LINE
  8
0
 10
-341.096558
 20
139.062973
 11
-341.096558
 21
137.862976
  0
LINE
  8
0
 10
-331.296570
 20
139.062973
 11
-341.096558
 21
139.062973
  0
LINE
  8
0
 10
-338.696564
 20
139.562973
 11
-338.696564
 21
139.062973
  0
LINE
  8
0
 10
-333.696564
 20
139.562973
 11
-333.696564
 21
139.062973
  0
LINE
  8
0
 10
-332.446564
 20
139.562973
 11
-339.946564
 21
139.562973
  0
LINE
  8
0
 10
-341.296570
 20
141.262985
 11
-341.296570
 21
140.562973
  0
LINE
  8
0
 10
-331.096558
 20
141.262985
 11
-331.096558
 21
140.562988
  0
LINE
  8
0
 10
-331.096558
 20
140.562973
 11
-341.296570
 21
140.562973
  0
LINE
  8
0
 10
-339.946564
 20
139.841293
 11
-339.946564
 21
139.562973
  0
LINE
  8
0
 10
-332.446564
 20
139.841293
 11
-332.446564
 21
139.562988
  0
LINE
  8
0
 10
-331.096527
 20
140.562927
 11
-332.446533
 21
139.841232
  0
LINE
  8
0
 10
-339.946594
 20
139.841385
 11
-341.296600
 21
140.563065
  0
LINE
  8
0
 10
-332.446564
 20
139.841293
 11
-339.946564
 21
139.841293
  0
LINE
  8
0
 10
-298.196625
 20
156.262985
 11
-299.196625
 21
156.262985
  0
LINE
  8
0
 10
-298.196625
 20
182.262985
 11
-299.196625
 21
182.262985
  0
LINE
  8
0
 10
-299.196625
 20
182.262985
 11
-299.196625
 21
156.262985
  0
LINE
  8
0
 10
-326.196564
 20
205.762970
 11
-327.196564
 21
205.762970
  0
LINE
  8
0
 10
-295.196625
 20
235.662979
 11
-325.196625
 21
235.662979
  0
LINE
  8
0
  6
CENTER
 62
     2
 10
-312.696625
 20
241.812988
 11
-312.696625
 21
138.312988
  0
LINE
  8
0
 10
-299.196625
 20
209.462982
 11
-299.196625
 21
182.262985
  0
LINE
  8
0
 10
-325.196594
 20
210.462891
 11
-326.196594
 21
209.462891
  0
LINE
  8
0
 10
-300.196625
 20
210.462982
 11
-299.196625
 21
209.462982
  0
LINE
  8
0
 10
-325.196625
 20
210.462982
 11
-300.196625
 21
210.462982
  0
LINE
  8
0
 10
-326.196625
 20
209.462982
 11
-299.196625
 21
209.462982
  0
LINE
  8
0
 10
-326.196625
 20
192.262985
 11
-299.196625
 21
192.262985
  0
LINE
  8
0
 10
-326.196594
 20
209.462982
 11
-326.196594
 21
141.762985
  0
LINE
  8
0
 10
-300.696655
 20
210.463058
 11
-300.196655
 21
210.963058
  0
LINE
  8
0
 10
-300.196564
 20
210.963043
 11
-295.679108
 21
211.120789
  0
LINE
  8
0
 10
-300.196625
 20
210.962982
 11
-300.196625
 21
236.862991
  0
LINE
  8
0
 10
-325.196625
 20
236.862991
 11
-295.196625
 21
236.862991
  0
LINE
  8
0
 10
-324.196533
 20
238.862991
 11
-301.696625
 21
238.862991
  0
LINE
  8
0
 10
-325.196655
 20
236.863007
 11
-324.196625
 21
238.863052
  0
LINE
  8
0
 10
-300.696594
 20
236.862991
 11
-301.696594
 21
238.863007
  0
LINE
  8
0
 10
-325.196625
 20
236.862991
 11
-325.196625
 21
210.462982
  0
LINE
  8
0
 10
-295.196625
 20
236.862991
 11
-295.196625
 21
211.620438
  0
LINE
  8
0
 10
-300.696625
 20
236.862991
 11
-300.696625
 21
210.462982
  0
LINE
  8
0
 10
-299.196625
 20
141.762985
 11
-326.196564
 21
141.762985
  0
LINE
  8
0
 10
-299.196625
 20
156.262985
 11
-299.196625
 21
141.762985
  0
LINE
  8
0
 10
-271.696625
 20
141.762985
 11
-297.489594
 21
141.762985
  0
LINE
  8
0
 10
-271.196625
 20
156.762985
 11
-298.196625
 21
156.762985
  0
LINE
  8
0
 10
-271.196625
 20
181.762985
 11
-298.196625
 21
181.762985
  0
LINE
  8
0
 10
-271.196625
 20
191.762985
 11
-298.196625
 21
191.762985
  0
LINE
  8
0
 10
-298.196625
 20
156.262985
 11
-298.196625
 21
191.762985
  0
LINE
  8
0
 10
-271.696625
 20
141.763000
 11
-271.196625
 21
156.763016
  0
LINE
  8
0
 10
-297.703278
 20
141.962891
 11
-298.196625
 21
156.763000
  0
LINE
  8
0
 10
-297.703278
 20
141.962875
 11
-297.489594
 21
141.762985
  0
LINE
  8
0
 62
     4
 10
-316.446075
 20
238.862991
 11
-316.446075
 21
242.427673
  0
LINE
  8
0
  6
CENTER
 62
     1
 10
-317.196075
 20
243.903336
 11
-317.196075
 21
238.862991
  0
LINE
  8
0
 62
     4
 10
-317.446075
 20
238.862991
 11
-317.446075
 21
242.427673
  0
LINE
  8
0
 62
     4
 10
-316.946075
 20
238.862991
 11
-316.946075
 21
242.427673
  0
LINE
  8
0
 62
     4
 10
-317.946075
 20
238.862991
 11
-317.946075
 21
242.427673
  0
LINE
  8
0
 62
     4
 10
-317.946075
 20
242.427673
 11
-316.446075
 21
242.427673
  0
LINE
  8
0
 10
-271.196625
 20
156.762985
 11
-271.196625
 21
191.762985
  0
LINE
  8
0
 10
-327.196564
 20
150.262985
 11
-326.196564
 21
150.262985
  0
LINE
  8
0
 10
-325.196625
 20
235.862976
 11
-295.196625
 21
235.862976
  0
LINE
  8
0
 10
-198.196579
 20
34.693333
 11
-198.196579
 21
61.693329
  0
LINE
  8
0
 10
-198.696579
 20
62.693325
 11
-198.696579
 21
89.693329
  0
LINE
  8
0
 62
     4
 10
-182.196579
 20
34.693333
 11
-182.196579
 21
61.693329
  0
LINE
  8
0
 62
     4
 10
-198.196579
 20
34.693336
 11
-182.196579
 21
34.693336
  0
LINE
  8
0
  6
CENTER
 62
     1
 10
-190.196579
 20
68.393326
 11
-190.196579
 21
33.193329
  0
LINE
  8
0
 62
     4
 10
-182.446564
 20
65.993332
 11
-186.946564
 21
65.993332
  0
LINE
  8
0
 62
     4
 10
-182.446579
 20
66.687080
 11
-182.446579
 21
65.393326
  0
LINE
  8
0
 62
     4
 10
-186.946579
 20
66.687073
 11
-186.946579
 21
65.393326
  0
LINE
  8
0
 62
     4
 10
-182.446564
 20
65.393326
 11
-197.946564
 21
65.393326
  0
LINE
  8
0
 62
     4
 10
-182.696579
 20
65.393326
 11
-182.696579
 21
62.693336
  0
LINE
  8
0
 62
     4
 10
-197.696579
 20
65.393326
 11
-197.696579
 21
62.693329
  0
LINE
  8
0
 62
     4
 10
-182.696564
 20
63.393341
 11
-197.696564
 21
63.393341
  0
LINE
  8
0
 62
     4
 10
-182.696579
 20
62.693340
 11
-197.696564
 21
62.693340
  0
LINE
  8
0
 62
     4
 10
-197.946579
 20
66.687073
 11
-197.946579
 21
65.393326
  0
LINE
  8
0
 62
     4
 10
-193.446579
 20
66.687080
 11
-193.446579
 21
65.393326
  0
LINE
  8
0
 62
     4
 10
-193.446564
 20
65.993332
 11
-197.946564
 21
65.993332
  0
LINE
  8
0
 62
     4
 10
-198.696579
 20
87.693359
 11
-183.696579
 21
87.693359
  0
LINE
  8
0
 62
     4
 10
-183.696579
 20
67.693359
 11
-183.696579
 21
87.693359
  0
LINE
  8
0
 62
     4
 10
-198.696579
 20
67.693359
 11
-183.696579
 21
67.693359
  0
LINE
  8
0
 10
-217.196564
 20
61.693329
 11
-217.196564
 21
34.693329
  0
LINE
  8
0
 10
-217.196564
 20
34.693329
 11
-198.196564
 21
34.693329
  0
LINE
  8
0
 10
-217.196564
 20
61.693329
 11
-198.196564
 21
61.693329
  0
LINE
  8
0
  6
CENTER
 62
     2
 10
-207.696564
 20
33.693329
 11
-207.696564
 21
119.693329
  0
LINE
  8
0
 10
-216.696564
 20
62.693329
 11
-216.696564
 21
89.693329
  0
LINE
  8
0
 10
-216.696564
 20
62.693329
 11
-198.696564
 21
62.693329
  0
LINE
  8
0
  6
CENTER
 62
     2
 10
-216.196564
 20
79.693329
 11
-199.196564
 21
79.693329
  0
LINE
  8
0
 10
-214.520233
 20
80.293320
 11
-200.872894
 21
80.293320
  0
LINE
  8
0
 10
-214.520233
 20
79.093323
 11
-200.872894
 21
79.093323
  0
LINE
  8
0
 10
-216.696564
 20
89.693329
 11
-198.696564
 21
89.693329
  0
LINE
  8
0
 10
-216.696564
 20
90.693329
 11
-198.696564
 21
90.693329
  0
LINE
  8
0
 10
-198.696564
 20
90.693329
 11
-198.696564
 21
117.693329
  0
LINE
  8
0
 10
-216.696564
 20
90.693329
 11
-216.696564
 21
117.693329
  0
LINE
  8
0
 10
-216.696564
 20
117.693329
 11
-198.696564
 21
117.693329
  0
LINE
  8
0
  6
CENTER
 62
     2
 10
-212.196564
 20
104.193314
 11
-203.196564
 21
104.193314
  0
LINE
  8
0
 10
-212.696564
 20
58.193325
 11
-212.696564
 21
57.704315
  0
LINE
  8
0
 10
-207.696564
 20
58.193325
 11
-207.696564
 21
57.704315
  0
LINE
  8
0
 10
-202.696564
 20
47.193325
 11
-202.696564
 21
46.138546
  0
LINE
  8
0
 10
-207.696564
 20
47.193325
 11
-207.696564
 21
46.138546
  0
LINE
  8
0
 10
-212.696564
 20
58.193325
 11
-211.250137
 21
58.193325
  0
LINE
  8
0
 10
-207.696564
 20
47.193325
 11
-202.696564
 21
47.193325
  0
LINE
  8
0
  6
CENTER
 62
     2
 10
-210.196564
 20
58.353436
 11
-210.196564
 21
47.079098
  0
LINE
  8
0
  6
CENTER
 62
     2
 10
-204.521317
 20
52.693325
 11
-216.137299
 21
52.693325
  0
LINE
  8
0
 10
-206.296570
 20
53.693333
 11
-206.296570
 21
51.693333
  0
LINE
  8
0
 10
-214.096573
 20
53.693333
 11
-214.096573
 21
51.693333
  0
LINE
  8
0
  6
CENTER
 62
     2
 10
-205.196564
 20
47.353436
 11
-205.196564
 21
36.079098
  0
LINE
  8
0
  6
CENTER
 62
     2
 10
-199.521317
 20
41.693325
 11
-211.137299
 21
41.693325
  0
LINE
  8
0
 10
-209.143005
 20
58.193325
 11
-207.696564
 21
58.193325
  0
LINE
  8
0
 62
     4
 10
-197.196564
 20
62.693329
 11
-197.196564
 21
61.693329
  0
LINE
  8
0
 62
     4
 10
-183.196564
 20
62.693329
 11
-183.196564
 21
61.693329
  0
LINE
  8
0
 62
     4
 10
-182.196579
 20
61.693333
 11
-198.196579
 21
61.693333
  0
LINE
  8
0
 10
-216.196564
 20
62.693329
 11
-216.196564
 21
61.693329
  0
LINE
  8
0
 10
-199.196564
 20
62.693325
 11
-199.196564
 21
61.693325
  0
LINE
  8
0
 10
-216.446564
 20
89.693329
 11
-216.446564
 21
90.693329
  0
LINE
  8
0
 10
-198.946564
 20
89.693329
 11
-198.946564
 21
90.693329
  0
LINE
  8
0
 10
68.198059
 20
239.262970
 11
68.198059
 21
222.263077
  0
LINE
  8
0
 62
     4
 10
84.198059
 20
239.262970
 11
84.198059
 21
141.262970
  0
LINE
  8
0
 62
     4
 10
68.198059
 20
239.262970
 11
74.447876
 21
239.262970
  0
LINE
  8
0
 62
     4
 10
83.698875
 20
228.762741
 11
83.697525
 21
149.262756
  0
LINE
  8
0
 62
     4
 10
68.698875
 20
228.763000
 11
68.698761
 21
222.263062
  0
LINE
  8
0
 62
     4
 10
83.198929
 20
229.262756
 11
76.697922
 21
229.262878
  0
LINE
  8
0
 62
     4
 10
83.197502
 20
148.762756
 11
69.197502
 21
148.763000
  0
LINE
  8
0
 62
     4
 10
68.697533
 20
149.763092
 11
68.697525
 21
149.263000
  0
LINE
  8
0
 62
     4
 10
82.697876
 20
149.763092
 11
82.697876
 21
222.263077
  0
LINE
  8
0
 62
     4
 10
67.697876
 20
149.763077
 11
82.697876
 21
149.763077
  0
LINE
  8
0
 10
68.198059
 20
149.763077
 11
68.198059
 21
141.262970
  0
LINE
  8
0
 62
     4
 10
67.697876
 20
222.263077
 11
82.697876
 21
222.263077
  0
LINE
  8
0
  6
CENTER
 62
     1
 10
75.197876
 20
146.585373
 11
75.197876
 21
243.124954
  0
LINE
  8
0
 62
     4
 10
68.697891
 20
222.263062
 11
69.697891
 21
224.763046
  0
LINE
  8
0
 62
     4
 10
69.697876
 20
224.763077
 11
80.697876
 21
224.763077
  0
LINE
  8
0
 62
     4
 10
80.697891
 20
224.763031
 11
81.697884
 21
222.263046
  0
LINE
  8
0
 62
     4
 10
76.697876
 20
224.763077
 11
76.697876
 21
229.733887
  0
LINE
  8
0
 62
     4
 10
73.697876
 20
224.763077
 11
73.697876
 21
230.262909
  0
LINE
  8
0
 62
     4
 10
73.697922
 20
229.262924
 11
69.198929
 21
229.263000
  0
LINE
  8
0
 62
     1
 10
77.697884
 20
229.557526
 11
72.697906
 21
230.439255
  0
LINE
  8
0
 62
     1
 10
77.697884
 20
231.588379
 11
72.697899
 21
232.470093
  0
LINE
  8
0
 62
     4
 10
73.697876
 20
232.293777
 11
73.697876
 21
234.428009
  0
LINE
  8
0
 62
     4
 10
76.697876
 20
231.764740
 11
76.697876
 21
234.428009
  0
LINE
  8
0
 62
     4
 10
73.697876
 20
234.428009
 11
76.697876
 21
234.428009
  0
LINE
  8
0
 10
67.697876
 20
159.013077
 11
68.197876
 21
159.013077
  0
LINE
  8
0
 10
67.697876
 20
165.513077
 11
68.197876
 21
165.513077
  0
LINE
  8
0
 10
68.197876
 20
159.013077
 11
68.197876
 21
165.513077
  0
LINE
  8
0
 62
     4
 10
74.447876
 20
242.428009
 11
75.947876
 21
242.428009
  0
LINE
  8
0
 62
     4
 10
74.447876
 20
234.428009
 11
74.447876
 21
242.428009
  0
LINE
  8
0
 62
     4
 10
75.447876
 20
234.428009
 11
75.447876
 21
242.428009
  0
LINE
  8
0
 62
     4
 10
74.947876
 20
234.428009
 11
74.947876
 21
242.428009
  0
LINE
  8
0
 62
     4
 10
75.947876
 20
234.428009
 11
75.947876
 21
242.428009
  0
LINE
  8
0
 62
     4
 10
75.947876
 20
239.262970
 11
84.198059
 21
239.262970
  0
LINE
  8
0
 10
49.198059
 20
239.262970
 11
49.198059
 21
141.262970
  0
LINE
  8
0
 10
49.198059
 20
239.262970
 11
68.198059
 21
239.262970
  0
LINE
  8
0
 10
49.198059
 20
237.262970
 11
51.418137
 21
237.262970
  0
LINE
  8
0
  6
CENTER
 62
     2
 10
58.698059
 20
242.262985
 11
58.698059
 21
136.846313
  0
LINE
  8
0
 10
50.698082
 20
210.462936
 11
49.698090
 21
209.462952
  0
LINE
  8
0
 10
66.697983
 20
210.462967
 11
67.697983
 21
209.462967
  0
LINE
  8
0
  6
CENTER
 62
     2
 10
55.776337
 20
206.962967
 11
61.607742
 21
206.962967
  0
LINE
  8
0
 10
49.698044
 20
209.462967
 11
67.698044
 21
209.462967
  0
LINE
  8
0
 10
50.698044
 20
210.462967
 11
66.698029
 21
210.462967
  0
LINE
  8
0
 10
51.872650
 20
211.137589
 11
65.523437
 21
211.137589
  0
LINE
  8
0
 10
53.198044
 20
212.262970
 11
64.198044
 21
212.262970
  0
LINE
  8
0
 10
53.198044
 20
226.462997
 11
64.198044
 21
226.462997
  0
LINE
  8
0
 10
53.198044
 20
233.962997
 11
64.198044
 21
233.962997
  0
LINE
  8
0
 10
53.198044
 20
233.962997
 11
53.198044
 21
226.462997
  0
LINE
  8
0
 10
64.198044
 20
233.962997
 11
64.198044
 21
226.462997
  0
LINE
  8
0
 10
62.198044
 20
219.462982
 11
62.198044
 21
215.462982
  0
LINE
  8
0
 10
55.198044
 20
219.462997
 11
55.198044
 21
215.462997
  0
LINE
  8
0
 10
53.198044
 20
224.763000
 11
53.198044
 21
212.262985
  0
LINE
  8
0
 10
64.198044
 20
224.763000
 11
64.198044
 21
212.262985
  0
LINE
  8
0
 10
53.198044
 20
224.762985
 11
64.198044
 21
224.762985
  0
LINE
  8
0
 10
55.198044
 20
215.462982
 11
62.198044
 21
215.462982
  0
LINE
  8
0
 10
55.198044
 20
219.462982
 11
62.198044
 21
219.462982
  0
LINE
  8
0
 10
51.198044
 20
236.862991
 11
66.198044
 21
236.862991
  0
LINE
  8
0
 10
52.298172
 20
238.862991
 11
65.098129
 21
238.862991
  0
LINE
  8
0
 10
51.872650
 20
235.662994
 11
51.872650
 21
211.137589
  0
LINE
  8
0
 10
65.523437
 20
235.663010
 11
65.523437
 21
211.137589
  0
LINE
  8
0
 10
51.198196
 20
236.862885
 11
52.298225
 21
238.862946
  0
LINE
  8
0
 10
65.098068
 20
238.862915
 11
66.198067
 21
236.862930
  0
LINE
  8
0
 10
66.198044
 20
236.862991
 11
66.198044
 21
210.462997
  0
LINE
  8
0
 10
51.198044
 20
236.862991
 11
51.198044
 21
210.462997
  0
LINE
  8
0
 10
65.978195
 20
237.262970
 11
68.198059
 21
237.262970
  0
LINE
  8
0
 10
49.198059
 20
211.262970
 11
51.198044
 21
211.262970
  0
LINE
  8
0
 10
49.198059
 20
209.762970
 11
49.998047
 21
209.762970
  0
LINE
  8
0
 10
66.198044
 20
211.262970
 11
67.698059
 21
211.262970
  0
LINE
  8
0
 10
67.398041
 20
209.762970
 11
67.698059
 21
209.762970
  0
LINE
  8
0
 10
49.698059
 20
209.462982
 11
49.698059
 21
142.262970
  0
LINE
  8
0
 62
     4
 10
67.698059
 20
222.263077
 11
67.698059
 21
209.462967
  0
LINE
  8
0
 62
     4
 10
68.198059
 20
141.262970
 11
84.198059
 21
141.262970
  0
LINE
  8
0
 10
49.698059
 20
192.262970
 11
67.698059
 21
192.262970
  0
LINE
  8
0
 62
     4
 10
82.697876
 20
182.262970
 11
67.698059
 21
182.262970
  0
LINE
  8
0
 10
67.698074
 20
157.262970
 11
49.698074
 21
157.262970
  0
LINE
  8
0
 10
67.698059
 20
142.262970
 11
49.698059
 21
142.262970
  0
LINE
  8
0
 10
51.198044
 20
235.662994
 11
66.198044
 21
235.662994
  0
LINE
  8
0
 10
51.198044
 20
235.862991
 11
66.198044
 21
235.862991
  0
LINE
  8
0
 10
67.698059
 20
182.262970
 11
49.698074
 21
182.262970
  0
LINE
  8
0
 10
67.698059
 20
209.462967
 11
67.698059
 21
142.262970
  0
LINE
  8
0
 10
49.198059
 20
141.262970
 11
68.198059
 21
141.262970
  0
LINE
  8
0
 10
49.698067
 20
157.263000
 11
50.198055
 21
142.263000
  0
LINE
  8
0
 10
67.698067
 20
157.263000
 11
67.198051
 21
142.263000
  0
LINE
  8
0
  6
CENTER
 62
     2
 10
50.298073
 20
135.762970
 11
62.098076
 21
135.762970
  0
LINE
  8
0
  6
CENTER
 62
     2
 10
56.198067
 20
143.262970
 11
56.198067
 21
129.762970
  0
LINE
  8
0
 10
50.048065
 20
141.262970
 11
50.048065
 21
140.462982
  0
LINE
  8
0
 10
62.048069
 20
140.462997
 11
61.148064
 21
139.462997
  0
LINE
  8
0
 10
50.948097
 20
139.462997
 11
50.048088
 21
140.463013
  0
LINE
  8
0
 10
52.298073
 20
134.762970
 11
52.298073
 21
136.762970
  0
LINE
  8
0
 10
60.098076
 20
134.762970
 11
60.098076
 21
136.762970
  0
LINE
  8
0
 10
50.948074
 20
139.462967
 11
53.383820
 21
139.462967
  0
LINE
  8
0
 10
62.048065
 20
140.462982
 11
62.048065
 21
141.262970
  0
LINE
  8
0
 10
62.048065
 20
140.462982
 11
57.430946
 21
140.462982
  0
LINE
  8
0
 10
52.198067
 20
139.462967
 11
52.198067
 21
138.462967
  0
LINE
  8
0
 10
60.198067
 20
139.462967
 11
60.198067
 21
138.462967
  0
LINE
  8
0
 10
52.198074
 20
138.462967
 11
52.688087
 21
138.462967
  0
LINE
  8
0
 10
59.804222
 20
138.248093
 11
60.198078
 21
138.462936
  0
LINE
  8
0
 10
52.591919
 20
138.248108
 11
52.198063
 21
138.462936
  0
LINE
  8
0
 10
59.708061
 20
138.462967
 11
60.198074
 21
138.462967
  0
LINE
  8
0
 10
59.012329
 20
139.462967
 11
61.148071
 21
139.462967
  0
LINE
  8
0
 10
54.965202
 20
140.462982
 11
50.048073
 21
140.462982
  0
LINE
  8
0
 10
-31.846649
 20
156.262985
 11
-32.846649
 21
156.262985
  0
LINE
  8
0
 10
-31.846649
 20
182.262985
 11
-32.846649
 21
182.262985
  0
LINE
  8
0
 10
-32.846649
 20
182.262985
 11
-32.846649
 21
156.262985
  0
LINE
  8
0
 10
-59.846588
 20
205.762970
 11
-60.846588
 21
205.762970
  0
LINE
  8
0
 10
-28.846649
 20
235.662979
 11
-58.846649
 21
235.662979
  0
LINE
  8
0
  6
CENTER
 62
     2
 10
-46.346649
 20
241.812988
 11
-46.346649
 21
138.312988
  0
LINE
  8
0
 10
-32.846649
 20
209.462982
 11
-32.846649
 21
182.262985
  0
LINE
  8
0
 10
-58.846607
 20
210.462875
 11
-59.846603
 21
209.462875
  0
LINE
  8
0
 10
-33.846642
 20
210.462952
 11
-32.846638
 21
209.462952
  0
LINE
  8
0
 10
-58.846649
 20
210.462982
 11
-33.846649
 21
210.462982
  0
LINE
  8
0
 10
-59.846649
 20
209.462982
 11
-32.846649
 21
209.462982
  0
LINE
  8
0
 10
-59.846649
 20
192.262985
 11
-32.846649
 21
192.262985
  0
LINE
  8
0
 10
-59.846619
 20
209.462982
 11
-59.846619
 21
141.762985
  0
LINE
  8
0
 10
-34.346664
 20
210.463028
 11
-33.846664
 21
210.963028
  0
LINE
  8
0
 10
-33.846596
 20
210.963043
 11
-29.329147
 21
211.120804
  0
LINE
  8
0
 10
-33.846649
 20
210.962982
 11
-33.846649
 21
236.862991
  0
LINE
  8
0
 10
-58.846649
 20
236.862991
 11
-28.846649
 21
236.862991
  0
LINE
  8
0
 10
-57.846558
 20
238.862991
 11
-35.346649
 21
238.862991
  0
LINE
  8
0
 10
-58.846668
 20
236.863022
 11
-57.846645
 21
238.863052
  0
LINE
  8
0
 10
-34.346611
 20
236.862961
 11
-35.346619
 21
238.862976
  0
LINE
  8
0
 10
-58.846649
 20
236.862991
 11
-58.846649
 21
210.462982
  0
LINE
  8
0
 10
-28.846649
 20
236.862991
 11
-28.846649
 21
211.620438
  0
LINE
  8
0
 10
-34.346649
 20
236.862991
 11
-34.346649
 21
210.462982
  0
LINE
  8
0
 10
-32.846649
 20
141.762985
 11
-59.846588
 21
141.762985
  0
LINE
  8
0
 10
-32.846649
 20
156.262985
 11
-32.846649
 21
141.762985
  0
LINE
  8
0
 10
-5.346649
 20
141.762985
 11
-31.139618
 21
141.762985
  0
LINE
  8
0
 10
-4.846649
 20
156.762985
 11
-31.846649
 21
156.762985
  0
LINE
  8
0
 10
-4.846649
 20
181.762985
 11
-31.846649
 21
181.762985
  0
LINE
  8
0
 10
-4.846649
 20
191.762985
 11
-31.846649
 21
191.762985
  0
LINE
  8
0
 10
-31.846649
 20
156.262985
 11
-31.846649
 21
191.762985
  0
LINE
  8
0
 10
-5.346645
 20
141.762985
 11
-4.846646
 21
156.763000
  0
LINE
  8
0
 10
-31.353285
 20
141.962875
 11
-31.846619
 21
156.763000
  0
LINE
  8
0
 10
-31.353317
 20
141.962875
 11
-31.139639
 21
141.762985
  0
LINE
  8
0
 62
     4
 10
-50.096100
 20
238.862991
 11
-50.096100
 21
242.427673
  0
LINE
  8
0
  6
CENTER
 62
     1
 10
-50.846100
 20
243.903336
 11
-50.846100
 21
238.862991
  0
LINE
  8
0
 62
     4
 10
-51.096100
 20
238.862991
 11
-51.096100
 21
242.427673
  0
LINE
  8
0
 62
     4
 10
-50.596100
 20
238.862991
 11
-50.596100
 21
242.427673
  0
LINE
  8
0
 62
     4
 10
-51.596100
 20
238.862991
 11
-51.596100
 21
242.427673
  0
LINE
  8
0
 62
     4
 10
-51.596100
 20
242.427673
 11
-50.096100
 21
242.427673
  0
LINE
  8
0
 10
-4.846649
 20
156.762985
 11
-4.846649
 21
191.762985
  0
LINE
  8
0
 10
-60.846588
 20
150.262985
 11
-59.846588
 21
150.262985
  0
LINE
  8
0
 10
-58.846649
 20
235.862976
 11
-28.846649
 21
235.862976
  0
LINE
  8
0
  6
CENTER
 62
     2
 10
-69.846588
 20
143.262985
 11
-69.846588
 21
129.762985
  0
LINE
  8
0
 10
-75.996590
 20
141.262985
 11
-75.996590
 21
140.462997
  0
LINE
  8
0
 10
-63.996613
 20
140.463013
 11
-64.896614
 21
139.463013
  0
LINE
  8
0
 10
-75.096603
 20
139.462982
 11
-75.996613
 21
140.462982
  0
LINE
  8
0
 10
-75.096581
 20
139.462982
 11
-64.896591
 21
139.462982
  0
LINE
  8
0
 10
-63.996593
 20
140.462997
 11
-63.996593
 21
141.262985
  0
LINE
  8
0
 10
-63.996590
 20
140.462997
 11
-75.996590
 21
140.462997
  0
LINE
  8
0
 10
-56.446583
 20
133.262985
 11
-55.846577
 21
133.262985
  0
LINE
  8
0
 10
-55.846577
 20
140.662994
 11
-54.646580
 21
140.662994
  0
LINE
  8
0
 10
-55.846577
 20
130.862991
 11
-54.646580
 21
130.862991
  0
LINE
  8
0
 10
-73.846588
 20
139.462982
 11
-73.846588
 21
134.862991
  0
LINE
  8
0
 10
-65.846588
 20
139.462982
 11
-65.846588
 21
138.462982
  0
LINE
  8
0
 10
-73.846581
 20
138.462982
 11
-65.846588
 21
138.462982
  0
LINE
  8
0
 10
-66.946571
 20
137.862961
 11
-65.846581
 21
138.462952
  0
LINE
  8
0
 10
-72.746582
 20
137.863022
 11
-73.846581
 21
138.463013
  0
LINE
  8
0
 10
-72.746590
 20
137.862991
 11
-72.746590
 21
134.862991
  0
LINE
  8
0
  6
CENTER
 62
     2
 10
-75.846581
 20
135.762985
 11
-52.646580
 21
135.762985
  0
LINE
  8
0
 10
-70.746582
 20
131.762985
 11
-57.246586
 21
131.762985
  0
LINE
  8
0
 10
-64.146591
 20
139.762985
 11
-57.246586
 21
139.762985
  0
LINE
  8
0
 10
-66.946564
 20
137.862991
 11
-72.746590
 21
137.862991
  0
LINE
  8
0
 10
-65.846588
 20
138.662994
 11
-64.646591
 21
138.662994
  0
LINE
  8
0
 10
-70.746582
 20
132.862991
 11
-64.646591
 21
132.862991
  0
LINE
  8
0
 10
-64.646591
 20
138.662994
 11
-64.646591
 21
132.862991
  0
LINE
  8
0
 10
-64.146591
 20
139.762985
 11
-64.146591
 21
131.762985
  0
LINE
  8
0
 10
-57.246590
 20
139.762985
 11
-57.246590
 21
131.762985
  0
LINE
  8
0
 10
-56.446587
 20
139.662994
 11
-56.446587
 21
131.862991
  0
LINE
  8
0
 10
-54.646584
 20
140.662994
 11
-54.646584
 21
130.862991
  0
LINE
  8
0
 10
-55.846581
 20
140.662994
 11
-55.846581
 21
130.862991
  0
LINE
  8
0
 10
-64.646591
 20
132.862991
 11
-64.146584
 21
131.762985
  0
LINE
  8
0
 10
-64.646637
 20
138.663025
 11
-64.146629
 21
139.763031
  0
LINE
  8
0
 10
-57.246586
 20
131.862991
 11
-56.446583
 21
131.862991
  0
LINE
  8
0
 10
-57.246586
 20
139.662994
 11
-56.446583
 21
139.662994
  0
LINE
  8
0
 10
-56.446583
 20
138.262985
 11
-55.846577
 21
138.262985
  0
LINE
  8
0
  6
CENTER
 62
     2
 10
61.198074
 20
48.306904
 11
61.198074
 21
35.736107
  0
LINE
  8
0
  6
CENTER
 62
     2
 10
67.033363
 20
41.693329
 11
55.119896
 21
41.693329
  0
LINE
  8
0
  6
CENTER
 62
     2
 10
63.198074
 20
52.693329
 11
49.198074
 21
52.693329
  0
LINE
  8
0
  6
CENTER
 62
     2
 10
56.198067
 20
45.693329
 11
56.198067
 21
70.043320
  0
LINE
  8
0
 10
55.698067
 20
48.825508
 11
55.698067
 21
58.543324
  0
LINE
  8
0
 10
56.698067
 20
48.825508
 11
56.698067
 21
58.543324
  0
LINE
  8
0
 10
59.598068
 20
58.043324
 11
59.598068
 21
52.693325
  0
LINE
  8
0
 10
52.798065
 20
58.043324
 11
52.798065
 21
52.693325
  0
LINE
  8
0
 10
55.698074
 20
58.043327
 11
52.798073
 21
58.043327
  0
LINE
  8
0
 10
59.598076
 20
58.043327
 11
56.698074
 21
58.043327
  0
LINE
  8
0
 10
60.198074
 20
58.543327
 11
52.198074
 21
58.543327
  0
LINE
  8
0
 10
59.598068
 20
58.043327
 11
60.198067
 21
58.543327
  0
LINE
  8
0
 10
52.198071
 20
58.543331
 11
52.798073
 21
58.043327
  0
LINE
  8
0
 10
60.198074
 20
65.443314
 11
52.198074
 21
65.443314
  0
LINE
  8
0
 10
52.298065
 20
65.443314
 11
52.298065
 21
66.243317
  0
LINE
  8
0
 10
60.098076
 20
66.243317
 11
52.298073
 21
66.243317
  0
LINE
  8
0
 10
60.098068
 20
65.443314
 11
60.098068
 21
66.243317
  0
LINE
  8
0
 10
58.698067
 20
66.243317
 11
58.698067
 21
66.843307
  0
LINE
  8
0
 10
60.098068
 20
66.843323
 11
52.298065
 21
66.843323
  0
LINE
  8
0
 10
53.698067
 20
66.243317
 11
53.698067
 21
66.843307
  0
LINE
  8
0
 10
52.298065
 20
66.843323
 11
52.298065
 21
68.043320
  0
LINE
  8
0
 10
60.098068
 20
68.043320
 11
52.298065
 21
68.043320
  0
LINE
  8
0
 10
60.098068
 20
66.843323
 11
60.098068
 21
68.043320
  0
LINE
  8
0
 10
63.698074
 20
47.193329
 11
63.698074
 21
46.138550
  0
LINE
  8
0
 10
58.698074
 20
47.193329
 11
58.698074
 21
46.138550
  0
LINE
  8
0
 10
63.698074
 20
47.193329
 11
58.698074
 21
47.193329
  0
LINE
  8
0
 10
52.198067
 20
58.543324
 11
52.198067
 21
65.443314
  0
LINE
  8
0
 10
60.198067
 20
58.543324
 11
60.198067
 21
65.443314
  0
LINE
  8
0
 10
68.198044
 20
34.693333
 11
68.198044
 21
61.693329
  0
LINE
  8
0
 10
67.698044
 20
62.693325
 11
67.698044
 21
89.693329
  0
LINE
  8
0
 62
     4
 10
84.198044
 20
34.693333
 11
84.198044
 21
61.693329
  0
LINE
  8
0
 62
     4
 10
68.198044
 20
34.693336
 11
84.198044
 21
34.693336
  0
LINE
  8
0
  6
CENTER
 62
     1
 10
76.198044
 20
68.393326
 11
76.198044
 21
33.193329
  0
LINE
  8
0
 62
     4
 10
83.948059
 20
65.993332
 11
79.448059
 21
65.993332
  0
LINE
  8
0
 62
     4
 10
83.948044
 20
66.687080
 11
83.948044
 21
65.393326
  0
LINE
  8
0
 62
     4
 10
79.448044
 20
66.687073
 11
79.448044
 21
65.393326
  0
LINE
  8
0
 62
     4
 10
83.948059
 20
65.393326
 11
68.448059
 21
65.393326
  0
LINE
  8
0
 62
     4
 10
83.698044
 20
65.393326
 11
83.698044
 21
62.693336
  0
LINE
  8
0
 62
     4
 10
68.698044
 20
65.393326
 11
68.698044
 21
62.693329
  0
LINE
  8
0
 62
     4
 10
83.698059
 20
63.393341
 11
68.698059
 21
63.393341
  0
LINE
  8
0
 62
     4
 10
83.698044
 20
62.693340
 11
68.698059
 21
62.693340
  0
LINE
  8
0
 62
     4
 10
68.448044
 20
66.687073
 11
68.448044
 21
65.393326
  0
LINE
  8
0
 62
     4
 10
72.948044
 20
66.687080
 11
72.948044
 21
65.393326
  0
LINE
  8
0
 62
     4
 10
72.948059
 20
65.993332
 11
68.448059
 21
65.993332
  0
LINE
  8
0
 62
     4
 10
67.698044
 20
87.693359
 11
82.698044
 21
87.693359
  0
LINE
  8
0
 62
     4
 10
82.698044
 20
67.693359
 11
82.698044
 21
87.693359
  0
LINE
  8
0
 62
     4
 10
67.698044
 20
67.693359
 11
82.698044
 21
67.693359
  0
LINE
  8
0
 10
49.198059
 20
61.693329
 11
49.198059
 21
34.693329
  0
LINE
  8
0
 10
49.198059
 20
34.693329
 11
68.198059
 21
34.693329
  0
LINE
  8
0
 10
49.198059
 20
61.693329
 11
52.198067
 21
61.693329
  0
LINE
  8
0
  6
CENTER
 62
     2
 10
58.698059
 20
33.693329
 11
58.698059
 21
119.693329
  0
LINE
  8
0
 10
49.698059
 20
62.693329
 11
49.698059
 21
89.693329
  0
LINE
  8
0
 10
49.698059
 20
62.693329
 11
52.198067
 21
62.693329
  0
LINE
  8
0
  6
CENTER
 62
     2
 10
50.198059
 20
79.693329
 11
67.198059
 21
79.693329
  0
LINE
  8
0
 10
51.874390
 20
80.293320
 11
65.521729
 21
80.293320
  0
LINE
  8
0
 10
51.874390
 20
79.093323
 11
65.521729
 21
79.093323
  0
LINE
  8
0
 10
49.698059
 20
89.693329
 11
67.698059
 21
89.693329
  0
LINE
  8
0
 10
49.698059
 20
90.693329
 11
67.698059
 21
90.693329
  0
LINE
  8
0
 10
67.698059
 20
90.693329
 11
67.698059
 21
117.693329
  0
LINE
  8
0
 10
49.698059
 20
90.693329
 11
49.698059
 21
117.693329
  0
LINE
  8
0
 10
49.698059
 20
117.693329
 11
67.698059
 21
117.693329
  0
LINE
  8
0
  6
CENTER
 62
     2
 10
54.198059
 20
104.193314
 11
63.198059
 21
104.193314
  0
LINE
  8
0
 62
     4
 10
69.198059
 20
62.693329
 11
69.198059
 21
61.693329
  0
LINE
  8
0
 62
     4
 10
83.198059
 20
62.693329
 11
83.198059
 21
61.693329
  0
LINE
  8
0
 62
     4
 10
84.198044
 20
61.693333
 11
68.198044
 21
61.693333
  0
LINE
  8
0
 10
50.198059
 20
62.693329
 11
50.198059
 21
61.693329
  0
LINE
  8
0
 10
67.198059
 20
62.693325
 11
67.198059
 21
61.693325
  0
LINE
  8
0
 10
49.948059
 20
89.693329
 11
49.948059
 21
90.693329
  0
LINE
  8
0
 10
67.448059
 20
89.693329
 11
67.448059
 21
90.693329
  0
LINE
  8
0
 10
60.198067
 20
62.693329
 11
67.698059
 21
62.693329
  0
LINE
  8
0
 10
60.198067
 20
61.693329
 11
68.198059
 21
61.693329
  0
LINE
  8
0
 10
334.592682
 20
239.262970
 11
334.592682
 21
222.263077
  0
LINE
  8
0
 62
     4
 10
350.592682
 20
239.262970
 11
350.592682
 21
141.262970
  0
LINE
  8
0
 62
     4
 10
334.592682
 20
239.262970
 11
340.842499
 21
239.262970
  0
LINE
  8
0
 62
     4
 10
334.592682
 20
141.262970
 11
350.592682
 21
141.262970
  0
LINE
  8
0
 62
     4
 10
350.093506
 20
228.762741
 11
350.092163
 21
149.262756
  0
LINE
  8
0
 62
     4
 10
335.093475
 20
228.763000
 11
335.093384
 21
222.263062
  0
LINE
  8
0
 62
     4
 10
349.593597
 20
229.262741
 11
343.092590
 21
229.262848
  0
LINE
  8
0
 62
     4
 10
349.592102
 20
148.762741
 11
335.592102
 21
148.762985
  0
LINE
  8
0
 62
     4
 10
335.092133
 20
149.763092
 11
335.092133
 21
149.263000
  0
LINE
  8
0
 62
     4
 10
349.092499
 20
149.763092
 11
349.092499
 21
222.263077
  0
LINE
  8
0
 62
     4
 10
334.092499
 20
149.763077
 11
349.092499
 21
149.763077
  0
LINE
  8
0
 10
334.592682
 20
149.763077
 11
334.592682
 21
141.262970
  0
LINE
  8
0
 62
     4
 10
334.092499
 20
222.263077
 11
349.092499
 21
222.263077
  0
LINE
  8
0
  6
CENTER
 62
     1
 10
341.592499
 20
146.585373
 11
341.592499
 21
243.124954
  0
LINE
  8
0
 62
     4
 10
335.092529
 20
222.263077
 11
336.092529
 21
224.763062
  0
LINE
  8
0
 62
     4
 10
336.092499
 20
224.763077
 11
347.092499
 21
224.763077
  0
LINE
  8
0
 62
     4
 10
347.092438
 20
224.763016
 11
348.092438
 21
222.263031
  0
LINE
  8
0
 62
     4
 10
343.092499
 20
224.763077
 11
343.092499
 21
229.733887
  0
LINE
  8
0
 62
     4
 10
340.092499
 20
224.763077
 11
340.092499
 21
230.262909
  0
LINE
  8
0
 62
     4
 10
340.092590
 20
229.262909
 11
335.593597
 21
229.262985
  0
LINE
  8
0
 62
     1
 10
344.092499
 20
229.557541
 11
339.092499
 21
230.439255
  0
LINE
  8
0
 62
     1
 10
344.092529
 20
231.588394
 11
339.092560
 21
232.470108
  0
LINE
  8
0
 62
     4
 10
340.092499
 20
232.293777
 11
340.092499
 21
234.428009
  0
LINE
  8
0
 62
     4
 10
343.092499
 20
231.764740
 11
343.092499
 21
234.428009
  0
LINE
  8
0
 62
     4
 10
340.092499
 20
234.428009
 11
343.092499
 21
234.428009
  0
LINE
  8
0
 10
334.092499
 20
159.013077
 11
334.592499
 21
159.013077
  0
LINE
  8
0
 10
334.092499
 20
165.513077
 11
334.592499
 21
165.513077
  0
LINE
  8
0
 10
334.592499
 20
159.013077
 11
334.592499
 21
165.513077
  0
LINE
  8
0
 62
     4
 10
340.842499
 20
242.428009
 11
342.342499
 21
242.428009
  0
LINE
  8
0
 62
     4
 10
340.842499
 20
234.428009
 11
340.842499
 21
242.428009
  0
LINE
  8
0
 62
     4
 10
341.842499
 20
234.428009
 11
341.842499
 21
242.428009
  0
LINE
  8
0
 62
     4
 10
341.342499
 20
234.428009
 11
341.342499
 21
242.428009
  0
LINE
  8
0
 62
     4
 10
342.342499
 20
234.428009
 11
342.342499
 21
242.428009
  0
LINE
  8
0
 62
     4
 10
342.342499
 20
239.262970
 11
350.592682
 21
239.262970
  0
LINE
  8
0
 10
315.592682
 20
239.262970
 11
315.592682
 21
141.262970
  0
LINE
  8
0
 10
315.592682
 20
239.262970
 11
334.592682
 21
239.262970
  0
LINE
  8
0
 10
315.592682
 20
141.262970
 11
334.592682
 21
141.262970
  0
LINE
  8
0
 10
315.592682
 20
237.262970
 11
317.812744
 21
237.262970
  0
LINE
  8
0
  6
CENTER
 62
     2
 10
325.092682
 20
242.262985
 11
325.092682
 21
136.846313
  0
LINE
  8
0
 10
317.092682
 20
210.462936
 11
316.092712
 21
209.462952
  0
LINE
  8
0
 10
333.092560
 20
210.462982
 11
334.092560
 21
209.462982
  0
LINE
  8
0
  6
CENTER
 62
     2
 10
322.170959
 20
206.962967
 11
328.002380
 21
206.962967
  0
LINE
  8
0
 10
316.092651
 20
209.462967
 11
334.092651
 21
209.462967
  0
LINE
  8
0
 10
317.092651
 20
210.462967
 11
333.092651
 21
210.462967
  0
LINE
  8
0
 10
318.267273
 20
211.137589
 11
331.918060
 21
211.137589
  0
LINE
  8
0
 10
319.592651
 20
212.262970
 11
330.592651
 21
212.262970
  0
LINE
  8
0
 10
319.592651
 20
226.462997
 11
330.592651
 21
226.462997
  0
LINE
  8
0
 10
319.592651
 20
233.962997
 11
330.592651
 21
233.962997
  0
LINE
  8
0
 10
319.592651
 20
233.962997
 11
319.592651
 21
226.462997
  0
LINE
  8
0
 10
330.592651
 20
233.962997
 11
330.592651
 21
226.462997
  0
LINE
  8
0
 10
328.592651
 20
219.462982
 11
328.592651
 21
215.462982
  0
LINE
  8
0
 10
321.592651
 20
219.462997
 11
321.592651
 21
215.462997
  0
LINE
  8
0
 10
319.592651
 20
224.763000
 11
319.592651
 21
212.262985
  0
LINE
  8
0
 10
330.592651
 20
224.763000
 11
330.592651
 21
212.262985
  0
LINE
  8
0
 10
319.592651
 20
224.762985
 11
330.592651
 21
224.762985
  0
LINE
  8
0
 10
321.592651
 20
215.462982
 11
328.592651
 21
215.462982
  0
LINE
  8
0
 10
321.592651
 20
219.462982
 11
328.592651
 21
219.462982
  0
LINE
  8
0
 10
317.592651
 20
236.862991
 11
332.592651
 21
236.862991
  0
LINE
  8
0
 10
318.692810
 20
238.862991
 11
331.492737
 21
238.862991
  0
LINE
  8
0
 10
318.267273
 20
235.662994
 11
318.267273
 21
211.137589
  0
LINE
  8
0
 10
331.918060
 20
235.663010
 11
331.918060
 21
211.137589
  0
LINE
  8
0
 10
317.592743
 20
236.862915
 11
318.692780
 21
238.862991
  0
LINE
  8
0
 10
331.492554
 20
238.862869
 11
332.592560
 21
236.862885
  0
LINE
  8
0
 10
332.592651
 20
236.862991
 11
332.592651
 21
210.462997
  0
LINE
  8
0
 10
317.592651
 20
236.862991
 11
317.592651
 21
210.462997
  0
LINE
  8
0
 10
332.372803
 20
237.262970
 11
334.592682
 21
237.262970
  0
LINE
  8
0
 10
315.592682
 20
211.262970
 11
317.592651
 21
211.262970
  0
LINE
  8
0
 10
315.592682
 20
209.762970
 11
316.392670
 21
209.762970
  0
LINE
  8
0
 10
332.592651
 20
211.262970
 11
334.092682
 21
211.262970
  0
LINE
  8
0
 10
333.792664
 20
209.762970
 11
334.092682
 21
209.762970
  0
LINE
  8
0
 10
316.092682
 20
209.462982
 11
316.092682
 21
142.262970
  0
LINE
  8
0
 62
     4
 10
334.092682
 20
222.263077
 11
334.092682
 21
209.462967
  0
LINE
  8
0
 10
316.092682
 20
192.262970
 11
334.092682
 21
192.262970
  0
LINE
  8
0
 62
     4
 10
349.092499
 20
182.262970
 11
334.092682
 21
182.262970
  0
LINE
  8
0
 10
334.092712
 20
157.262970
 11
316.092712
 21
157.262970
  0
LINE
  8
0
 10
334.092682
 20
142.262970
 11
316.092682
 21
142.262970
  0
LINE
  8
0
 10
317.592651
 20
235.662994
 11
332.592651
 21
235.662994
  0
LINE
  8
0
 10
317.592651
 20
235.862991
 11
332.592651
 21
235.862991
  0
LINE
  8
0
 10
334.092682
 20
182.262970
 11
316.092712
 21
182.262970
  0
LINE
  8
0
 10
334.092682
 20
209.462967
 11
334.092682
 21
142.262970
  0
LINE
  8
0
 10
316.092804
 20
157.263000
 11
316.592773
 21
142.263000
  0
LINE
  8
0
 10
334.092682
 20
157.262985
 11
333.592682
 21
142.262985
  0
LINE
  8
0
 10
328.592682
 20
140.262970
 11
328.592682
 21
139.762970
  0
LINE
  8
0
 10
315.592865
 20
141.262970
 11
315.592865
 21
140.262970
  0
LINE
  8
0
 10
334.592865
 20
141.262970
 11
334.592865
 21
140.262970
  0
LINE
  8
0
 10
328.092621
 20
139.262924
 11
328.592621
 21
139.762939
  0
LINE
  8
0
  6
CENTER
 62
     2
 10
322.592682
 20
145.262970
 11
322.592682
 21
137.262970
  0
LINE
  8
0
  6
CENTER
 62
     2
 10
327.592682
 20
145.262970
 11
327.592682
 21
137.262970
  0
LINE
  8
0
 10
316.592682
 20
140.262970
 11
316.592682
 21
139.762970
  0
LINE
  8
0
 10
333.592682
 20
140.262970
 11
333.592682
 21
139.762970
  0
LINE
  8
0
 10
315.592865
 20
140.262970
 11
334.592865
 21
140.262970
  0
LINE
  8
0
 10
317.092682
 20
139.262970
 11
333.092651
 21
139.262970
  0
LINE
  8
0
 10
316.592621
 20
139.762878
 11
317.092621
 21
139.262878
  0
LINE
  8
0
 10
333.092621
 20
139.262955
 11
333.592621
 21
139.762939
  0
LINE
  8
0
  6
CENTER
 62
     2
 10
220.003387
 20
241.812988
 11
220.003387
 21
138.312988
  0
LINE
  8
0
 10
233.503387
 20
209.462982
 11
233.503387
 21
182.262985
  0
LINE
  8
0
 10
207.503403
 20
210.462891
 11
206.503433
 21
209.462906
  0
LINE
  8
0
 10
232.503372
 20
210.462936
 11
233.503372
 21
209.462936
  0
LINE
  8
0
 10
207.503387
 20
210.462982
 11
232.503387
 21
210.462982
  0
LINE
  8
0
 10
206.503387
 20
209.462982
 11
233.503387
 21
209.462982
  0
LINE
  8
0
 10
206.503387
 20
192.262985
 11
233.503387
 21
192.262985
  0
LINE
  8
0
 10
206.503418
 20
209.462982
 11
206.503418
 21
141.762985
  0
LINE
  8
0
 10
232.003372
 20
210.463013
 11
232.503403
 21
210.963043
  0
LINE
  8
0
 10
232.503464
 20
210.963074
 11
237.020920
 21
211.120834
  0
LINE
  8
0
 10
232.503387
 20
210.962982
 11
232.503387
 21
236.862991
  0
LINE
  8
0
 10
207.503387
 20
236.862991
 11
237.503387
 21
236.862991
  0
LINE
  8
0
 10
208.503479
 20
238.862991
 11
231.003387
 21
238.862991
  0
LINE
  8
0
 10
207.503418
 20
236.862991
 11
208.503448
 21
238.863052
  0
LINE
  8
0
 10
232.003418
 20
236.862976
 11
231.003403
 21
238.862991
  0
LINE
  8
0
 10
207.503387
 20
236.862991
 11
207.503387
 21
210.462982
  0
LINE
  8
0
 10
237.503387
 20
236.862991
 11
237.503387
 21
211.620438
  0
LINE
  8
0
 10
232.003387
 20
236.862991
 11
232.003387
 21
210.462982
  0
LINE
  8
0
 10
233.503387
 20
141.762985
 11
206.503448
 21
141.762985
  0
LINE
  8
0
 10
233.503387
 20
156.262985
 11
233.503387
 21
141.762985
  0
LINE
  8
0
 10
261.003387
 20
141.762985
 11
235.210419
 21
141.762985
  0
LINE
  8
0
 10
261.503387
 20
156.762985
 11
234.503387
 21
156.762985
  0
LINE
  8
0
 10
261.503387
 20
181.762985
 11
234.503387
 21
181.762985
  0
LINE
  8
0
 10
261.503387
 20
191.762985
 11
234.503387
 21
191.762985
  0
LINE
  8
0
 10
234.503387
 20
156.262985
 11
234.503387
 21
191.762985
  0
LINE
  8
0
 10
261.003418
 20
141.762985
 11
261.503418
 21
156.763000
  0
LINE
  8
0
 10
234.996750
 20
141.962875
 11
234.503418
 21
156.763000
  0
LINE
  8
0
 10
234.996689
 20
141.962860
 11
235.210373
 21
141.762955
  0
LINE
  8
0
 62
     4
 10
216.253937
 20
238.862991
 11
216.253937
 21
242.427673
  0
LINE
  8
0
  6
CENTER
 62
     1
 10
215.503937
 20
243.903336
 11
215.503937
 21
238.862991
  0
LINE
  8
0
 62
     4
 10
215.253937
 20
238.862991
 11
215.253937
 21
242.427673
  0
LINE
  8
0
 62
     4
 10
215.753937
 20
238.862991
 11
215.753937
 21
242.427673
  0
LINE
  8
0
 62
     4
 10
214.753937
 20
238.862991
 11
214.753937
 21
242.427673
  0
LINE
  8
0
 62
     4
 10
214.753937
 20
242.427673
 11
216.253937
 21
242.427673
  0
LINE
  8
0
 10
261.503387
 20
156.762985
 11
261.503387
 21
191.762985
  0
LINE
  8
0
 10
205.503448
 20
150.262985
 11
206.503448
 21
150.262985
  0
LINE
  8
0
 10
207.503387
 20
235.862976
 11
237.503387
 21
235.862976
  0
LINE
  8
0
 10
237.503387
 20
235.662979
 11
207.503387
 21
235.662979
  0
LINE
  8
0
 10
206.503448
 20
205.762970
 11
205.503448
 21
205.762970
  0
LINE
  8
0
 10
233.503387
 20
182.262985
 11
233.503387
 21
156.262985
  0
LINE
  8
0
 10
234.503387
 20
182.262985
 11
233.503387
 21
182.262985
  0
LINE
  8
0
 10
234.503387
 20
156.262985
 11
233.503387
 21
156.262985
  0
LINE
  8
0
 10
190.503433
 20
139.762955
 11
191.003433
 21
139.262955
  0
LINE
  8
0
 10
190.503448
 20
140.262970
 11
190.503448
 21
139.762970
  0
LINE
  8
0
  6
CENTER
 62
     2
 10
185.503448
 20
142.934021
 11
185.503448
 21
137.228058
  0
LINE
  8
0
  6
CENTER
 62
     2
 10
196.503448
 20
142.934021
 11
196.503448
 21
137.228058
  0
LINE
  8
0
 10
180.003448
 20
139.262970
 11
191.003448
 21
139.262970
  0
LINE
  8
0
 10
179.503448
 20
140.262970
 11
179.503448
 21
139.762970
  0
LINE
  8
0
 10
202.503448
 20
140.262970
 11
202.503448
 21
139.762970
  0
LINE
  8
0
 10
191.003448
 20
139.262970
 11
202.003448
 21
139.262970
  0
LINE
  8
0
 10
202.503448
 20
139.762970
 11
202.003448
 21
139.262970
  0
LINE
  8
0
 10
179.503311
 20
139.762848
 11
180.003296
 21
139.262848
  0
LINE
  8
0
 10
178.503448
 20
140.262970
 11
205.503448
 21
140.262970
  0
LINE
  8
0
 10
178.503448
 20
141.262970
 11
178.503448
 21
140.262970
  0
LINE
  8
0
 10
205.503448
 20
141.262970
 11
205.503448
 21
140.262970
  0
LINE
  8
0
 10
334.592651
 20
34.693333
 11
334.592651
 21
61.693329
  0
LINE
  8
0
 10
334.092651
 20
62.693325
 11
334.092651
 21
89.693329
  0
LINE
  8
0
 62
     4
 10
350.592651
 20
34.693333
 11
350.592651
 21
61.693329
  0
LINE
  8
0
 62
     4
 10
334.592651
 20
34.693336
 11
350.592651
 21
34.693336
  0
LINE
  8
0
  6
CENTER
 62
     1
 10
342.592651
 20
68.393326
 11
342.592651
 21
33.193329
  0
LINE
  8
0
 62
     4
 10
350.342682
 20
65.993332
 11
345.842682
 21
65.993332
  0
LINE
  8
0
 62
     4
 10
350.342651
 20
66.687080
 11
350.342651
 21
65.393326
  0
LINE
  8
0
 62
     4
 10
345.842651
 20
66.687073
 11
345.842651
 21
65.393326
  0
LINE
  8
0
 62
     4
 10
350.342682
 20
65.393326
 11
334.842682
 21
65.393326
  0
LINE
  8
0
 62
     4
 10
350.092651
 20
65.393326
 11
350.092651
 21
62.693336
  0
LINE
  8
0
 62
     4
 10
335.092651
 20
65.393326
 11
335.092651
 21
62.693329
  0
LINE
  8
0
 62
     4
 10
350.092682
 20
63.393341
 11
335.092682
 21
63.393341
  0
LINE
  8
0
 62
     4
 10
350.092651
 20
62.693340
 11
335.092682
 21
62.693340
  0
LINE
  8
0
 62
     4
 10
334.842651
 20
66.687073
 11
334.842651
 21
65.393326
  0
LINE
  8
0
 62
     4
 10
339.342651
 20
66.687080
 11
339.342651
 21
65.393326
  0
LINE
  8
0
 62
     4
 10
339.342682
 20
65.993332
 11
334.842682
 21
65.993332
  0
LINE
  8
0
 62
     4
 10
334.092651
 20
87.693359
 11
349.092651
 21
87.693359
  0
LINE
  8
0
 62
     4
 10
349.092651
 20
67.693359
 11
349.092651
 21
87.693359
  0
LINE
  8
0
 62
     4
 10
334.092651
 20
67.693359
 11
349.092651
 21
67.693359
  0
LINE
  8
0
 10
315.592682
 20
61.693329
 11
315.592682
 21
34.693329
  0
LINE
  8
0
 10
315.592682
 20
34.693329
 11
334.592682
 21
34.693329
  0
LINE
  8
0
 10
315.592682
 20
61.693329
 11
334.592682
 21
61.693329
  0
LINE
  8
0
  6
CENTER
 62
     2
 10
325.092682
 20
33.693329
 11
325.092682
 21
119.693329
  0
LINE
  8
0
 10
316.092682
 20
62.693329
 11
316.092682
 21
89.693329
  0
LINE
  8
0
 10
316.092682
 20
62.693329
 11
334.092682
 21
62.693329
  0
LINE
  8
0
  6
CENTER
 62
     2
 10
316.592682
 20
79.693329
 11
333.592682
 21
79.693329
  0
LINE
  8
0
 10
318.269012
 20
80.293320
 11
331.916351
 21
80.293320
  0
LINE
  8
0
 10
318.269012
 20
79.093323
 11
331.916351
 21
79.093323
  0
LINE
  8
0
 10
316.092682
 20
89.693329
 11
334.092682
 21
89.693329
  0
LINE
  8
0
 10
316.092682
 20
90.693329
 11
334.092682
 21
90.693329
  0
LINE
  8
0
 10
334.092682
 20
90.693329
 11
334.092682
 21
117.693329
  0
LINE
  8
0
 10
316.092682
 20
90.693329
 11
316.092682
 21
117.693329
  0
LINE
  8
0
 10
316.092682
 20
117.693329
 11
334.092682
 21
117.693329
  0
LINE
  8
0
  6
CENTER
 62
     2
 10
320.592682
 20
104.193314
 11
329.592682
 21
104.193314
  0
LINE
  8
0
 62
     4
 10
335.592682
 20
62.693329
 11
335.592682
 21
61.693329
  0
LINE
  8
0
 62
     4
 10
349.592682
 20
62.693329
 11
349.592682
 21
61.693329
  0
LINE
  8
0
 62
     4
 10
350.592651
 20
61.693333
 11
334.592651
 21
61.693333
  0
LINE
  8
0
 10
316.592682
 20
62.693329
 11
316.592682
 21
61.693329
  0
LINE
  8
0
 10
333.592682
 20
62.693325
 11
333.592682
 21
61.693325
  0
LINE
  8
0
 10
316.342682
 20
89.693329
 11
316.342682
 21
90.693329
  0
LINE
  8
0
 10
333.842682
 20
89.693329
 11
333.842682
 21
90.693329
  0
LINE
  8
0
  6
CENTER
 62
     2
 10
322.592682
 20
59.718369
 11
322.592682
 21
45.977497
  0
LINE
  8
0
  6
CENTER
 62
     2
 10
330.005493
 20
52.693329
 11
315.818481
 21
52.693329
  0
LINE
  8
0
  6
CENTER
 62
     2
 10
327.592682
 20
48.718369
 11
327.592682
 21
34.977497
  0
LINE
  8
0
  6
CENTER
 62
     2
 10
335.005493
 20
41.693329
 11
320.818481
 21
41.693329
  0
LINE
  8
0
 10
-214.960571
 20
-111.136986
 11
-215.334732
 21
-110.936966
  0
LINE
  8
0
 10
-205.508942
 20
-111.137039
 11
-214.960632
 21
-111.137039
  0
LINE
  8
0
  6
CENTER
 62
     2
 10
-210.234787
 20
-108.237030
 11
-210.234787
 21
-115.637024
  0
LINE
  8
0
 10
-213.734787
 20
-111.137039
 11
-213.734787
 21
-112.437027
  0
LINE
  8
0
 10
-206.734787
 20
-111.137039
 11
-206.734787
 21
-112.437027
  0
LINE
  8
0
 10
-205.334793
 20
-113.637024
 11
-215.134796
 21
-113.637024
  0
LINE
  8
0
 10
-205.334793
 20
-112.437027
 11
-215.134796
 21
-112.437027
  0
LINE
  8
0
 10
-215.334793
 20
-110.237030
 11
-215.334793
 21
-110.937027
  0
LINE
  8
0
 10
-205.134781
 20
-110.237030
 11
-205.134781
 21
-110.937027
  0
LINE
  8
0
 10
-205.134781
 20
-110.937027
 11
-215.334793
 21
-110.937027
  0
LINE
  8
0
 10
-205.134811
 20
-110.937027
 11
-205.508972
 21
-111.137047
  0
LINE
  8
0
 10
-215.134796
 20
-112.437027
 11
-215.134796
 21
-113.637024
  0
LINE
  8
0
 10
-205.334793
 20
-112.437027
 11
-205.334793
 21
-113.637024
  0
LINE
  8
0
 10
-236.234787
 20
-12.237030
 11
-236.234787
 21
-110.237030
  0
LINE
  8
0
 10
-198.234787
 20
-12.237030
 11
-198.234787
 21
-29.236923
  0
LINE
  8
0
 10
-217.234787
 20
-14.237030
 11
-215.014709
 21
-14.237030
  0
LINE
  8
0
  6
CENTER
 62
     2
 10
-207.734787
 20
-9.237015
 11
-207.734787
 21
-114.653687
  0
LINE
  8
0
 10
-200.234802
 20
-14.637009
 11
-200.234802
 21
-41.037003
  0
LINE
  8
0
 10
-215.234802
 20
-14.637009
 11
-215.234802
 21
-41.037003
  0
LINE
  8
0
 10
-215.234802
 20
-15.637009
 11
-200.234802
 21
-15.637009
  0
LINE
  8
0
 10
-214.560196
 20
-40.362411
 11
-200.909424
 21
-40.362411
  0
LINE
  8
0
 10
-213.234802
 20
-39.237030
 11
-202.234802
 21
-39.237030
  0
LINE
  8
0
 10
-213.234802
 20
-25.037018
 11
-202.234802
 21
-25.037018
  0
LINE
  8
0
 10
-213.234802
 20
-17.537018
 11
-202.234802
 21
-17.537018
  0
LINE
  8
0
 10
-213.234802
 20
-17.537003
 11
-213.234802
 21
-25.037003
  0
LINE
  8
0
 10
-202.234802
 20
-17.537018
 11
-202.234802
 21
-25.037018
  0
LINE
  8
0
 10
-204.234802
 20
-32.037018
 11
-204.234802
 21
-36.037018
  0
LINE
  8
0
 10
-211.234802
 20
-32.037003
 11
-211.234802
 21
-36.037003
  0
LINE
  8
0
 10
-213.234802
 20
-26.737000
 11
-213.234802
 21
-39.237015
  0
LINE
  8
0
 10
-202.234802
 20
-26.737015
 11
-202.234802
 21
-39.237015
  0
LINE
  8
0
 10
-213.234802
 20
-26.737030
 11
-202.234802
 21
-26.737030
  0
LINE
  8
0
 10
-211.234802
 20
-36.037018
 11
-204.234802
 21
-36.037018
  0
LINE
  8
0
 10
-211.234802
 20
-32.037018
 11
-204.234802
 21
-32.037018
  0
LINE
  8
0
 10
-215.234802
 20
-14.637009
 11
-200.234802
 21
-14.637009
  0
LINE
  8
0
 10
-214.134689
 20
-12.637009
 11
-201.334747
 21
-12.637009
  0
LINE
  8
0
 10
-214.560196
 20
-15.837006
 11
-214.560196
 21
-40.362411
  0
LINE
  8
0
 10
-200.909424
 20
-15.837006
 11
-200.909424
 21
-40.362411
  0
LINE
  8
0
 10
-215.234650
 20
-14.637067
 11
-214.134628
 21
-12.637023
  0
LINE
  8
0
 10
-201.334671
 20
-12.636994
 11
-200.234665
 21
-14.636985
  0
LINE
  8
0
 10
-215.234802
 20
-15.837021
 11
-200.234802
 21
-15.837021
  0
LINE
  8
0
 10
-200.454651
 20
-14.237030
 11
-198.234787
 21
-14.237030
  0
LINE
  8
0
 10
-217.234787
 20
-40.237030
 11
-215.234802
 21
-40.237030
  0
LINE
  8
0
 10
-217.234787
 20
-41.737030
 11
-216.434799
 21
-41.737030
  0
LINE
  8
0
 10
-200.234802
 20
-40.237030
 11
-198.734787
 21
-40.237030
  0
LINE
  8
0
 10
-199.034805
 20
-41.737030
 11
-198.734787
 21
-41.737030
  0
LINE
  8
0
 10
-217.234787
 20
-12.237030
 11
-217.234787
 21
-59.237030
  0
LINE
  8
0
 10
-236.234787
 20
-12.237030
 11
-198.234787
 21
-12.237030
  0
LINE
  8
0
 10
-236.234787
 20
-110.237030
 11
-198.234787
 21
-110.237030
  0
LINE
  8
0
 10
-236.234787
 20
-14.237030
 11
-234.014709
 21
-14.237030
  0
LINE
  8
0
  6
CENTER
 62
     2
 10
-226.734772
 20
-9.237015
 11
-226.734772
 21
-114.653687
  0
LINE
  8
0
 10
-219.234802
 20
-14.637009
 11
-219.234802
 21
-41.037003
  0
LINE
  8
0
 10
-234.234802
 20
-14.637009
 11
-234.234802
 21
-41.037003
  0
LINE
  8
0
 10
-234.234802
 20
-15.637009
 11
-219.234802
 21
-15.637009
  0
LINE
  8
0
 10
-233.560196
 20
-40.362411
 11
-219.909424
 21
-40.362411
  0
LINE
  8
0
 10
-232.234802
 20
-39.237030
 11
-221.234802
 21
-39.237030
  0
LINE
  8
0
 10
-232.234802
 20
-25.037018
 11
-221.234802
 21
-25.037018
  0
LINE
  8
0
 10
-232.234802
 20
-17.537018
 11
-221.234802
 21
-17.537018
  0
LINE
  8
0
 10
-232.234802
 20
-17.537003
 11
-232.234802
 21
-25.037003
  0
LINE
  8
0
 10
-221.234802
 20
-17.537018
 11
-221.234802
 21
-25.037018
  0
LINE
  8
0
 10
-223.234802
 20
-32.037018
 11
-223.234802
 21
-36.037018
  0
LINE
  8
0
 10
-230.234802
 20
-32.037003
 11
-230.234802
 21
-36.037003
  0
LINE
  8
0
 10
-232.234802
 20
-26.737000
 11
-232.234802
 21
-39.237015
  0
LINE
  8
0
 10
-221.234802
 20
-26.737015
 11
-221.234802
 21
-39.237015
  0
LINE
  8
0
 10
-232.234802
 20
-26.737030
 11
-221.234802
 21
-26.737030
  0
LINE
  8
0
 10
-230.234802
 20
-36.037018
 11
-223.234802
 21
-36.037018
  0
LINE
  8
0
 10
-230.234802
 20
-32.037018
 11
-223.234802
 21
-32.037018
  0
LINE
  8
0
 10
-234.234802
 20
-14.637009
 11
-219.234802
 21
-14.637009
  0
LINE
  8
0
 10
-233.134659
 20
-12.637009
 11
-220.334702
 21
-12.637009
  0
LINE
  8
0
 10
-233.560196
 20
-15.837006
 11
-233.560196
 21
-40.362411
  0
LINE
  8
0
 10
-219.909424
 20
-15.837006
 11
-219.909424
 21
-40.362411
  0
LINE
  8
0
 10
-234.234619
 20
-14.637080
 11
-233.134583
 21
-12.637023
  0
LINE
  8
0
 10
-220.334641
 20
-12.636976
 11
-219.234650
 21
-14.636960
  0
LINE
  8
0
 10
-234.234802
 20
-15.837021
 11
-219.234802
 21
-15.837021
  0
LINE
  8
0
 10
-219.454651
 20
-14.237030
 11
-217.234787
 21
-14.237030
  0
LINE
  8
0
 10
-236.234787
 20
-40.237030
 11
-234.234802
 21
-40.237030
  0
LINE
  8
0
 10
-236.234787
 20
-41.737030
 11
-235.434784
 21
-41.737030
  0
LINE
  8
0
 10
-219.234802
 20
-40.237030
 11
-217.234787
 21
-40.237030
  0
LINE
  8
0
 10
-218.034805
 20
-41.737030
 11
-217.234787
 21
-41.737030
  0
LINE
  8
0
 10
-234.734787
 20
-41.037033
 11
-218.734787
 21
-41.037033
  0
LINE
  8
0
 10
-217.734787
 20
-59.237030
 11
-198.734787
 21
-59.237030
  0
LINE
  8
0
 10
-198.734787
 20
-29.236923
 11
-198.734787
 21
-109.737030
  0
LINE
  8
0
 10
-235.734787
 20
-42.037033
 11
-235.734787
 21
-109.737030
  0
LINE
  8
0
 10
-217.734787
 20
-42.037033
 11
-217.734787
 21
-59.237030
  0
LINE
  8
0
 10
-216.734787
 20
-42.037033
 11
-216.734787
 21
-59.237030
  0
LINE
  8
0
 10
-215.734787
 20
-41.037033
 11
-199.734787
 21
-41.037033
  0
LINE
  8
0
 10
-234.734772
 20
-41.037045
 11
-235.734787
 21
-42.037056
  0
LINE
  8
0
 10
-218.734802
 20
-41.037056
 11
-217.734802
 21
-42.037060
  0
LINE
  8
0
 10
-216.734726
 20
-42.037025
 11
-215.734726
 21
-41.037022
  0
LINE
  8
0
 10
-199.734787
 20
-41.037075
 11
-198.734787
 21
-42.037075
  0
LINE
  8
0
 10
-235.734787
 20
-42.037033
 11
-217.734787
 21
-42.037033
  0
LINE
  8
0
 10
-198.734787
 20
-42.037033
 11
-216.734787
 21
-42.037033
  0
LINE
  8
0
  6
CENTER
 62
     2
 10
-229.973160
 20
-44.537033
 11
-223.694412
 21
-44.537033
  0
LINE
  8
0
  6
CENTER
 62
     2
 10
-210.851486
 20
-44.537033
 11
-205.286224
 21
-44.537033
  0
LINE
  8
0
 10
-235.734787
 20
-56.037033
 11
-217.734787
 21
-56.037033
  0
LINE
  8
0
 10
-235.734787
 20
-109.737030
 11
-198.734787
 21
-109.737030
  0
LINE
  8
0
 10
-216.734787
 20
-59.737030
 11
-216.734787
 21
-94.737030
  0
LINE
  8
0
 10
-216.734787
 20
-59.737030
 11
-198.734787
 21
-59.737030
  0
LINE
  8
0
 10
-198.734787
 20
-69.737030
 11
-216.734787
 21
-69.737030
  0
LINE
  8
0
 10
-216.734802
 20
-94.737030
 11
-216.234818
 21
-109.737030
  0
LINE
  8
0
 10
-198.734787
 20
-94.737038
 11
-199.234802
 21
-109.737038
  0
LINE
  8
0
 10
-216.734787
 20
-94.737030
 11
-198.734787
 21
-94.737030
  0
LINE
  8
0
  6
CENTER
 62
     2
 10
-231.734772
 20
-51.637032
 11
-221.734772
 21
-51.637032
  0
LINE
  8
0
 62
     4
 10
-182.234787
 20
-12.237030
 11
-182.234787
 21
-110.237030
  0
LINE
  8
0
 62
     4
 10
-198.234787
 20
-12.237030
 11
-191.984970
 21
-12.237030
  0
LINE
  8
0
 62
     4
 10
-198.234787
 20
-110.237030
 11
-182.234787
 21
-110.237030
  0
LINE
  8
0
 62
     4
 10
-182.733948
 20
-22.737247
 11
-182.735306
 21
-102.237251
  0
LINE
  8
0
 62
     4
 10
-197.733948
 20
-22.737017
 11
-197.734070
 21
-29.236940
  0
LINE
  8
0
 62
     4
 10
-183.233948
 20
-22.237236
 11
-189.734955
 21
-22.237125
  0
LINE
  8
0
 62
     4
 10
-183.235321
 20
-102.737236
 11
-197.235321
 21
-102.737000
  0
LINE
  8
0
 62
     4
 10
-197.735291
 20
-101.736923
 11
-197.735306
 21
-102.237000
  0
LINE
  8
0
 62
     4
 10
-183.734970
 20
-101.736908
 11
-183.734970
 21
-29.236923
  0
LINE
  8
0
 62
     4
 10
-198.734970
 20
-101.736923
 11
-183.734970
 21
-101.736923
  0
LINE
  8
0
 10
-198.234787
 20
-101.736923
 11
-198.234787
 21
-110.237030
  0
LINE
  8
0
 62
     4
 10
-198.734970
 20
-29.236923
 11
-183.734970
 21
-29.236923
  0
LINE
  8
0
  6
CENTER
 62
     1
 10
-191.234970
 20
-104.914627
 11
-191.234970
 21
-8.375046
  0
LINE
  8
0
 62
     4
 10
-197.734940
 20
-29.236912
 11
-196.734955
 21
-26.736914
  0
LINE
  8
0
 62
     4
 10
-196.734970
 20
-26.736923
 11
-185.734970
 21
-26.736923
  0
LINE
  8
0
 62
     4
 10
-185.734955
 20
-26.736938
 11
-184.734955
 21
-29.236931
  0
LINE
  8
0
 62
     4
 10
-189.734970
 20
-26.736923
 11
-189.734970
 21
-21.766113
  0
LINE
  8
0
 62
     4
 10
-192.734970
 20
-26.736923
 11
-192.734970
 21
-21.237091
  0
LINE
  8
0
 62
     4
 10
-192.734955
 20
-22.237074
 11
-197.233948
 21
-22.236998
  0
LINE
  8
0
 62
     1
 10
-188.734970
 20
-21.942484
 11
-193.734970
 21
-21.060762
  0
LINE
  8
0
 62
     1
 10
-188.734985
 20
-19.911610
 11
-193.734985
 21
-19.029890
  0
LINE
  8
0
 62
     4
 10
-192.734970
 20
-19.206223
 11
-192.734970
 21
-17.071991
  0
LINE
  8
0
 62
     4
 10
-189.734970
 20
-19.735260
 11
-189.734970
 21
-17.071991
  0
LINE
  8
0
 62
     4
 10
-192.734970
 20
-17.071991
 11
-189.734970
 21
-17.071991
  0
LINE
  8
0
 10
-198.734970
 20
-92.486923
 11
-198.234970
 21
-92.486923
  0
LINE
  8
0
 10
-198.734970
 20
-85.986923
 11
-198.234970
 21
-85.986923
  0
LINE
  8
0
 10
-198.234970
 20
-92.486923
 11
-198.234970
 21
-85.986923
  0
LINE
  8
0
 62
     4
 10
-191.984970
 20
-9.071991
 11
-190.484970
 21
-9.071991
  0
LINE
  8
0
 62
     4
 10
-191.984970
 20
-17.071991
 11
-191.984970
 21
-9.071991
  0
LINE
  8
0
 62
     4
 10
-190.984970
 20
-17.071991
 11
-190.984970
 21
-9.071991
  0
LINE
  8
0
 62
     4
 10
-191.484970
 20
-17.071991
 11
-191.484970
 21
-9.071991
  0
LINE
  8
0
 62
     4
 10
-190.484970
 20
-17.071991
 11
-190.484970
 21
-9.071991
  0
LINE
  8
0
 62
     4
 10
-190.484970
 20
-12.237030
 11
-182.234787
 21
-12.237030
  0
LINE
  8
0
 62
     4
 10
-198.734970
 20
-69.236923
 11
-183.734970
 21
-69.236923
  0
LINE
  8
0
 10
-315.696625
 20
-95.237015
 11
-316.696625
 21
-95.237015
  0
LINE
  8
0
 10
-315.696625
 20
-69.237015
 11
-316.696625
 21
-69.237015
  0
LINE
  8
0
 10
-315.696625
 20
-69.237015
 11
-315.696625
 21
-95.237015
  0
LINE
  8
0
 10
-316.696625
 20
-69.237015
 11
-316.696625
 21
-95.237015
  0
LINE
  8
0
 10
-358.422455
 20
-111.136963
 11
-358.796600
 21
-110.936951
  0
LINE
  8
0
 10
-347.796570
 20
-112.437027
 11
-347.796570
 21
-113.637024
  0
LINE
  8
0
 10
-348.970734
 20
-111.137024
 11
-358.422394
 21
-111.137024
  0
LINE
  8
0
 10
-359.596558
 20
-112.437027
 11
-359.596558
 21
-113.637024
  0
LINE
  8
0
  6
CENTER
 62
     2
 10
-353.696564
 20
-108.237015
 11
-353.696564
 21
-115.637024
  0
LINE
  8
0
 10
-357.196564
 20
-111.137024
 11
-357.196564
 21
-112.437027
  0
LINE
  8
0
 10
-350.196564
 20
-111.137024
 11
-350.196564
 21
-112.437027
  0
LINE
  8
0
 10
-347.796570
 20
-113.637024
 11
-359.596558
 21
-113.637024
  0
LINE
  8
0
 10
-347.796570
 20
-112.437027
 11
-359.596558
 21
-112.437027
  0
LINE
  8
0
 10
-358.796570
 20
-110.237015
 11
-358.796570
 21
-110.937027
  0
LINE
  8
0
 10
-348.596558
 20
-110.237015
 11
-348.596558
 21
-110.937012
  0
LINE
  8
0
 10
-348.596558
 20
-110.937027
 11
-358.796570
 21
-110.937027
  0
LINE
  8
0
 10
-348.596558
 20
-110.937004
 11
-348.970703
 21
-111.137016
  0
LINE
  8
0
  6
CENTER
 62
     2
 10
-330.196625
 20
-9.687012
 11
-330.196625
 21
-113.187012
  0
LINE
  8
0
 10
-342.696625
 20
-41.037018
 11
-317.696625
 21
-41.037018
  0
LINE
  8
0
 10
-342.696625
 20
-15.637024
 11
-312.696625
 21
-15.637024
  0
LINE
  8
0
 10
-312.696625
 20
-15.837021
 11
-342.696625
 21
-15.837021
  0
LINE
  8
0
 10
-312.696625
 20
-14.937027
 11
-312.696625
 21
-39.879562
  0
LINE
  8
0
 10
-342.696625
 20
-14.637009
 11
-342.696625
 21
-41.037018
  0
LINE
  8
0
 10
-318.196625
 20
-14.637009
 11
-318.196625
 21
-41.037018
  0
LINE
  8
0
 10
-318.196655
 20
-41.037006
 11
-317.696655
 21
-40.537006
  0
LINE
  8
0
 10
-317.696594
 20
-40.536964
 11
-313.179138
 21
-40.379211
  0
LINE
  8
0
 10
-342.696625
 20
-14.637009
 11
-312.996613
 21
-14.637009
  0
LINE
  8
0
 10
-341.696533
 20
-12.637009
 11
-319.196625
 21
-12.637009
  0
LINE
  8
0
 10
-342.696625
 20
-14.637056
 11
-341.696594
 21
-12.637001
  0
LINE
  8
0
 10
-318.196594
 20
-14.637033
 11
-319.196594
 21
-12.637018
  0
LINE
  8
0
 10
-317.696625
 20
-40.537018
 11
-317.696625
 21
-14.637009
  0
LINE
  8
0
 10
-316.696625
 20
-42.037018
 11
-316.696625
 21
-69.237015
  0
LINE
  8
0
 10
-343.696625
 20
-42.037022
 11
-342.696625
 21
-41.037018
  0
LINE
  8
0
 10
-316.696564
 20
-42.037018
 11
-317.696564
 21
-41.037022
  0
LINE
  8
0
 10
-343.696625
 20
-42.037018
 11
-316.696625
 21
-42.037018
  0
LINE
  8
0
 10
-343.696625
 20
-42.037018
 11
-343.696625
 21
-109.737015
  0
LINE
  8
0
 10
-343.696625
 20
-56.037018
 11
-316.696625
 21
-56.037018
  0
LINE
  8
0
 10
-313.496643
 20
-48.637016
 11
-313.496643
 21
-54.637009
  0
LINE
  8
0
 10
-316.696625
 20
-48.387016
 11
-313.996643
 21
-48.387016
  0
LINE
  8
0
 10
-316.696625
 20
-54.887016
 11
-313.996643
 21
-54.887016
  0
LINE
  8
0
 10
-313.996704
 20
-54.887005
 11
-313.496674
 21
-54.386993
  0
LINE
  8
0
 10
-313.496613
 20
-48.887035
 11
-313.996613
 21
-48.387035
  0
LINE
  8
0
 10
-312.996643
 20
-55.137016
 11
-310.996643
 21
-55.137016
  0
LINE
  8
0
 10
-312.996643
 20
-48.137016
 11
-310.996643
 21
-48.137016
  0
LINE
  8
0
 10
-310.496643
 20
-48.637016
 11
-310.496643
 21
-54.637016
  0
LINE
  8
0
 10
-313.496643
 20
-48.637009
 11
-312.996613
 21
-48.136997
  0
LINE
  8
0
 10
-310.996613
 20
-48.137005
 11
-310.496613
 21
-48.637016
  0
LINE
  8
0
 10
-310.496643
 20
-54.637024
 11
-310.996613
 21
-55.137016
  0
LINE
  8
0
 10
-312.996674
 20
-55.137051
 11
-313.496674
 21
-54.637047
  0
LINE
  8
0
 10
-308.896606
 20
-49.637016
 11
-308.896606
 21
-53.637016
  0
LINE
  8
0
 10
-310.496643
 20
-50.387016
 11
-308.896606
 21
-50.387016
  0
LINE
  8
0
 10
-310.496643
 20
-52.887016
 11
-308.896606
 21
-52.887016
  0
LINE
  8
0
 62
     2
 10
-310.496643
 20
-52.643517
 11
-308.896606
 21
-52.643517
  0
LINE
  8
0
 62
     2
 10
-310.496643
 20
-50.630516
 11
-308.896606
 21
-50.630516
  0
LINE
  8
0
 10
-303.896606
 20
-49.637016
 11
-303.896606
 21
-53.637009
  0
LINE
  8
0
 10
-308.396606
 20
-54.137016
 11
-304.396606
 21
-54.137016
  0
LINE
  8
0
 10
-308.396606
 20
-49.137016
 11
-304.396637
 21
-49.137016
  0
LINE
  8
0
 10
-308.896606
 20
-53.636993
 11
-308.396606
 21
-54.136993
  0
LINE
  8
0
 10
-304.396606
 20
-54.137024
 11
-303.896606
 21
-53.637035
  0
LINE
  8
0
 10
-303.896667
 20
-49.637012
 11
-304.396667
 21
-49.137012
  0
LINE
  8
0
 10
-308.396606
 20
-49.136993
 11
-308.896606
 21
-49.636993
  0
LINE
  8
0
 10
-304.396637
 20
-49.137016
 11
-304.396637
 21
-54.137009
  0
LINE
  8
0
 10
-313.996643
 20
-48.387016
 11
-313.996643
 21
-54.887016
  0
LINE
  8
0
 10
-308.396606
 20
-49.137016
 11
-308.396606
 21
-54.137016
  0
LINE
  8
0
 10
-310.996643
 20
-48.137016
 11
-310.996643
 21
-55.137016
  0
LINE
  8
0
 10
-312.996643
 20
-48.137016
 11
-312.996643
 21
-55.137016
  0
LINE
  8
0
 10
-343.696625
 20
-109.737015
 11
-316.696625
 21
-109.737015
  0
LINE
  8
0
 10
-288.696625
 20
-94.737015
 11
-288.696625
 21
-59.937012
  0
LINE
  8
0
 10
-289.396606
 20
-109.737015
 11
-314.989594
 21
-109.737015
  0
LINE
  8
0
 10
-288.696625
 20
-94.737015
 11
-315.696625
 21
-94.737015
  0
LINE
  8
0
 10
-288.696625
 20
-69.737015
 11
-315.696625
 21
-69.737015
  0
LINE
  8
0
 10
-288.896606
 20
-59.737015
 11
-315.496643
 21
-59.737015
  0
LINE
  8
0
 10
-315.696625
 20
-69.237015
 11
-315.696625
 21
-59.937012
  0
LINE
  8
0
 10
-289.189697
 20
-109.530090
 11
-288.696594
 21
-94.736992
  0
LINE
  8
0
 10
-315.203247
 20
-109.537132
 11
-315.696594
 21
-94.737007
  0
LINE
  8
0
 10
-288.696594
 20
-59.937004
 11
-288.896606
 21
-59.736996
  0
LINE
  8
0
 10
-315.496613
 20
-59.736965
 11
-315.696625
 21
-59.936958
  0
LINE
  8
0
 10
-315.203278
 20
-109.537094
 11
-314.989594
 21
-109.736992
  0
LINE
  8
0
 10
-289.396606
 20
-109.737000
 11
-289.189728
 21
-109.530121
  0
LINE
  8
0
 10
-316.696625
 20
-95.237015
 11
-316.696625
 21
-109.737015
  0
LINE
  8
0
 62
     4
 10
-333.946075
 20
-12.637009
 11
-333.946075
 21
-9.072327
  0
LINE
  8
0
  6
CENTER
 62
     1
 10
-334.696075
 20
-7.596649
 11
-334.696075
 21
-12.637009
  0
LINE
  8
0
 62
     4
 10
-334.946075
 20
-12.637009
 11
-334.946075
 21
-9.072327
  0
LINE
  8
0
 62
     4
 10
-334.446075
 20
-12.637009
 11
-334.446075
 21
-9.072327
  0
LINE
  8
0
 62
     4
 10
-335.446075
 20
-12.637009
 11
-335.446075
 21
-9.072327
  0
LINE
  8
0
 62
     4
 10
-335.446106
 20
-9.072327
 11
-333.946106
 21
-9.072327
  0
LINE
  8
0
 10
-344.696564
 20
-101.237015
 11
-343.696564
 21
-101.237015
  0
LINE
  8
0
 10
-343.696564
 20
-45.737030
 11
-344.696564
 21
-45.737030
  0
LINE
  8
0
 10
-198.234787
 20
-200.035461
 11
-198.234787
 21
-227.035461
  0
LINE
  8
0
 10
-217.234787
 20
-227.035461
 11
-198.234787
 21
-227.035461
  0
LINE
  8
0
 10
-217.234787
 20
-200.035461
 11
-217.234787
 21
-227.035461
  0
LINE
  8
0
 10
-236.234787
 20
-200.035461
 11
-236.234787
 21
-227.035461
  0
LINE
  8
0
  6
CENTER
 62
     2
 10
-207.734787
 20
-228.035461
 11
-207.734787
 21
-142.035461
  0
LINE
  8
0
 10
-236.234787
 20
-227.035461
 11
-217.234787
 21
-227.035461
  0
LINE
  8
0
 10
-236.234787
 20
-200.035461
 11
-198.234787
 21
-200.035461
  0
LINE
  8
0
  6
CENTER
 62
     2
 10
-226.734787
 20
-228.035461
 11
-226.734787
 21
-157.535461
  0
LINE
  8
0
 10
-198.734787
 20
-172.035461
 11
-198.734787
 21
-199.035461
  0
LINE
  8
0
 10
-235.734787
 20
-172.035461
 11
-235.734787
 21
-199.035461
  0
LINE
  8
0
 10
-198.734787
 20
-172.035461
 11
-235.734787
 21
-172.035461
  0
LINE
  8
0
 10
-220.392242
 20
-168.035461
 11
-223.234787
 21
-168.035461
  0
LINE
  8
0
 10
-233.699905
 20
-172.035461
 11
-233.577072
 21
-168.518005
  0
LINE
  8
0
 10
-219.769714
 20
-172.035477
 11
-219.892548
 21
-168.518005
  0
LINE
  8
0
 10
-198.734787
 20
-199.035461
 11
-235.734787
 21
-199.035461
  0
LINE
  8
0
  6
CENTER
 62
     2
 10
-215.234787
 20
-182.035461
 11
-200.234787
 21
-182.035461
  0
LINE
  8
0
 10
-214.558472
 20
-181.435471
 11
-200.911118
 21
-181.435471
  0
LINE
  8
0
 10
-214.558456
 20
-182.635468
 11
-200.911118
 21
-182.635468
  0
LINE
  8
0
 10
-216.734787
 20
-171.035461
 11
-198.734787
 21
-171.035461
  0
LINE
  8
0
 10
-198.734787
 20
-171.035461
 11
-198.734787
 21
-144.035461
  0
LINE
  8
0
 10
-216.734787
 20
-171.035461
 11
-216.734787
 21
-144.035461
  0
LINE
  8
0
 10
-216.734787
 20
-144.035461
 11
-198.734787
 21
-144.035461
  0
LINE
  8
0
  6
CENTER
 62
     2
 10
-212.234787
 20
-157.535461
 11
-203.234787
 21
-157.535461
  0
LINE
  8
0
 62
     4
 10
-182.234802
 20
-227.035461
 11
-182.234802
 21
-200.035446
  0
LINE
  8
0
 62
     4
 10
-198.234787
 20
-227.035461
 11
-182.234802
 21
-227.035461
  0
LINE
  8
0
  6
CENTER
 62
     1
 10
-190.234802
 20
-193.335464
 11
-190.234802
 21
-228.535461
  0
LINE
  8
0
 62
     4
 10
-182.234802
 20
-200.035446
 11
-198.234787
 21
-200.035446
  0
LINE
  8
0
 62
     4
 10
-182.484787
 20
-195.735458
 11
-186.984787
 21
-195.735458
  0
LINE
  8
0
 62
     4
 10
-182.484802
 20
-195.041718
 11
-182.484802
 21
-196.335464
  0
LINE
  8
0
 62
     4
 10
-186.984802
 20
-195.041718
 11
-186.984802
 21
-196.335464
  0
LINE
  8
0
 62
     4
 10
-182.484787
 20
-196.335449
 11
-197.984787
 21
-196.335449
  0
LINE
  8
0
 62
     4
 10
-182.734802
 20
-196.335449
 11
-182.734802
 21
-199.035461
  0
LINE
  8
0
 62
     4
 10
-197.734802
 20
-196.335449
 11
-197.734802
 21
-199.035461
  0
LINE
  8
0
 62
     4
 10
-182.734787
 20
-198.335449
 11
-197.734787
 21
-198.335449
  0
LINE
  8
0
 62
     4
 10
-182.734787
 20
-199.035446
 11
-197.734787
 21
-199.035446
  0
LINE
  8
0
 62
     4
 10
-197.984802
 20
-195.041718
 11
-197.984802
 21
-196.335464
  0
LINE
  8
0
 62
     4
 10
-193.484802
 20
-195.041718
 11
-193.484802
 21
-196.335464
  0
LINE
  8
0
 62
     4
 10
-193.484787
 20
-195.735458
 11
-197.984787
 21
-195.735458
  0
LINE
  8
0
 62
     4
 10
-198.734787
 20
-174.035431
 11
-183.734802
 21
-174.035431
  0
LINE
  8
0
 62
     4
 10
-183.734802
 20
-194.035431
 11
-183.734802
 21
-174.035431
  0
LINE
  8
0
 62
     4
 10
-198.734787
 20
-194.035431
 11
-183.734802
 21
-194.035431
  0
LINE
  8
0
 10
-212.734787
 20
-203.535461
 11
-212.734787
 21
-203.821198
  0
LINE
  8
0
 10
-207.734787
 20
-203.535461
 11
-207.734787
 21
-203.821198
  0
LINE
  8
0
 10
-202.734787
 20
-214.535461
 11
-202.734787
 21
-215.590240
  0
LINE
  8
0
 10
-207.734787
 20
-214.535461
 11
-207.734787
 21
-215.590240
  0
LINE
  8
0
 10
-212.734787
 20
-203.535461
 11
-212.173874
 21
-203.535461
  0
LINE
  8
0
 10
-207.734787
 20
-214.535461
 11
-202.734787
 21
-214.535461
  0
LINE
  8
0
  6
CENTER
 62
     2
 10
-210.234787
 20
-202.035461
 11
-210.234787
 21
-216.035461
  0
LINE
  8
0
  6
CENTER
 62
     2
 10
-204.511810
 20
-209.035461
 11
-216.127792
 21
-209.035461
  0
LINE
  8
0
 10
-205.334793
 20
-208.035461
 11
-205.334793
 21
-210.035461
  0
LINE
  8
0
 10
-215.134796
 20
-208.035461
 11
-215.134796
 21
-210.035461
  0
LINE
  8
0
  6
CENTER
 62
     2
 10
-205.234787
 20
-214.059052
 11
-205.234787
 21
-225.650513
  0
LINE
  8
0
  6
CENTER
 62
     2
 10
-199.511810
 20
-220.035461
 11
-211.127792
 21
-220.035461
  0
LINE
  8
0
 10
-208.295715
 20
-203.535461
 11
-207.734787
 21
-203.535461
  0
LINE
  8
0
 10
-229.734787
 20
-168.835464
 11
-223.734787
 21
-168.835464
  0
LINE
  8
0
 10
-229.984787
 20
-172.035461
 11
-229.984787
 21
-169.335464
  0
LINE
  8
0
 10
-223.484787
 20
-172.035461
 11
-223.484787
 21
-169.335464
  0
LINE
  8
0
 10
-223.484741
 20
-169.335419
 11
-223.984741
 21
-168.835419
  0
LINE
  8
0
 10
-229.484772
 20
-168.835464
 11
-229.984772
 21
-169.335464
  0
LINE
  8
0
 10
-223.234787
 20
-168.335464
 11
-223.234787
 21
-166.335464
  0
LINE
  8
0
 10
-230.234787
 20
-168.335464
 11
-230.234787
 21
-166.335464
  0
LINE
  8
0
 10
-229.734787
 20
-165.835464
 11
-223.734787
 21
-165.835464
  0
LINE
  8
0
 10
-229.734787
 20
-168.835449
 11
-230.234787
 21
-168.335449
  0
LINE
  8
0
 10
-230.234772
 20
-166.335464
 11
-229.734787
 21
-165.835480
  0
LINE
  8
0
 10
-223.734802
 20
-165.835495
 11
-223.234802
 21
-166.335495
  0
LINE
  8
0
 10
-223.234726
 20
-168.335464
 11
-223.734741
 21
-168.835464
  0
LINE
  8
0
 10
-228.734787
 20
-164.235458
 11
-224.734787
 21
-164.235458
  0
LINE
  8
0
 10
-227.984787
 20
-165.835464
 11
-227.984787
 21
-164.235458
  0
LINE
  8
0
 10
-225.484787
 20
-165.835464
 11
-225.484787
 21
-164.235458
  0
LINE
  8
0
 62
     2
 10
-225.728287
 20
-165.835464
 11
-225.728287
 21
-164.235458
  0
LINE
  8
0
 62
     2
 10
-227.741287
 20
-165.835464
 11
-227.741287
 21
-164.235458
  0
LINE
  8
0
 10
-228.734787
 20
-159.235458
 11
-224.734787
 21
-159.235458
  0
LINE
  8
0
 10
-224.234787
 20
-163.735458
 11
-224.234787
 21
-159.735458
  0
LINE
  8
0
 10
-229.234787
 20
-163.735458
 11
-229.234787
 21
-159.735474
  0
LINE
  8
0
 10
-224.734741
 20
-164.235443
 11
-224.234756
 21
-163.735443
  0
LINE
  8
0
 10
-224.234756
 20
-159.735443
 11
-224.734756
 21
-159.235428
  0
LINE
  8
0
 10
-228.734802
 20
-159.235458
 11
-229.234818
 21
-159.735474
  0
LINE
  8
0
 10
-229.234802
 20
-163.735458
 11
-228.734802
 21
-164.235458
  0
LINE
  8
0
 10
-229.234787
 20
-159.735474
 11
-224.234787
 21
-159.735474
  0
LINE
  8
0
 10
-229.984787
 20
-169.335464
 11
-223.484787
 21
-169.335464
  0
LINE
  8
0
 10
-229.234787
 20
-163.735458
 11
-224.234787
 21
-163.735458
  0
LINE
  8
0
 10
-230.234787
 20
-166.335464
 11
-223.234787
 21
-166.335464
  0
LINE
  8
0
 10
-230.234787
 20
-168.335464
 11
-223.234787
 21
-168.335464
  0
LINE
  8
0
 10
-230.234787
 20
-168.035461
 11
-233.077332
 21
-168.035461
  0
LINE
  8
0
 10
-216.234787
 20
-199.035461
 11
-216.234787
 21
-200.035461
  0
LINE
  8
0
 10
-199.234787
 20
-199.035461
 11
-199.234787
 21
-200.035461
  0
LINE
  8
0
 10
-235.234787
 20
-199.035461
 11
-235.234787
 21
-200.035461
  0
LINE
  8
0
 10
-218.234787
 20
-199.035461
 11
-218.234787
 21
-200.035461
  0
LINE
  8
0
 10
-216.484787
 20
-172.035461
 11
-216.484787
 21
-171.035461
  0
LINE
  8
0
 10
-198.984787
 20
-172.035461
 11
-198.984787
 21
-171.035461
  0
LINE
  8
0
 62
     4
 10
-197.234787
 20
-199.035461
 11
-197.234787
 21
-200.035461
  0
LINE
  8
0
 62
     4
 10
-183.234787
 20
-199.035461
 11
-183.234787
 21
-200.035461
  0
LINE
  8
0
 10
55.115204
 20
-32.037003
 11
55.115204
 21
-36.037003
  0
LINE
  8
0
 10
53.115204
 20
-26.737000
 11
53.115204
 21
-39.237015
  0
LINE
  8
0
 10
64.115204
 20
-26.737015
 11
64.115204
 21
-39.237015
  0
LINE
  8
0
 10
53.115204
 20
-26.737030
 11
64.115204
 21
-26.737030
  0
LINE
  8
0
 10
55.115204
 20
-36.037018
 11
62.115204
 21
-36.037018
  0
LINE
  8
0
 10
55.115204
 20
-32.037018
 11
62.115204
 21
-32.037018
  0
LINE
  8
0
 10
51.115204
 20
-14.637009
 11
66.115204
 21
-14.637009
  0
LINE
  8
0
 10
52.215332
 20
-12.637009
 11
65.015297
 21
-12.637009
  0
LINE
  8
0
 10
51.789810
 20
-15.837006
 11
51.789810
 21
-40.362411
  0
LINE
  8
0
 10
65.440582
 20
-15.837006
 11
65.440582
 21
-40.362411
  0
LINE
  8
0
 10
51.115288
 20
-14.637046
 11
52.215313
 21
-12.637001
  0
LINE
  8
0
 10
65.015266
 20
-12.637030
 11
66.115250
 21
-14.637007
  0
LINE
  8
0
 10
51.115204
 20
-15.837021
 11
66.115204
 21
-15.837021
  0
LINE
  8
0
 10
65.895355
 20
-14.237030
 11
68.115219
 21
-14.237030
  0
LINE
  8
0
 10
49.115219
 20
-40.237030
 11
51.115204
 21
-40.237030
  0
LINE
  8
0
 10
49.115219
 20
-41.737030
 11
49.915207
 21
-41.737030
  0
LINE
  8
0
 10
66.115204
 20
-40.237030
 11
67.615219
 21
-40.237030
  0
LINE
  8
0
 10
67.315201
 20
-41.737030
 11
67.615219
 21
-41.737030
  0
LINE
  8
0
 10
49.115219
 20
-12.237030
 11
49.115219
 21
-59.237030
  0
LINE
  8
0
 10
30.115219
 20
-12.237030
 11
68.115219
 21
-12.237030
  0
LINE
  8
0
 10
30.115219
 20
-110.237030
 11
68.115219
 21
-110.237030
  0
LINE
  8
0
 10
30.115219
 20
-14.237030
 11
32.335297
 21
-14.237030
  0
LINE
  8
0
  6
CENTER
 62
     2
 10
39.615234
 20
-9.237015
 11
39.615234
 21
-114.653687
  0
LINE
  8
0
 10
47.115204
 20
-14.637009
 11
47.115204
 21
-41.037003
  0
LINE
  8
0
 10
32.115204
 20
-14.637009
 11
32.115204
 21
-41.037003
  0
LINE
  8
0
 10
32.115204
 20
-15.637009
 11
47.115204
 21
-15.637009
  0
LINE
  8
0
 10
32.789810
 20
-40.362411
 11
46.440582
 21
-40.362411
  0
LINE
  8
0
 10
34.115204
 20
-39.237030
 11
45.115204
 21
-39.237030
  0
LINE
  8
0
 10
34.115204
 20
-25.037018
 11
45.115204
 21
-25.037018
  0
LINE
  8
0
 10
34.115204
 20
-17.537018
 11
45.115204
 21
-17.537018
  0
LINE
  8
0
 10
34.115204
 20
-17.537003
 11
34.115204
 21
-25.037003
  0
LINE
  8
0
 10
45.115204
 20
-17.537018
 11
45.115204
 21
-25.037018
  0
LINE
  8
0
 10
43.115204
 20
-32.037018
 11
43.115204
 21
-36.037018
  0
LINE
  8
0
 10
36.115204
 20
-32.037003
 11
36.115204
 21
-36.037003
  0
LINE
  8
0
 10
34.115204
 20
-26.737000
 11
34.115204
 21
-39.237015
  0
LINE
  8
0
 10
45.115204
 20
-26.737015
 11
45.115204
 21
-39.237015
  0
LINE
  8
0
 10
34.115204
 20
-26.737030
 11
45.115204
 21
-26.737030
  0
LINE
  8
0
 10
36.115204
 20
-36.037018
 11
43.115204
 21
-36.037018
  0
LINE
  8
0
 10
36.115204
 20
-32.037018
 11
43.115204
 21
-32.037018
  0
LINE
  8
0
 10
32.115204
 20
-14.637009
 11
47.115204
 21
-14.637009
  0
LINE
  8
0
 10
33.215370
 20
-12.637009
 11
46.015331
 21
-12.637009
  0
LINE
  8
0
 10
32.789810
 20
-15.837006
 11
32.789810
 21
-40.362411
  0
LINE
  8
0
 10
46.440582
 20
-15.837006
 11
46.440582
 21
-40.362411
  0
LINE
  8
0
 10
32.115330
 20
-14.637063
 11
33.215359
 21
-12.637006
  0
LINE
  8
0
 10
46.015301
 20
-12.637014
 11
47.115288
 21
-14.636992
  0
LINE
  8
0
 10
32.115204
 20
-15.837021
 11
47.115204
 21
-15.837021
  0
LINE
  8
0
 10
46.895355
 20
-14.237030
 11
49.115219
 21
-14.237030
  0
LINE
  8
0
 10
30.115219
 20
-40.237030
 11
32.115204
 21
-40.237030
  0
LINE
  8
0
 10
30.115219
 20
-41.737030
 11
30.915222
 21
-41.737030
  0
LINE
  8
0
 10
47.115204
 20
-40.237030
 11
49.115219
 21
-40.237030
  0
LINE
  8
0
 10
48.315201
 20
-41.737030
 11
49.115219
 21
-41.737030
  0
LINE
  8
0
 10
31.615219
 20
-41.037033
 11
47.615219
 21
-41.037033
  0
LINE
  8
0
 10
48.615219
 20
-59.237030
 11
67.615219
 21
-59.237030
  0
LINE
  8
0
 10
67.615219
 20
-29.236923
 11
67.615219
 21
-109.737030
  0
LINE
  8
0
 10
30.615219
 20
-42.037033
 11
30.615219
 21
-109.737030
  0
LINE
  8
0
 10
48.615219
 20
-42.037033
 11
48.615219
 21
-59.237030
  0
LINE
  8
0
 10
49.615219
 20
-42.037033
 11
49.615219
 21
-59.237030
  0
LINE
  8
0
 10
50.615219
 20
-41.037033
 11
66.615219
 21
-41.037033
  0
LINE
  8
0
 10
31.615219
 20
-41.037037
 11
30.615210
 21
-42.037048
  0
LINE
  8
0
 10
47.615181
 20
-41.037071
 11
48.615181
 21
-42.037071
  0
LINE
  8
0
 10
49.615250
 20
-42.037029
 11
50.615250
 21
-41.037025
  0
LINE
  8
0
 10
66.615219
 20
-41.037064
 11
67.615219
 21
-42.037064
  0
LINE
  8
0
 10
30.615219
 20
-42.037033
 11
48.615219
 21
-42.037033
  0
LINE
  8
0
 10
67.615219
 20
-42.037033
 11
49.615219
 21
-42.037033
  0
LINE
  8
0
  6
CENTER
 62
     2
 10
36.376846
 20
-44.537033
 11
42.655594
 21
-44.537033
  0
LINE
  8
0
  6
CENTER
 62
     2
 10
55.498520
 20
-44.537033
 11
61.063782
 21
-44.537033
  0
LINE
  8
0
 10
30.615219
 20
-56.037033
 11
48.615219
 21
-56.037033
  0
LINE
  8
0
 10
30.615219
 20
-109.737030
 11
67.615219
 21
-109.737030
  0
LINE
  8
0
 10
49.615219
 20
-59.737030
 11
49.615219
 21
-94.737030
  0
LINE
  8
0
 10
49.615219
 20
-59.737030
 11
67.615219
 21
-59.737030
  0
LINE
  8
0
 10
67.615219
 20
-69.737030
 11
49.615219
 21
-69.737030
  0
LINE
  8
0
 10
49.615234
 20
-94.737053
 11
50.115223
 21
-109.737053
  0
LINE
  8
0
 10
67.615250
 20
-94.737045
 11
67.115234
 21
-109.737045
  0
LINE
  8
0
 10
49.615219
 20
-94.737030
 11
67.615219
 21
-94.737030
  0
LINE
  8
0
  6
CENTER
 62
     2
 10
34.615234
 20
-51.637024
 11
44.615234
 21
-51.637024
  0
LINE
  8
0
 62
     4
 10
84.115219
 20
-12.237030
 11
84.115219
 21
-110.237030
  0
LINE
  8
0
 62
     4
 10
68.115219
 20
-12.237030
 11
74.365036
 21
-12.237030
  0
LINE
  8
0
 62
     4
 10
68.115219
 20
-110.237030
 11
84.115219
 21
-110.237030
  0
LINE
  8
0
 62
     4
 10
83.616043
 20
-22.737251
 11
83.614700
 21
-102.237251
  0
LINE
  8
0
 62
     4
 10
68.616043
 20
-22.737028
 11
68.615936
 21
-29.236952
  0
LINE
  8
0
 62
     4
 10
83.116058
 20
-22.237244
 11
76.615051
 21
-22.237133
  0
LINE
  8
0
 62
     4
 10
83.114693
 20
-102.737244
 11
69.114693
 21
-102.737007
  0
LINE
  8
0
 62
     4
 10
68.614708
 20
-101.736931
 11
68.614700
 21
-102.237007
  0
LINE
  8
0
 62
     4
 10
82.615036
 20
-101.736908
 11
82.615036
 21
-29.236923
  0
LINE
  8
0
 62
     4
 10
67.615036
 20
-101.736923
 11
82.615036
 21
-101.736923
  0
LINE
  8
0
 10
68.115219
 20
-101.736923
 11
68.115219
 21
-110.237030
  0
LINE
  8
0
 62
     4
 10
67.615036
 20
-29.236923
 11
82.615036
 21
-29.236923
  0
LINE
  8
0
  6
CENTER
 62
     1
 10
75.115036
 20
-104.914627
 11
75.115036
 21
-8.375046
  0
LINE
  8
0
 62
     4
 10
68.615021
 20
-29.236933
 11
69.615021
 21
-26.736935
  0
LINE
  8
0
 62
     4
 10
69.615036
 20
-26.736923
 11
80.615036
 21
-26.736923
  0
LINE
  8
0
 62
     4
 10
80.615044
 20
-26.736944
 11
81.615044
 21
-29.236944
  0
LINE
  8
0
 62
     4
 10
76.615036
 20
-26.736923
 11
76.615036
 21
-21.766113
  0
LINE
  8
0
 62
     4
 10
73.615036
 20
-26.736923
 11
73.615036
 21
-21.237091
  0
LINE
  8
0
 62
     4
 10
73.615051
 20
-22.237082
 11
69.116058
 21
-22.237005
  0
LINE
  8
0
 62
     1
 10
77.615044
 20
-21.942486
 11
72.615044
 21
-21.060766
  0
LINE
  8
0
 62
     1
 10
77.615013
 20
-19.911610
 11
72.615013
 21
-19.029890
  0
LINE
  8
0
 62
     4
 10
73.615036
 20
-19.206223
 11
73.615036
 21
-17.071991
  0
LINE
  8
0
 62
     4
 10
76.615036
 20
-19.735260
 11
76.615036
 21
-17.071991
  0
LINE
  8
0
 62
     4
 10
73.615036
 20
-17.071991
 11
76.615036
 21
-17.071991
  0
LINE
  8
0
 10
67.615036
 20
-92.486923
 11
68.115036
 21
-92.486923
  0
LINE
  8
0
 10
67.615036
 20
-85.986923
 11
68.115036
 21
-85.986923
  0
LINE
  8
0
 10
68.115036
 20
-92.486923
 11
68.115036
 21
-85.986923
  0
LINE
  8
0
 62
     4
 10
74.365036
 20
-9.071991
 11
75.865036
 21
-9.071991
  0
LINE
  8
0
 62
     4
 10
74.365036
 20
-17.071991
 11
74.365036
 21
-9.071991
  0
LINE
  8
0
 62
     4
 10
75.365036
 20
-17.071991
 11
75.365036
 21
-9.071991
  0
LINE
  8
0
 62
     4
 10
74.865036
 20
-17.071991
 11
74.865036
 21
-9.071991
  0
LINE
  8
0
 62
     4
 10
75.865036
 20
-17.071991
 11
75.865036
 21
-9.071991
  0
LINE
  8
0
 62
     4
 10
75.865036
 20
-12.237030
 11
84.115219
 21
-12.237030
  0
LINE
  8
0
 62
     4
 10
67.615036
 20
-69.236923
 11
82.615036
 21
-69.236923
  0
LINE
  8
0
 10
30.115219
 20
-12.237030
 11
30.115219
 21
-110.237030
  0
LINE
  8
0
 10
68.115219
 20
-12.237030
 11
68.115219
 21
-29.236923
  0
LINE
  8
0
 10
49.115219
 20
-14.237030
 11
51.335297
 21
-14.237030
  0
LINE
  8
0
  6
CENTER
 62
     2
 10
58.615219
 20
-9.237015
 11
58.615219
 21
-114.653687
  0
LINE
  8
0
 10
66.115204
 20
-14.637009
 11
66.115204
 21
-41.037003
  0
LINE
  8
0
 10
51.115204
 20
-14.637009
 11
51.115204
 21
-41.037003
  0
LINE
  8
0
 10
51.115204
 20
-15.637009
 11
66.115204
 21
-15.637009
  0
LINE
  8
0
 10
51.789810
 20
-40.362411
 11
65.440582
 21
-40.362411
  0
LINE
  8
0
 10
53.115204
 20
-39.237030
 11
64.115204
 21
-39.237030
  0
LINE
  8
0
 10
53.115204
 20
-25.037018
 11
64.115204
 21
-25.037018
  0
LINE
  8
0
 10
53.115204
 20
-17.537018
 11
64.115204
 21
-17.537018
  0
LINE
  8
0
 10
53.115204
 20
-17.537003
 11
53.115204
 21
-25.037003
  0
LINE
  8
0
 10
64.115204
 20
-17.537018
 11
64.115204
 21
-25.037018
  0
LINE
  8
0
 10
62.115204
 20
-32.037018
 11
62.115204
 21
-36.037018
  0
LINE
  8
0
  6
CENTER
 62
     2
 10
56.115219
 20
-108.237030
 11
56.115219
 21
-123.237030
  0
LINE
  8
0
 10
49.965225
 20
-110.237030
 11
49.965225
 21
-111.037018
  0
LINE
  8
0
 10
61.965317
 20
-111.037086
 11
61.065311
 21
-112.037086
  0
LINE
  8
0
 10
50.865227
 20
-112.037041
 11
49.965221
 21
-111.037041
  0
LINE
  8
0
 10
50.865234
 20
-112.037033
 11
52.902740
 21
-112.037033
  0
LINE
  8
0
 10
61.965225
 20
-111.037018
 11
61.965225
 21
-110.237030
  0
LINE
  8
0
 10
61.965225
 20
-111.037018
 11
57.500854
 21
-111.037018
  0
LINE
  8
0
  6
CENTER
 62
     2
 10
49.965225
 20
-116.737030
 11
61.965225
 21
-116.737030
  0
LINE
  8
0
 10
52.115219
 20
-112.037033
 11
52.115219
 21
-112.906830
  0
LINE
  8
0
 10
60.115219
 20
-112.037033
 11
60.115219
 21
-112.906830
  0
LINE
  8
0
 10
59.327698
 20
-112.037033
 11
61.065231
 21
-112.037033
  0
LINE
  8
0
 10
54.729599
 20
-111.037018
 11
49.965225
 21
-111.037018
  0
LINE
  8
0
 10
51.215225
 20
-115.737030
 11
51.215225
 21
-117.737030
  0
LINE
  8
0
 10
61.015228
 20
-115.737030
 11
61.015228
 21
-117.737030
  0
LINE
  8
0
 10
-49.346649
 20
-95.237015
 11
-50.346649
 21
-95.237015
  0
LINE
  8
0
 10
-49.346649
 20
-69.237015
 11
-50.346649
 21
-69.237015
  0
LINE
  8
0
 10
-49.346649
 20
-69.237015
 11
-49.346649
 21
-95.237015
  0
LINE
  8
0
 10
-50.346649
 20
-69.237015
 11
-50.346649
 21
-95.237015
  0
LINE
  8
0
  6
CENTER
 62
     2
 10
-63.846649
 20
-9.687012
 11
-63.846649
 21
-113.187012
  0
LINE
  8
0
 10
-76.346649
 20
-41.037018
 11
-51.346649
 21
-41.037018
  0
LINE
  8
0
 10
-76.346649
 20
-15.637024
 11
-46.346649
 21
-15.637024
  0
LINE
  8
0
 10
-46.346649
 20
-15.837021
 11
-76.346649
 21
-15.837021
  0
LINE
  8
0
 10
-46.346649
 20
-14.937027
 11
-46.346649
 21
-39.879562
  0
LINE
  8
0
 10
-76.346649
 20
-14.637009
 11
-76.346649
 21
-41.037018
  0
LINE
  8
0
 10
-51.846649
 20
-14.637009
 11
-51.846649
 21
-41.037018
  0
LINE
  8
0
 10
-51.846653
 20
-41.037018
 11
-51.346653
 21
-40.537018
  0
LINE
  8
0
 10
-51.346634
 20
-40.536957
 11
-46.829182
 21
-40.379204
  0
LINE
  8
0
 10
-76.346649
 20
-14.637009
 11
-46.646637
 21
-14.637009
  0
LINE
  8
0
 10
-75.346558
 20
-12.637009
 11
-52.846649
 21
-12.637009
  0
LINE
  8
0
 10
-76.346603
 20
-14.637054
 11
-75.346581
 21
-12.636999
  0
LINE
  8
0
 10
-51.846626
 20
-14.637019
 11
-52.846634
 21
-12.637005
  0
LINE
  8
0
 10
-51.346649
 20
-40.537018
 11
-51.346649
 21
-14.637009
  0
LINE
  8
0
 10
-50.346649
 20
-42.037018
 11
-50.346649
 21
-69.237015
  0
LINE
  8
0
 10
-77.346649
 20
-42.037022
 11
-76.346649
 21
-41.037022
  0
LINE
  8
0
 10
-50.346619
 20
-42.037052
 11
-51.346622
 21
-41.037056
  0
LINE
  8
0
 10
-77.346649
 20
-42.037018
 11
-50.346649
 21
-42.037018
  0
LINE
  8
0
 10
-77.346649
 20
-42.037018
 11
-77.346649
 21
-109.737015
  0
LINE
  8
0
 10
-77.346649
 20
-56.037018
 11
-50.346649
 21
-56.037018
  0
LINE
  8
0
 10
-47.146667
 20
-48.637016
 11
-47.146667
 21
-54.637009
  0
LINE
  8
0
 10
-50.346649
 20
-48.387016
 11
-47.646667
 21
-48.387016
  0
LINE
  8
0
 10
-50.346649
 20
-54.887016
 11
-47.646667
 21
-54.887016
  0
LINE
  8
0
 10
-47.646690
 20
-54.887012
 11
-47.146690
 21
-54.387012
  0
LINE
  8
0
 10
-47.146641
 20
-48.887039
 11
-47.646641
 21
-48.387039
  0
LINE
  8
0
 10
-46.646667
 20
-55.137016
 11
-44.646667
 21
-55.137016
  0
LINE
  8
0
 10
-46.646667
 20
-48.137016
 11
-44.646667
 21
-48.137016
  0
LINE
  8
0
 10
-44.146667
 20
-48.637016
 11
-44.146667
 21
-54.637016
  0
LINE
  8
0
 10
-47.146667
 20
-48.637016
 11
-46.646656
 21
-48.137005
  0
LINE
  8
0
 10
-44.646645
 20
-48.137001
 11
-44.146633
 21
-48.637012
  0
LINE
  8
0
 10
-44.146652
 20
-54.637012
 11
-44.646652
 21
-55.137016
  0
LINE
  8
0
 10
-46.646675
 20
-55.137016
 11
-47.146675
 21
-54.637016
  0
LINE
  8
0
 10
-42.546631
 20
-49.637016
 11
-42.546631
 21
-53.637016
  0
LINE
  8
0
 10
-44.146667
 20
-50.387016
 11
-42.546631
 21
-50.387016
  0
LINE
  8
0
 10
-44.146667
 20
-52.887016
 11
-42.546631
 21
-52.887016
  0
LINE
  8
0
 62
     2
 10
-44.146667
 20
-52.643517
 11
-42.546631
 21
-52.643517
  0
LINE
  8
0
 62
     2
 10
-44.146667
 20
-50.630516
 11
-42.546631
 21
-50.630516
  0
LINE
  8
0
 10
-37.546631
 20
-49.637016
 11
-37.546631
 21
-53.637009
  0
LINE
  8
0
 10
-42.046631
 20
-54.137016
 11
-38.046631
 21
-54.137016
  0
LINE
  8
0
 10
-42.046631
 20
-49.137016
 11
-38.046661
 21
-49.137016
  0
LINE
  8
0
 10
-42.546619
 20
-53.637012
 11
-42.046619
 21
-54.137012
  0
LINE
  8
0
 10
-38.046635
 20
-54.137024
 11
-37.546646
 21
-53.637035
  0
LINE
  8
0
 10
-37.546646
 20
-49.637012
 11
-38.046650
 21
-49.137016
  0
LINE
  8
0
 10
-42.046646
 20
-49.136997
 11
-42.546646
 21
-49.636997
  0
LINE
  8
0
 10
-38.046661
 20
-49.137016
 11
-38.046661
 21
-54.137009
  0
LINE
  8
0
 10
-47.646667
 20
-48.387016
 11
-47.646667
 21
-54.887016
  0
LINE
  8
0
 10
-42.046631
 20
-49.137016
 11
-42.046631
 21
-54.137016
  0
LINE
  8
0
 10
-44.646667
 20
-48.137016
 11
-44.646667
 21
-55.137016
  0
LINE
  8
0
 10
-46.646667
 20
-48.137016
 11
-46.646667
 21
-55.137016
  0
LINE
  8
0
 10
-77.346649
 20
-109.737015
 11
-50.346649
 21
-109.737015
  0
LINE
  8
0
 10
-22.346649
 20
-94.737015
 11
-22.346649
 21
-59.937012
  0
LINE
  8
0
 10
-23.046631
 20
-109.737015
 11
-48.639618
 21
-109.737015
  0
LINE
  8
0
 10
-22.346649
 20
-94.737015
 11
-49.346649
 21
-94.737015
  0
LINE
  8
0
 10
-22.346649
 20
-69.737015
 11
-49.346649
 21
-69.737015
  0
LINE
  8
0
 10
-22.546631
 20
-59.737015
 11
-49.146667
 21
-59.737015
  0
LINE
  8
0
 10
-49.346649
 20
-69.237015
 11
-49.346649
 21
-59.937012
  0
LINE
  8
0
 10
-22.839752
 20
-109.530090
 11
-22.346651
 21
-94.736992
  0
LINE
  8
0
 10
-48.853313
 20
-109.537125
 11
-49.346649
 21
-94.737007
  0
LINE
  8
0
 10
-22.346657
 20
-59.937008
 11
-22.546663
 21
-59.737000
  0
LINE
  8
0
 10
-49.146652
 20
-59.736988
 11
-49.346649
 21
-59.936981
  0
LINE
  8
0
 10
-48.853317
 20
-109.537094
 11
-48.639641
 21
-109.736984
  0
LINE
  8
0
 10
-23.046640
 20
-109.736977
 11
-22.839760
 21
-109.530098
  0
LINE
  8
0
 10
-50.346649
 20
-95.237015
 11
-50.346649
 21
-109.737015
  0
LINE
  8
0
 62
     4
 10
-67.596100
 20
-12.637009
 11
-67.596100
 21
-9.072327
  0
LINE
  8
0
  6
CENTER
 62
     1
 10
-68.346100
 20
-7.596649
 11
-68.346100
 21
-12.637009
  0
LINE
  8
0
 62
     4
 10
-68.596100
 20
-12.637009
 11
-68.596100
 21
-9.072327
  0
LINE
  8
0
 62
     4
 10
-68.096100
 20
-12.637009
 11
-68.096100
 21
-9.072327
  0
LINE
  8
0
 62
     4
 10
-69.096100
 20
-12.637009
 11
-69.096100
 21
-9.072327
  0
LINE
  8
0
 62
     4
 10
-69.096130
 20
-9.072327
 11
-67.596130
 21
-9.072327
  0
LINE
  8
0
 10
-78.346588
 20
-101.237015
 11
-77.346588
 21
-101.237015
  0
LINE
  8
0
 10
-77.346588
 20
-45.737030
 11
-78.346588
 21
-45.737030
  0
LINE
  8
0
 10
-71.096596
 20
-110.837021
 11
-71.096596
 21
-122.637024
  0
LINE
  8
0
 10
-72.296593
 20
-110.837021
 11
-72.296593
 21
-122.637024
  0
LINE
  8
0
 10
-72.296585
 20
-122.637024
 11
-71.096588
 21
-122.637024
  0
LINE
  8
0
 10
-72.296585
 20
-110.837021
 11
-71.096588
 21
-110.837021
  0
LINE
  8
0
 10
-81.896584
 20
-120.687027
 11
-88.346581
 21
-120.687027
  0
LINE
  8
0
 10
-90.246590
 20
-113.637024
 11
-90.246590
 21
-118.787033
  0
LINE
  8
0
 10
-81.296585
 20
-111.487030
 11
-74.096588
 21
-111.487030
  0
LINE
  8
0
 10
-74.096588
 20
-111.737030
 11
-73.296585
 21
-111.737030
  0
LINE
  8
0
 10
-73.296593
 20
-111.737030
 11
-73.296593
 21
-121.737030
  0
LINE
  8
0
 10
-74.096588
 20
-121.737030
 11
-73.296585
 21
-121.737030
  0
LINE
  8
0
 10
-73.296585
 20
-120.237030
 11
-72.296585
 21
-120.237030
  0
LINE
  8
0
 10
-73.296585
 20
-113.237030
 11
-72.296585
 21
-113.237030
  0
LINE
  8
0
 10
-74.096596
 20
-111.487030
 11
-74.096596
 21
-121.987030
  0
LINE
  8
0
 10
-88.346581
 20
-121.987030
 11
-74.096588
 21
-121.987030
  0
LINE
  8
0
 10
-81.296593
 20
-111.487030
 11
-81.296593
 21
-121.987030
  0
LINE
  8
0
 10
-81.896584
 20
-112.787033
 11
-81.896584
 21
-120.687027
  0
LINE
  8
0
 10
-81.296600
 20
-111.487022
 11
-81.896599
 21
-112.787033
  0
LINE
  8
0
 10
-81.896538
 20
-120.687027
 11
-81.296539
 21
-121.987030
  0
LINE
  8
0
 10
-81.896584
 20
-112.787033
 11
-83.346581
 21
-112.787033
  0
LINE
  8
0
 10
-81.496590
 20
-111.037018
 11
-81.496590
 21
-110.237030
  0
LINE
  8
0
 10
-81.496590
 20
-111.037018
 11
-93.496590
 21
-111.037018
  0
LINE
  8
0
 10
-92.596581
 20
-112.037033
 11
-82.396584
 21
-112.037033
  0
LINE
  8
0
 10
-81.496582
 20
-111.037056
 11
-82.396584
 21
-112.037056
  0
LINE
  8
0
 10
-83.346588
 20
-112.037033
 11
-83.346588
 21
-113.037033
  0
LINE
  8
0
 10
-84.446602
 20
-113.636993
 11
-83.346603
 21
-113.036995
  0
LINE
  8
0
 10
-84.446571
 20
-113.637024
 11
-90.246590
 21
-113.637024
  0
LINE
  8
0
 10
-91.346581
 20
-113.037033
 11
-83.346581
 21
-113.037033
  0
LINE
  8
0
 10
-90.246613
 20
-113.637070
 11
-91.346603
 21
-113.037071
  0
LINE
  8
0
 10
-91.346588
 20
-112.037033
 11
-91.346588
 21
-118.987030
  0
LINE
  8
0
 10
-92.596626
 20
-112.037064
 11
-93.496628
 21
-111.037064
  0
LINE
  8
0
  6
CENTER
 62
     2
 10
-93.346581
 20
-116.737030
 11
-70.146591
 21
-116.737030
  0
LINE
  8
0
  6
CENTER
 62
     2
 10
-87.346588
 20
-108.237030
 11
-87.346588
 21
-123.237030
  0
LINE
  8
0
 10
-93.496590
 20
-110.237030
 11
-93.496590
 21
-111.037018
  0
LINE
  8
0
 10
68.115219
 20
-200.035461
 11
68.115219
 21
-227.035461
  0
LINE
  8
0
 10
49.115219
 20
-227.035461
 11
68.115219
 21
-227.035461
  0
LINE
  8
0
 10
49.115219
 20
-200.035461
 11
49.115219
 21
-227.035461
  0
LINE
  8
0
 10
30.115219
 20
-200.035461
 11
30.115219
 21
-227.035461
  0
LINE
  8
0
  6
CENTER
 62
     2
 10
58.615219
 20
-228.035461
 11
58.615219
 21
-142.035461
  0
LINE
  8
0
 10
30.115219
 20
-227.035461
 11
49.115219
 21
-227.035461
  0
LINE
  8
0
 10
30.115219
 20
-200.035461
 11
50.865219
 21
-200.035461
  0
LINE
  8
0
  6
CENTER
 62
     2
 10
39.615219
 20
-228.035461
 11
39.615219
 21
-157.535461
  0
LINE
  8
0
 10
67.615219
 20
-172.035461
 11
67.615219
 21
-199.035461
  0
LINE
  8
0
 10
30.615219
 20
-172.035461
 11
30.615219
 21
-199.035461
  0
LINE
  8
0
 10
67.615219
 20
-172.035461
 11
30.615219
 21
-172.035461
  0
LINE
  8
0
 10
45.957764
 20
-168.035461
 11
43.115219
 21
-168.035461
  0
LINE
  8
0
 10
32.650146
 20
-172.035431
 11
32.772976
 21
-168.517990
  0
LINE
  8
0
 10
46.580303
 20
-172.035477
 11
46.457470
 21
-168.518005
  0
LINE
  8
0
 10
67.615219
 20
-199.035461
 11
61.365219
 21
-199.035461
  0
LINE
  8
0
  6
CENTER
 62
     2
 10
51.115219
 20
-182.035461
 11
66.115219
 21
-182.035461
  0
LINE
  8
0
 10
51.791534
 20
-181.435471
 11
65.438889
 21
-181.435471
  0
LINE
  8
0
 10
51.791550
 20
-182.635468
 11
65.438889
 21
-182.635468
  0
LINE
  8
0
 10
49.615219
 20
-171.035461
 11
67.615219
 21
-171.035461
  0
LINE
  8
0
 10
67.615219
 20
-171.035461
 11
67.615219
 21
-144.035461
  0
LINE
  8
0
 10
49.615219
 20
-171.035461
 11
49.615219
 21
-144.035461
  0
LINE
  8
0
 10
49.615219
 20
-144.035461
 11
67.615219
 21
-144.035461
  0
LINE
  8
0
  6
CENTER
 62
     2
 10
54.115219
 20
-157.535461
 11
63.115219
 21
-157.535461
  0
LINE
  8
0
 62
     4
 10
84.115204
 20
-227.035461
 11
84.115204
 21
-200.035446
  0
LINE
  8
0
 62
     4
 10
68.115219
 20
-227.035461
 11
84.115204
 21
-227.035461
  0
LINE
  8
0
  6
CENTER
 62
     1
 10
76.115204
 20
-193.335464
 11
76.115204
 21
-228.535461
  0
LINE
  8
0
 62
     4
 10
84.115204
 20
-200.035446
 11
68.115219
 21
-200.035446
  0
LINE
  8
0
 62
     4
 10
83.865219
 20
-195.735458
 11
79.365219
 21
-195.735458
  0
LINE
  8
0
 62
     4
 10
83.865204
 20
-195.041718
 11
83.865204
 21
-196.335464
  0
LINE
  8
0
 62
     4
 10
79.365204
 20
-195.041718
 11
79.365204
 21
-196.335464
  0
LINE
  8
0
 62
     4
 10
83.865219
 20
-196.335449
 11
68.365219
 21
-196.335449
  0
LINE
  8
0
 62
     4
 10
83.615204
 20
-196.335449
 11
83.615204
 21
-199.035461
  0
LINE
  8
0
 62
     4
 10
68.615204
 20
-196.335449
 11
68.615204
 21
-199.035461
  0
LINE
  8
0
 62
     4
 10
83.615219
 20
-198.335449
 11
68.615219
 21
-198.335449
  0
LINE
  8
0
 62
     4
 10
83.615219
 20
-199.035446
 11
68.615219
 21
-199.035446
  0
LINE
  8
0
 62
     4
 10
68.365204
 20
-195.041718
 11
68.365204
 21
-196.335464
  0
LINE
  8
0
 62
     4
 10
72.865204
 20
-195.041718
 11
72.865204
 21
-196.335464
  0
LINE
  8
0
 62
     4
 10
72.865219
 20
-195.735458
 11
68.365219
 21
-195.735458
  0
LINE
  8
0
 62
     4
 10
67.615219
 20
-174.035431
 11
82.615204
 21
-174.035431
  0
LINE
  8
0
 62
     4
 10
82.615204
 20
-194.035431
 11
82.615204
 21
-174.035431
  0
LINE
  8
0
 62
     4
 10
67.615219
 20
-194.035431
 11
82.615204
 21
-194.035431
  0
LINE
  8
0
 10
63.615219
 20
-214.535461
 11
63.615219
 21
-215.590240
  0
LINE
  8
0
 10
58.615219
 20
-214.535461
 11
58.615219
 21
-215.590240
  0
LINE
  8
0
 10
58.615219
 20
-214.535461
 11
63.615219
 21
-214.535461
  0
LINE
  8
0
  6
CENTER
 62
     2
 10
61.115219
 20
-214.059052
 11
61.115219
 21
-225.650513
  0
LINE
  8
0
  6
CENTER
 62
     2
 10
66.838196
 20
-220.035461
 11
55.222214
 21
-220.035461
  0
LINE
  8
0
 10
36.615219
 20
-168.835464
 11
42.615219
 21
-168.835464
  0
LINE
  8
0
 10
36.365219
 20
-172.035461
 11
36.365219
 21
-169.335464
  0
LINE
  8
0
 10
42.865219
 20
-172.035461
 11
42.865219
 21
-169.335464
  0
LINE
  8
0
 10
42.865223
 20
-169.335434
 11
42.365234
 21
-168.835449
  0
LINE
  8
0
 10
36.865257
 20
-168.835464
 11
36.365246
 21
-169.335480
  0
LINE
  8
0
 10
43.115219
 20
-168.335464
 11
43.115219
 21
-166.335464
  0
LINE
  8
0
 10
36.115219
 20
-168.335464
 11
36.115219
 21
-166.335464
  0
LINE
  8
0
 10
36.615219
 20
-165.835464
 11
42.615219
 21
-165.835464
  0
LINE
  8
0
 10
36.615211
 20
-168.835449
 11
36.115211
 21
-168.335449
  0
LINE
  8
0
 10
36.115238
 20
-166.335464
 11
36.615227
 21
-165.835480
  0
LINE
  8
0
 10
42.615192
 20
-165.835480
 11
43.115192
 21
-166.335480
  0
LINE
  8
0
 10
43.115215
 20
-168.335403
 11
42.615204
 21
-168.835419
  0
LINE
  8
0
 10
37.615219
 20
-164.235458
 11
41.615219
 21
-164.235458
  0
LINE
  8
0
 10
38.365219
 20
-165.835464
 11
38.365219
 21
-164.235458
  0
LINE
  8
0
 10
40.865219
 20
-165.835464
 11
40.865219
 21
-164.235458
  0
LINE
  8
0
 62
     2
 10
40.621719
 20
-165.835464
 11
40.621719
 21
-164.235458
  0
LINE
  8
0
 62
     2
 10
38.608719
 20
-165.835464
 11
38.608719
 21
-164.235458
  0
LINE
  8
0
 10
37.615219
 20
-159.235458
 11
41.615219
 21
-159.235458
  0
LINE
  8
0
 10
42.115219
 20
-163.735458
 11
42.115219
 21
-159.735458
  0
LINE
  8
0
 10
37.115219
 20
-163.735458
 11
37.115219
 21
-159.735474
  0
LINE
  8
0
 10
41.615223
 20
-164.235428
 11
42.115211
 21
-163.735443
  0
LINE
  8
0
 10
42.115211
 20
-159.735458
 11
41.615211
 21
-159.235458
  0
LINE
  8
0
 10
37.615238
 20
-159.235443
 11
37.115227
 21
-159.735458
  0
LINE
  8
0
 10
37.115200
 20
-163.735443
 11
37.615211
 21
-164.235458
  0
LINE
  8
0
 10
37.115219
 20
-159.735474
 11
42.115219
 21
-159.735474
  0
LINE
  8
0
 10
36.365219
 20
-169.335464
 11
42.865219
 21
-169.335464
  0
LINE
  8
0
 10
37.115219
 20
-163.735458
 11
42.115219
 21
-163.735458
  0
LINE
  8
0
 10
36.115219
 20
-166.335464
 11
43.115219
 21
-166.335464
  0
LINE
  8
0
 10
36.115219
 20
-168.335464
 11
43.115219
 21
-168.335464
  0
LINE
  8
0
 10
36.115219
 20
-168.035461
 11
33.272675
 21
-168.035461
  0
LINE
  8
0
 10
50.115219
 20
-199.035461
 11
50.115219
 21
-200.035461
  0
LINE
  8
0
 10
67.115219
 20
-199.035461
 11
67.115219
 21
-200.035461
  0
LINE
  8
0
 10
31.115219
 20
-199.035461
 11
31.115219
 21
-200.035461
  0
LINE
  8
0
 10
48.115219
 20
-199.035461
 11
48.115219
 21
-200.035461
  0
LINE
  8
0
 10
49.865219
 20
-172.035461
 11
49.865219
 21
-171.035461
  0
LINE
  8
0
 10
67.365219
 20
-172.035461
 11
67.365219
 21
-171.035461
  0
LINE
  8
0
 62
     4
 10
69.115219
 20
-199.035461
 11
69.115219
 21
-200.035461
  0
LINE
  8
0
 62
     4
 10
83.115219
 20
-199.035461
 11
83.115219
 21
-200.035461
  0
LINE
  8
0
  6
CENTER
 62
     2
 10
63.115234
 20
-209.035461
 11
49.115234
 21
-209.035461
  0
LINE
  8
0
  6
CENTER
 62
     2
 10
56.115219
 20
-216.035461
 11
56.115219
 21
-191.685471
  0
LINE
  8
0
 10
61.365219
 20
-202.835449
 11
61.365219
 21
-195.635468
  0
LINE
  8
0
 10
60.065216
 20
-206.435455
 11
60.065216
 21
-203.435455
  0
LINE
  8
0
 10
52.165222
 20
-206.435455
 11
52.165222
 21
-203.435455
  0
LINE
  8
0
 10
55.615219
 20
-213.004089
 11
55.615219
 21
-202.835449
  0
LINE
  8
0
 10
56.615219
 20
-213.004089
 11
56.615219
 21
-202.835449
  0
LINE
  8
0
 10
61.015228
 20
-192.785461
 11
51.215225
 21
-192.785461
  0
LINE
  8
0
 10
61.015228
 20
-193.985458
 11
51.215225
 21
-193.985458
  0
LINE
  8
0
 10
51.215225
 20
-193.985458
 11
51.215225
 21
-192.785461
  0
LINE
  8
0
 10
61.015228
 20
-193.985458
 11
61.015228
 21
-192.785461
  0
LINE
  8
0
 10
52.615219
 20
-194.985458
 11
52.615219
 21
-193.985458
  0
LINE
  8
0
 10
59.615219
 20
-194.985458
 11
59.615219
 21
-193.985458
  0
LINE
  8
0
 10
61.115219
 20
-194.985458
 11
51.115219
 21
-194.985458
  0
LINE
  8
0
 10
50.865219
 20
-195.635468
 11
61.365219
 21
-195.635468
  0
LINE
  8
0
 10
50.865219
 20
-202.835449
 11
61.365219
 21
-202.835449
  0
LINE
  8
0
 10
52.165222
 20
-203.435455
 11
55.615219
 21
-203.435455
  0
LINE
  8
0
 10
51.115219
 20
-195.635468
 11
51.115219
 21
-194.985458
  0
LINE
  8
0
 10
61.115219
 20
-195.635468
 11
61.115219
 21
-194.985458
  0
LINE
  8
0
 10
56.615219
 20
-203.435455
 11
60.065216
 21
-203.435455
  0
LINE
  8
0
 10
50.865242
 20
-202.835388
 11
52.165253
 21
-203.435379
  0
LINE
  8
0
 10
60.065170
 20
-203.435364
 11
61.365181
 21
-202.835358
  0
LINE
  8
0
 10
53.165222
 20
-207.435455
 11
55.615219
 21
-207.435455
  0
LINE
  8
0
 10
56.615219
 20
-207.435455
 11
59.065216
 21
-207.435455
  0
LINE
  8
0
 10
59.015213
 20
-209.035461
 11
59.015213
 21
-207.435455
  0
LINE
  8
0
 10
53.215225
 20
-209.035461
 11
53.215225
 21
-207.435455
  0
LINE
  8
0
 10
50.865219
 20
-202.835449
 11
50.865219
 21
-195.635468
  0
LINE
  8
0
 10
50.865219
 20
-199.035461
 11
30.615219
 21
-199.035461
  0
LINE
  8
0
 10
61.365219
 20
-200.035461
 11
68.115219
 21
-200.035461
  0
LINE
  8
0
 10
321.465179
 20
-32.037003
 11
321.465179
 21
-36.037003
  0
LINE
  8
0
 10
319.465179
 20
-26.737000
 11
319.465179
 21
-39.237015
  0
LINE
  8
0
 10
330.465179
 20
-26.737015
 11
330.465179
 21
-39.237015
  0
LINE
  8
0
 10
319.465179
 20
-26.737030
 11
330.465179
 21
-26.737030
  0
LINE
  8
0
 10
321.465179
 20
-36.037018
 11
328.465179
 21
-36.037018
  0
LINE
  8
0
 10
321.465179
 20
-32.037018
 11
328.465179
 21
-32.037018
  0
LINE
  8
0
 10
317.465179
 20
-14.637009
 11
332.465179
 21
-14.637009
  0
LINE
  8
0
 10
318.565308
 20
-12.637009
 11
331.365265
 21
-12.637009
  0
LINE
  8
0
 10
318.139771
 20
-15.837006
 11
318.139771
 21
-40.362411
  0
LINE
  8
0
 10
331.790558
 20
-15.837006
 11
331.790558
 21
-40.362411
  0
LINE
  8
0
 10
317.465179
 20
-14.637016
 11
318.565186
 21
-12.636985
  0
LINE
  8
0
 10
331.365082
 20
-12.637052
 11
332.465088
 21
-14.637029
  0
LINE
  8
0
 10
317.465179
 20
-15.837021
 11
332.465179
 21
-15.837021
  0
LINE
  8
0
 10
332.245331
 20
-14.237030
 11
334.465210
 21
-14.237030
  0
LINE
  8
0
 10
315.465210
 20
-40.237030
 11
317.465179
 21
-40.237030
  0
LINE
  8
0
 10
315.465210
 20
-41.737030
 11
316.265198
 21
-41.737030
  0
LINE
  8
0
 10
332.465179
 20
-40.237030
 11
333.965210
 21
-40.237030
  0
LINE
  8
0
 10
333.665161
 20
-41.737030
 11
333.965210
 21
-41.737030
  0
LINE
  8
0
 10
315.465210
 20
-12.237030
 11
315.465210
 21
-59.237030
  0
LINE
  8
0
 10
296.465210
 20
-12.237030
 11
334.465210
 21
-12.237030
  0
LINE
  8
0
 10
296.465210
 20
-110.237030
 11
334.465210
 21
-110.237030
  0
LINE
  8
0
 10
296.465210
 20
-14.237030
 11
298.685272
 21
-14.237030
  0
LINE
  8
0
  6
CENTER
 62
     2
 10
305.965210
 20
-9.237015
 11
305.965210
 21
-114.653687
  0
LINE
  8
0
 10
313.465179
 20
-14.637009
 11
313.465179
 21
-41.037003
  0
LINE
  8
0
 10
298.465179
 20
-14.637009
 11
298.465179
 21
-41.037003
  0
LINE
  8
0
 10
298.465179
 20
-15.637009
 11
313.465179
 21
-15.637009
  0
LINE
  8
0
 10
299.139771
 20
-40.362411
 11
312.790558
 21
-40.362411
  0
LINE
  8
0
 10
300.465179
 20
-39.237030
 11
311.465179
 21
-39.237030
  0
LINE
  8
0
 10
300.465179
 20
-25.037018
 11
311.465179
 21
-25.037018
  0
LINE
  8
0
 10
300.465179
 20
-17.537018
 11
311.465179
 21
-17.537018
  0
LINE
  8
0
 10
300.465179
 20
-17.537003
 11
300.465179
 21
-25.037003
  0
LINE
  8
0
 10
311.465179
 20
-17.537018
 11
311.465179
 21
-25.037018
  0
LINE
  8
0
 10
309.465179
 20
-32.037018
 11
309.465179
 21
-36.037018
  0
LINE
  8
0
 10
302.465179
 20
-32.037003
 11
302.465179
 21
-36.037003
  0
LINE
  8
0
 10
300.465179
 20
-26.737000
 11
300.465179
 21
-39.237015
  0
LINE
  8
0
 10
311.465179
 20
-26.737015
 11
311.465179
 21
-39.237015
  0
LINE
  8
0
 10
300.465179
 20
-26.737030
 11
311.465179
 21
-26.737030
  0
LINE
  8
0
 10
302.465179
 20
-36.037018
 11
309.465179
 21
-36.037018
  0
LINE
  8
0
 10
302.465179
 20
-32.037018
 11
309.465179
 21
-32.037018
  0
LINE
  8
0
 10
298.465179
 20
-14.637009
 11
313.465179
 21
-14.637009
  0
LINE
  8
0
 10
299.565308
 20
-12.637009
 11
312.365295
 21
-12.637009
  0
LINE
  8
0
 10
299.139771
 20
-15.837006
 11
299.139771
 21
-40.362411
  0
LINE
  8
0
 10
312.790558
 20
-15.837006
 11
312.790558
 21
-40.362411
  0
LINE
  8
0
 10
298.465210
 20
-14.637030
 11
299.565247
 21
-12.636985
  0
LINE
  8
0
 10
312.365173
 20
-12.637059
 11
313.465149
 21
-14.637036
  0
LINE
  8
0
 10
298.465179
 20
-15.837021
 11
313.465179
 21
-15.837021
  0
LINE
  8
0
 10
313.245331
 20
-14.237030
 11
315.465210
 21
-14.237030
  0
LINE
  8
0
 10
296.465210
 20
-40.237030
 11
298.465179
 21
-40.237030
  0
LINE
  8
0
 10
296.465210
 20
-41.737030
 11
297.265198
 21
-41.737030
  0
LINE
  8
0
 10
313.465179
 20
-40.237030
 11
315.465210
 21
-40.237030
  0
LINE
  8
0
 10
314.665161
 20
-41.737030
 11
315.465210
 21
-41.737030
  0
LINE
  8
0
 10
297.965210
 20
-41.037033
 11
313.965210
 21
-41.037033
  0
LINE
  8
0
 10
314.965210
 20
-59.237030
 11
333.965210
 21
-59.237030
  0
LINE
  8
0
 10
333.965210
 20
-29.236923
 11
333.965210
 21
-109.737030
  0
LINE
  8
0
 10
296.965210
 20
-42.037033
 11
296.965210
 21
-109.737030
  0
LINE
  8
0
 10
314.965210
 20
-42.037033
 11
314.965210
 21
-59.237030
  0
LINE
  8
0
 10
315.965210
 20
-42.037033
 11
315.965210
 21
-59.237030
  0
LINE
  8
0
 10
316.965210
 20
-41.037033
 11
332.965210
 21
-41.037033
  0
LINE
  8
0
 10
297.965210
 20
-41.037045
 11
296.965210
 21
-42.037060
  0
LINE
  8
0
 10
313.965118
 20
-41.037083
 11
314.965118
 21
-42.037086
  0
LINE
  8
0
 10
315.965210
 20
-42.037033
 11
316.965210
 21
-41.037029
  0
LINE
  8
0
 10
332.965149
 20
-41.037075
 11
333.965149
 21
-42.037098
  0
LINE
  8
0
 10
296.965210
 20
-42.037033
 11
314.965210
 21
-42.037033
  0
LINE
  8
0
 10
333.965210
 20
-42.037033
 11
315.965210
 21
-42.037033
  0
LINE
  8
0
  6
CENTER
 62
     2
 10
302.726807
 20
-44.537033
 11
309.005554
 21
-44.537033
  0
LINE
  8
0
  6
CENTER
 62
     2
 10
321.848511
 20
-44.537033
 11
327.413757
 21
-44.537033
  0
LINE
  8
0
 10
296.965210
 20
-56.037033
 11
314.965210
 21
-56.037033
  0
LINE
  8
0
 10
296.965210
 20
-109.737030
 11
333.965210
 21
-109.737030
  0
LINE
  8
0
 10
315.965210
 20
-59.737030
 11
315.965210
 21
-94.737030
  0
LINE
  8
0
 10
315.965210
 20
-59.737030
 11
333.965210
 21
-59.737030
  0
LINE
  8
0
 10
333.965210
 20
-69.737030
 11
315.965210
 21
-69.737030
  0
LINE
  8
0
 10
315.965240
 20
-94.737061
 11
316.465210
 21
-109.737061
  0
LINE
  8
0
 10
333.965271
 20
-94.737045
 11
333.465271
 21
-109.737045
  0
LINE
  8
0
 10
315.965210
 20
-94.737030
 11
333.965210
 21
-94.737030
  0
LINE
  8
0
  6
CENTER
 62
     2
 10
300.965210
 20
-51.637024
 11
310.965210
 21
-51.637024
  0
LINE
  8
0
 62
     4
 10
350.465210
 20
-12.237030
 11
350.465210
 21
-110.237030
  0
LINE
  8
0
 62
     4
 10
334.465210
 20
-12.237030
 11
340.715027
 21
-12.237030
  0
LINE
  8
0
 62
     4
 10
334.465210
 20
-110.237030
 11
350.465210
 21
-110.237030
  0
LINE
  8
0
 62
     4
 10
349.966003
 20
-22.737255
 11
349.964661
 21
-102.237251
  0
LINE
  8
0
 62
     4
 10
334.966003
 20
-22.737032
 11
334.965912
 21
-29.236956
  0
LINE
  8
0
 62
     4
 10
349.466034
 20
-22.237244
 11
342.965027
 21
-22.237133
  0
LINE
  8
0
 62
     4
 10
349.464661
 20
-102.737244
 11
335.464661
 21
-102.737007
  0
LINE
  8
0
 62
     4
 10
334.964661
 20
-101.736931
 11
334.964661
 21
-102.237007
  0
LINE
  8
0
 62
     4
 10
348.965027
 20
-101.736908
 11
348.965027
 21
-29.236923
  0
LINE
  8
0
 62
     4
 10
333.965027
 20
-101.736923
 11
348.965027
 21
-101.736923
  0
LINE
  8
0
 10
334.465210
 20
-101.736923
 11
334.465210
 21
-110.237030
  0
LINE
  8
0
 62
     4
 10
333.965027
 20
-29.236923
 11
348.965027
 21
-29.236923
  0
LINE
  8
0
  6
CENTER
 62
     1
 10
341.465027
 20
-104.914627
 11
341.465027
 21
-8.375046
  0
LINE
  8
0
 62
     4
 10
334.965027
 20
-29.236923
 11
335.965027
 21
-26.736925
  0
LINE
  8
0
 62
     4
 10
335.965027
 20
-26.736923
 11
346.965027
 21
-26.736923
  0
LINE
  8
0
 62
     4
 10
346.964996
 20
-26.736927
 11
347.965027
 21
-29.236940
  0
LINE
  8
0
 62
     4
 10
342.965027
 20
-26.736923
 11
342.965027
 21
-21.766113
  0
LINE
  8
0
 62
     4
 10
339.965027
 20
-26.736923
 11
339.965027
 21
-21.237091
  0
LINE
  8
0
 62
     4
 10
339.965027
 20
-22.237082
 11
335.466034
 21
-22.237005
  0
LINE
  8
0
 62
     1
 10
343.965027
 20
-21.942490
 11
338.965027
 21
-21.060770
  0
LINE
  8
0
 62
     1
 10
343.964966
 20
-19.911612
 11
338.964966
 21
-19.029892
  0
LINE
  8
0
 62
     4
 10
339.965027
 20
-19.206223
 11
339.965027
 21
-17.071991
  0
LINE
  8
0
 62
     4
 10
342.965027
 20
-19.735260
 11
342.965027
 21
-17.071991
  0
LINE
  8
0
 62
     4
 10
339.965027
 20
-17.071991
 11
342.965027
 21
-17.071991
  0
LINE
  8
0
 10
333.965027
 20
-92.486923
 11
334.465027
 21
-92.486923
  0
LINE
  8
0
 10
333.965027
 20
-85.986923
 11
334.465027
 21
-85.986923
  0
LINE
  8
0
 10
334.465027
 20
-92.486923
 11
334.465027
 21
-85.986923
  0
LINE
  8
0
 62
     4
 10
340.715027
 20
-9.071991
 11
342.215027
 21
-9.071991
  0
LINE
  8
0
 62
     4
 10
340.715027
 20
-17.071991
 11
340.715027
 21
-9.071991
  0
LINE
  8
0
 62
     4
 10
341.715027
 20
-17.071991
 11
341.715027
 21
-9.071991
  0
LINE
  8
0
 62
     4
 10
341.215027
 20
-17.071991
 11
341.215027
 21
-9.071991
  0
LINE
  8
0
 62
     4
 10
342.215027
 20
-17.071991
 11
342.215027
 21
-9.071991
  0
LINE
  8
0
 62
     4
 10
342.215027
 20
-12.237030
 11
350.465210
 21
-12.237030
  0
LINE
  8
0
 62
     4
 10
333.965027
 20
-69.236923
 11
348.965027
 21
-69.236923
  0
LINE
  8
0
 10
296.465210
 20
-12.237030
 11
296.465210
 21
-110.237030
  0
LINE
  8
0
 10
334.465210
 20
-12.237030
 11
334.465210
 21
-29.236923
  0
LINE
  8
0
 10
315.465210
 20
-14.237030
 11
317.685272
 21
-14.237030
  0
LINE
  8
0
  6
CENTER
 62
     2
 10
324.965210
 20
-9.237015
 11
324.965210
 21
-114.653687
  0
LINE
  8
0
 10
332.465179
 20
-14.637009
 11
332.465179
 21
-41.037003
  0
LINE
  8
0
 10
317.465179
 20
-14.637009
 11
317.465179
 21
-41.037003
  0
LINE
  8
0
 10
317.465179
 20
-15.637009
 11
332.465179
 21
-15.637009
  0
LINE
  8
0
 10
318.139771
 20
-40.362411
 11
331.790558
 21
-40.362411
  0
LINE
  8
0
 10
319.465179
 20
-39.237030
 11
330.465179
 21
-39.237030
  0
LINE
  8
0
 10
319.465179
 20
-25.037018
 11
330.465179
 21
-25.037018
  0
LINE
  8
0
 10
319.465179
 20
-17.537018
 11
330.465179
 21
-17.537018
  0
LINE
  8
0
 10
319.465179
 20
-17.537003
 11
319.465179
 21
-25.037003
  0
LINE
  8
0
 10
330.465179
 20
-17.537018
 11
330.465179
 21
-25.037018
  0
LINE
  8
0
 10
328.465179
 20
-32.037018
 11
328.465179
 21
-36.037018
  0
LINE
  8
0
 10
315.465393
 20
-110.237030
 11
315.465393
 21
-111.237030
  0
LINE
  8
0
 10
334.465393
 20
-110.237030
 11
334.465393
 21
-111.237030
  0
LINE
  8
0
 10
327.965149
 20
-112.237061
 11
328.465179
 21
-111.737053
  0
LINE
  8
0
  6
CENTER
 62
     2
 10
322.465210
 20
-106.237030
 11
322.465210
 21
-114.237030
  0
LINE
  8
0
  6
CENTER
 62
     2
 10
327.465210
 20
-106.237030
 11
327.465210
 21
-114.237030
  0
LINE
  8
0
 10
316.465210
 20
-111.237030
 11
316.465210
 21
-111.737030
  0
LINE
  8
0
 10
333.465210
 20
-111.237030
 11
333.465210
 21
-111.737030
  0
LINE
  8
0
 10
315.465393
 20
-111.237030
 11
334.465393
 21
-111.237030
  0
LINE
  8
0
 10
316.965210
 20
-112.237030
 11
332.965179
 21
-112.237030
  0
LINE
  8
0
 10
316.465118
 20
-111.737114
 11
316.965118
 21
-112.237106
  0
LINE
  8
0
 10
332.965149
 20
-112.237053
 11
333.465149
 21
-111.737061
  0
LINE
  8
0
 10
328.465210
 20
-111.237030
 11
328.465210
 21
-111.737030
  0
LINE
  8
0
 10
217.003326
 20
-95.237015
 11
216.003326
 21
-95.237015
  0
LINE
  8
0
 10
217.003326
 20
-69.237015
 11
216.003326
 21
-69.237015
  0
LINE
  8
0
 10
217.003326
 20
-69.237015
 11
217.003326
 21
-95.237015
  0
LINE
  8
0
 10
216.003326
 20
-69.237015
 11
216.003326
 21
-95.237015
  0
LINE
  8
0
  6
CENTER
 62
     2
 10
202.503326
 20
-9.687012
 11
202.503326
 21
-113.187012
  0
LINE
  8
0
 10
190.003326
 20
-41.037018
 11
215.003326
 21
-41.037018
  0
LINE
  8
0
 10
190.003326
 20
-15.637024
 11
220.003326
 21
-15.637024
  0
LINE
  8
0
 10
220.003326
 20
-15.837021
 11
190.003326
 21
-15.837021
  0
LINE
  8
0
 10
220.003326
 20
-14.937027
 11
220.003326
 21
-39.879562
  0
LINE
  8
0
 10
190.003326
 20
-14.637009
 11
190.003326
 21
-41.037018
  0
LINE
  8
0
 10
214.503326
 20
-14.637009
 11
214.503326
 21
-41.037018
  0
LINE
  8
0
 10
214.503357
 20
-41.037037
 11
215.003357
 21
-40.537037
  0
LINE
  8
0
 10
215.003326
 20
-40.536964
 11
219.520767
 21
-40.379211
  0
LINE
  8
0
 10
190.003326
 20
-14.637009
 11
219.703339
 21
-14.637009
  0
LINE
  8
0
 10
191.003418
 20
-12.637009
 11
213.503326
 21
-12.637009
  0
LINE
  8
0
 10
190.003403
 20
-14.637070
 11
191.003433
 21
-12.637014
  0
LINE
  8
0
 10
214.503326
 20
-14.637019
 11
213.503326
 21
-12.637005
  0
LINE
  8
0
 10
215.003326
 20
-40.537018
 11
215.003326
 21
-14.637009
  0
LINE
  8
0
 10
216.003326
 20
-42.037018
 11
216.003326
 21
-69.237015
  0
LINE
  8
0
 10
189.003326
 20
-42.037022
 11
190.003326
 21
-41.037018
  0
LINE
  8
0
 10
216.003342
 20
-42.037071
 11
215.003342
 21
-41.037071
  0
LINE
  8
0
 10
189.003326
 20
-42.037018
 11
216.003326
 21
-42.037018
  0
LINE
  8
0
 10
189.003326
 20
-42.037018
 11
189.003326
 21
-109.737015
  0
LINE
  8
0
 10
189.003326
 20
-56.037018
 11
216.003326
 21
-56.037018
  0
LINE
  8
0
 10
219.203308
 20
-48.637016
 11
219.203308
 21
-54.637009
  0
LINE
  8
0
 10
216.003326
 20
-48.387016
 11
218.703308
 21
-48.387016
  0
LINE
  8
0
 10
216.003326
 20
-54.887016
 11
218.703308
 21
-54.887016
  0
LINE
  8
0
 10
218.703323
 20
-54.887024
 11
219.203323
 21
-54.387024
  0
LINE
  8
0
 10
219.203323
 20
-48.887039
 11
218.703323
 21
-48.387039
  0
LINE
  8
0
 10
219.703308
 20
-55.137016
 11
221.703308
 21
-55.137016
  0
LINE
  8
0
 10
219.703308
 20
-48.137016
 11
221.703308
 21
-48.137016
  0
LINE
  8
0
 10
222.203308
 20
-48.637016
 11
222.203308
 21
-54.637016
  0
LINE
  8
0
 10
219.203308
 20
-48.637024
 11
219.703308
 21
-48.137012
  0
LINE
  8
0
 10
221.703323
 20
-48.137001
 11
222.203323
 21
-48.637012
  0
LINE
  8
0
 10
222.203293
 20
-54.636997
 11
221.703293
 21
-55.136997
  0
LINE
  8
0
 10
219.703308
 20
-55.137020
 11
219.203308
 21
-54.637016
  0
LINE
  8
0
 10
223.803345
 20
-49.637016
 11
223.803345
 21
-53.637016
  0
LINE
  8
0
 10
222.203308
 20
-50.387016
 11
223.803345
 21
-50.387016
  0
LINE
  8
0
 10
222.203308
 20
-52.887016
 11
223.803345
 21
-52.887016
  0
LINE
  8
0
 62
     2
 10
222.203308
 20
-52.643517
 11
223.803345
 21
-52.643517
  0
LINE
  8
0
 62
     2
 10
222.203308
 20
-50.630516
 11
223.803345
 21
-50.630516
  0
LINE
  8
0
 10
228.803345
 20
-49.637016
 11
228.803345
 21
-53.637009
  0
LINE
  8
0
 10
224.303345
 20
-54.137016
 11
228.303345
 21
-54.137016
  0
LINE
  8
0
 10
224.303345
 20
-49.137016
 11
228.303314
 21
-49.137016
  0
LINE
  8
0
 10
223.803345
 20
-53.637024
 11
224.303345
 21
-54.137024
  0
LINE
  8
0
 10
228.303329
 20
-54.137001
 11
228.803314
 21
-53.637012
  0
LINE
  8
0
 10
228.803345
 20
-49.637001
 11
228.303329
 21
-49.137001
  0
LINE
  8
0
 10
224.303329
 20
-49.136990
 11
223.803329
 21
-49.636990
  0
LINE
  8
0
 10
228.303314
 20
-49.137016
 11
228.303314
 21
-54.137009
  0
LINE
  8
0
 10
218.703308
 20
-48.387016
 11
218.703308
 21
-54.887016
  0
LINE
  8
0
 10
224.303345
 20
-49.137016
 11
224.303345
 21
-54.137016
  0
LINE
  8
0
 10
221.703308
 20
-48.137016
 11
221.703308
 21
-55.137016
  0
LINE
  8
0
 10
219.703308
 20
-48.137016
 11
219.703308
 21
-55.137016
  0
LINE
  8
0
 10
189.003326
 20
-109.737015
 11
216.003326
 21
-109.737015
  0
LINE
  8
0
 10
244.003326
 20
-94.737015
 11
244.003326
 21
-59.937012
  0
LINE
  8
0
 10
243.303345
 20
-109.737015
 11
217.710358
 21
-109.737015
  0
LINE
  8
0
 10
244.003326
 20
-94.737015
 11
217.003326
 21
-94.737015
  0
LINE
  8
0
 10
244.003326
 20
-69.737015
 11
217.003326
 21
-69.737015
  0
LINE
  8
0
 10
243.803345
 20
-59.737015
 11
217.203308
 21
-59.737015
  0
LINE
  8
0
 10
217.003326
 20
-69.237015
 11
217.003326
 21
-59.937012
  0
LINE
  8
0
 10
243.510208
 20
-109.530090
 11
244.003311
 21
-94.736992
  0
LINE
  8
0
 10
217.496658
 20
-109.537125
 11
217.003326
 21
-94.737007
  0
LINE
  8
0
 10
244.003296
 20
-59.937023
 11
243.803299
 21
-59.737015
  0
LINE
  8
0
 10
217.203354
 20
-59.737003
 11
217.003357
 21
-59.936996
  0
LINE
  8
0
 10
217.496628
 20
-109.537109
 11
217.710312
 21
-109.737000
  0
LINE
  8
0
 10
243.303329
 20
-109.736992
 11
243.510208
 21
-109.530113
  0
LINE
  8
0
 10
216.003326
 20
-95.237015
 11
216.003326
 21
-109.737015
  0
LINE
  8
0
 62
     4
 10
198.753876
 20
-12.637009
 11
198.753876
 21
-9.072327
  0
LINE
  8
0
  6
CENTER
 62
     1
 10
198.003876
 20
-7.596649
 11
198.003876
 21
-12.637009
  0
LINE
  8
0
 62
     4
 10
197.753876
 20
-12.637009
 11
197.753876
 21
-9.072327
  0
LINE
  8
0
 62
     4
 10
198.253876
 20
-12.637009
 11
198.253876
 21
-9.072327
  0
LINE
  8
0
 62
     4
 10
197.253876
 20
-12.637009
 11
197.253876
 21
-9.072327
  0
LINE
  8
0
 62
     4
 10
197.253845
 20
-9.072327
 11
198.753845
 21
-9.072327
  0
LINE
  8
0
 10
188.003387
 20
-101.237015
 11
189.003387
 21
-101.237015
  0
LINE
  8
0
 10
189.003387
 20
-45.737030
 11
188.003387
 21
-45.737030
  0
LINE
  8
0
  6
CENTER
 62
     2
 10
168.003387
 20
-108.565979
 11
168.003387
 21
-114.271942
  0
LINE
  8
0
  6
CENTER
 62
     2
 10
179.003387
 20
-108.565979
 11
179.003387
 21
-114.271942
  0
LINE
  8
0
 10
162.503387
 20
-112.237030
 11
173.503387
 21
-112.237030
  0
LINE
  8
0
 10
162.003387
 20
-111.237030
 11
162.003387
 21
-111.737030
  0
LINE
  8
0
 10
185.003387
 20
-111.237030
 11
185.003387
 21
-111.737030
  0
LINE
  8
0
 10
173.503387
 20
-112.237030
 11
184.503387
 21
-112.237030
  0
LINE
  8
0
 10
185.003372
 20
-111.737007
 11
184.503372
 21
-112.237007
  0
LINE
  8
0
 10
162.003265
 20
-111.737129
 11
162.503265
 21
-112.237129
  0
LINE
  8
0
 10
161.003387
 20
-111.237030
 11
188.003387
 21
-111.237030
  0
LINE
  8
0
 10
161.003387
 20
-110.237030
 11
161.003387
 21
-111.237030
  0
LINE
  8
0
 10
188.003387
 20
-110.237030
 11
188.003387
 21
-111.237030
  0
LINE
  8
0
 10
173.003387
 20
-111.237030
 11
173.003387
 21
-111.737030
  0
LINE
  8
0
 10
173.003387
 20
-111.737022
 11
173.503372
 21
-112.237015
  0
LINE
  8
0
 10
334.465210
 20
-195.035461
 11
334.465210
 21
-222.035461
  0
LINE
  8
0
 10
315.465210
 20
-222.035461
 11
334.465210
 21
-222.035461
  0
LINE
  8
0
 10
315.465210
 20
-195.035461
 11
315.465210
 21
-222.035461
  0
LINE
  8
0
 10
296.465210
 20
-195.035461
 11
296.465210
 21
-222.035461
  0
LINE
  8
0
  6
CENTER
 62
     2
 10
324.965210
 20
-223.035461
 11
324.965210
 21
-137.035461
  0
LINE
  8
0
 10
296.465210
 20
-222.035461
 11
315.465210
 21
-222.035461
  0
LINE
  8
0
 10
296.465210
 20
-195.035461
 11
334.465210
 21
-195.035461
  0
LINE
  8
0
  6
CENTER
 62
     2
 10
305.965210
 20
-223.035461
 11
305.965210
 21
-152.535461
  0
LINE
  8
0
 10
333.965210
 20
-167.035461
 11
333.965210
 21
-194.035461
  0
LINE
  8
0
 10
296.965210
 20
-167.035461
 11
296.965210
 21
-194.035461
  0
LINE
  8
0
 10
333.965210
 20
-167.035461
 11
296.965210
 21
-167.035461
  0
LINE
  8
0
 10
312.307739
 20
-163.035461
 11
309.465210
 21
-163.035461
  0
LINE
  8
0
 10
299.000122
 20
-167.035477
 11
299.122955
 21
-163.518036
  0
LINE
  8
0
 10
312.930328
 20
-167.035477
 11
312.807495
 21
-163.518005
  0
LINE
  8
0
 10
333.965210
 20
-194.035461
 11
296.965210
 21
-194.035461
  0
LINE
  8
0
  6
CENTER
 62
     2
 10
317.465210
 20
-177.035461
 11
332.465210
 21
-177.035461
  0
LINE
  8
0
 10
318.141510
 20
-176.435471
 11
331.788879
 21
-176.435471
  0
LINE
  8
0
 10
318.141541
 20
-177.635468
 11
331.788879
 21
-177.635468
  0
LINE
  8
0
 10
315.965210
 20
-166.035461
 11
333.965210
 21
-166.035461
  0
LINE
  8
0
 10
333.965210
 20
-166.035461
 11
333.965210
 21
-139.035461
  0
LINE
  8
0
 10
315.965210
 20
-166.035461
 11
315.965210
 21
-139.035461
  0
LINE
  8
0
 10
315.965210
 20
-139.035461
 11
333.965210
 21
-139.035461
  0
LINE
  8
0
  6
CENTER
 62
     2
 10
320.465210
 20
-152.535461
 11
329.465210
 21
-152.535461
  0
LINE
  8
0
 62
     4
 10
350.465179
 20
-222.035461
 11
350.465179
 21
-195.035446
  0
LINE
  8
0
 62
     4
 10
334.465210
 20
-222.035461
 11
350.465179
 21
-222.035461
  0
LINE
  8
0
  6
CENTER
 62
     1
 10
342.465179
 20
-188.335464
 11
342.465179
 21
-223.535461
  0
LINE
  8
0
 62
     4
 10
350.465179
 20
-195.035446
 11
334.465210
 21
-195.035446
  0
LINE
  8
0
 62
     4
 10
350.215210
 20
-190.735458
 11
345.715210
 21
-190.735458
  0
LINE
  8
0
 62
     4
 10
350.215179
 20
-190.041718
 11
350.215179
 21
-191.335464
  0
LINE
  8
0
 62
     4
 10
345.715179
 20
-190.041718
 11
345.715179
 21
-191.335464
  0
LINE
  8
0
 62
     4
 10
350.215210
 20
-191.335449
 11
334.715210
 21
-191.335449
  0
LINE
  8
0
 62
     4
 10
349.965179
 20
-191.335449
 11
349.965179
 21
-194.035461
  0
LINE
  8
0
 62
     4
 10
334.965179
 20
-191.335449
 11
334.965179
 21
-194.035461
  0
LINE
  8
0
 62
     4
 10
349.965210
 20
-193.335449
 11
334.965210
 21
-193.335449
  0
LINE
  8
0
 62
     4
 10
349.965210
 20
-194.035446
 11
334.965210
 21
-194.035446
  0
LINE
  8
0
 62
     4
 10
334.715179
 20
-190.041718
 11
334.715179
 21
-191.335464
  0
LINE
  8
0
 62
     4
 10
339.215179
 20
-190.041718
 11
339.215179
 21
-191.335464
  0
LINE
  8
0
 62
     4
 10
339.215210
 20
-190.735458
 11
334.715210
 21
-190.735458
  0
LINE
  8
0
 62
     4
 10
333.965210
 20
-169.035431
 11
348.965179
 21
-169.035431
  0
LINE
  8
0
 62
     4
 10
348.965179
 20
-189.035431
 11
348.965179
 21
-169.035431
  0
LINE
  8
0
 62
     4
 10
333.965210
 20
-189.035431
 11
348.965179
 21
-189.035431
  0
LINE
  8
0
 10
302.965210
 20
-163.835464
 11
308.965210
 21
-163.835464
  0
LINE
  8
0
 10
302.715210
 20
-167.035461
 11
302.715210
 21
-164.335464
  0
LINE
  8
0
 10
309.215210
 20
-167.035461
 11
309.215210
 21
-164.335464
  0
LINE
  8
0
 10
309.215179
 20
-164.335495
 11
308.715210
 21
-163.835495
  0
LINE
  8
0
 10
303.215179
 20
-163.835403
 11
302.715149
 21
-164.335419
  0
LINE
  8
0
 10
309.465210
 20
-163.335464
 11
309.465210
 21
-161.335464
  0
LINE
  8
0
 10
302.465210
 20
-163.335464
 11
302.465210
 21
-161.335464
  0
LINE
  8
0
 10
302.965210
 20
-160.835464
 11
308.965210
 21
-160.835464
  0
LINE
  8
0
 10
302.965210
 20
-163.835495
 11
302.465179
 21
-163.335480
  0
LINE
  8
0
 10
302.465179
 20
-161.335480
 11
302.965179
 21
-160.835480
  0
LINE
  8
0
 10
308.965179
 20
-160.835495
 11
309.465210
 21
-161.335495
  0
LINE
  8
0
 10
309.465088
 20
-163.335342
 11
308.965088
 21
-163.835342
  0
LINE
  8
0
 10
303.965210
 20
-159.235458
 11
307.965210
 21
-159.235458
  0
LINE
  8
0
 10
304.715210
 20
-160.835464
 11
304.715210
 21
-159.235458
  0
LINE
  8
0
 10
307.215210
 20
-160.835464
 11
307.215210
 21
-159.235458
  0
LINE
  8
0
 62
     2
 10
306.971680
 20
-160.835464
 11
306.971680
 21
-159.235458
  0
LINE
  8
0
 62
     2
 10
304.958679
 20
-160.835464
 11
304.958679
 21
-159.235458
  0
LINE
  8
0
 10
303.965210
 20
-154.235458
 11
307.965210
 21
-154.235458
  0
LINE
  8
0
 10
308.465210
 20
-158.735458
 11
308.465210
 21
-154.735458
  0
LINE
  8
0
 10
303.465210
 20
-158.735458
 11
303.465210
 21
-154.735474
  0
LINE
  8
0
 10
307.965179
 20
-159.235413
 11
308.465179
 21
-158.735428
  0
LINE
  8
0
 10
308.465210
 20
-154.735474
 11
307.965210
 21
-154.235489
  0
LINE
  8
0
 10
303.965271
 20
-154.235489
 11
303.465240
 21
-154.735504
  0
LINE
  8
0
 10
303.465149
 20
-158.735443
 11
303.965179
 21
-159.235489
  0
LINE
  8
0
 10
303.465210
 20
-154.735474
 11
308.465210
 21
-154.735474
  0
LINE
  8
0
 10
302.715210
 20
-164.335464
 11
309.215210
 21
-164.335464
  0
LINE
  8
0
 10
303.465210
 20
-158.735458
 11
308.465210
 21
-158.735458
  0
LINE
  8
0
 10
302.465210
 20
-161.335464
 11
309.465210
 21
-161.335464
  0
LINE
  8
0
 10
302.465210
 20
-163.335464
 11
309.465210
 21
-163.335464
  0
LINE
  8
0
 10
302.465210
 20
-163.035461
 11
299.622650
 21
-163.035461
  0
LINE
  8
0
 10
316.465210
 20
-194.035461
 11
316.465210
 21
-195.035461
  0
LINE
  8
0
 10
333.465210
 20
-194.035461
 11
333.465210
 21
-195.035461
  0
LINE
  8
0
 10
297.465210
 20
-194.035461
 11
297.465210
 21
-195.035461
  0
LINE
  8
0
 10
314.465210
 20
-194.035461
 11
314.465210
 21
-195.035461
  0
LINE
  8
0
 10
316.215210
 20
-167.035461
 11
316.215210
 21
-166.035461
  0
LINE
  8
0
 10
333.715210
 20
-167.035461
 11
333.715210
 21
-166.035461
  0
LINE
  8
0
 62
     4
 10
335.465210
 20
-194.035461
 11
335.465210
 21
-195.035461
  0
LINE
  8
0
 62
     4
 10
349.465210
 20
-194.035461
 11
349.465210
 21
-195.035461
  0
LINE
  8
0
  6
CENTER
 62
     2
 10
322.465210
 20
-197.010422
 11
322.465210
 21
-210.751297
  0
LINE
  8
0
  6
CENTER
 62
     2
 10
329.878021
 20
-204.035461
 11
315.691010
 21
-204.035461
  0
LINE
  8
0
  6
CENTER
 62
     2
 10
327.465210
 20
-208.010422
 11
327.465210
 21
-221.751297
  0
LINE
  8
0
  6
CENTER
 62
     2
 10
334.878021
 20
-215.035461
 11
320.691010
 21
-215.035461
  0
ARC
  8
0
 62
     4
 10
-183.197098
 20
149.262756
 40
0.500000
 50
269.998260
 51
359.998260
  0
ARC
  8
0
 62
     4
 10
-197.197098
 20
149.263000
 40
0.500000
 50
179.998245
 51
269.998260
  0
ARC
  8
0
 62
     4
 10
-183.195740
 20
228.762756
 40
0.500000
 50
359.998260
 51
89.998253
  0
ARC
  8
0
 62
     4
 10
-197.195740
 20
228.763000
 40
0.500000
 50
89.998253
 51
179.998245
  0
ARC
  8
0
 62
     4
 10
-191.196747
 20
222.263077
 40
1.500000
 50
0.000000
 51
180.000000
  0
CIRCLE
  8
0
 10
-207.696594
 20
206.962967
 40
1.650000
  0
ARC
  8
0
 10
-295.696625
 20
211.620422
 40
0.500000
 50
272.000732
 51
0.000000
  0
ARC
  8
0
 62
     4
 10
-184.696564
 20
61.693333
 40
6.000002
 50
73.808769
 51
106.191528
  0
ARC
  8
0
 62
     4
 10
-195.696564
 20
61.693333
 40
6.000002
 50
73.808769
 51
106.191551
  0
CIRCLE
  8
0
 10
-207.696564
 20
79.693329
 40
6.849999
  0
CIRCLE
  8
0
 10
-207.696564
 20
104.193314
 40
3.559999
  0
CIRCLE
  8
0
 10
-210.196564
 20
52.693325
 40
5.599999
  0
ARC
  8
0
 10
-210.196564
 20
53.693325
 40
3.899994
 50
0.000000
 51
179.999939
  0
ARC
  8
0
 10
-210.196564
 20
51.693325
 40
3.899994
 50
180.000000
 51
359.999939
  0
CIRCLE
  8
0
 10
-210.196564
 20
52.693325
 40
2.000000
  0
CIRCLE
  8
0
 10
-210.196564
 20
52.693325
 40
5.099999
  0
ARC
  8
0
 10
-205.196564
 20
41.693321
 40
5.100006
 50
0.000000
 51
60.646523
  0
ARC
  8
0
 10
-205.196564
 20
41.693321
 40
5.099999
 50
119.353477
 51
0.000000
  0
ARC
  8
0
 62
     4
 10
-197.146576
 20
66.687073
 40
0.799998
 50
106.191879
 51
180.000000
  0
ARC
  8
0
 62
     4
 10
-194.246582
 20
66.687088
 40
0.800003
 50
0.000000
 51
73.809319
  0
ARC
  8
0
 62
     4
 10
-186.146576
 20
66.687073
 40
0.799998
 50
106.191879
 51
180.000000
  0
ARC
  8
0
 62
     4
 10
-183.246582
 20
66.687080
 40
0.800003
 50
0.000000
 51
73.809319
  0
ARC
  8
0
 62
     4
 10
83.197525
 20
149.262756
 40
0.500000
 50
269.999115
 51
359.998260
  0
ARC
  8
0
 62
     4
 10
69.197525
 20
149.263000
 40
0.500000
 50
179.998245
 51
269.999115
  0
ARC
  8
0
 62
     4
 10
83.198883
 20
228.762756
 40
0.500000
 50
359.998260
 51
89.999123
  0
ARC
  8
0
 62
     4
 10
69.198883
 20
228.763000
 40
0.500000
 50
89.999123
 51
179.998245
  0
ARC
  8
0
 62
     4
 10
75.197876
 20
222.263077
 40
1.500000
 50
0.000000
 51
180.000000
  0
CIRCLE
  8
0
 10
58.698029
 20
206.962967
 40
1.650000
  0
ARC
  8
0
 10
56.198074
 20
135.612976
 40
4.000000
 50
166.725418
 51
192.851639
  0
ARC
  8
0
 10
56.198074
 20
135.612976
 40
4.000000
 50
0.000000
 51
13.274586
  0
ARC
  8
0
 10
56.198074
 20
134.762970
 40
3.900002
 50
180.000000
 51
0.000000
  0
ARC
  8
0
 10
56.198074
 20
136.762970
 40
3.900002
 50
0.000000
 51
180.000000
  0
CIRCLE
  8
0
 10
56.198074
 20
135.762970
 40
2.000000
  0
ARC
  8
0
 10
56.198074
 20
135.612976
 40
4.000002
 50
347.148376
 51
0.000000
  0
ARC
  8
0
 10
-29.346649
 20
211.620422
 40
0.499999
 50
272.000061
 51
0.000000
  0
ARC
  8
0
 10
-70.746582
 20
134.862991
 40
2.000000
 50
180.000000
 51
270.000000
  0
ARC
  8
0
 10
-70.746582
 20
134.862991
 40
3.099998
 50
180.000000
 51
270.000000
  0
ARC
  8
0
 10
56.198074
 20
52.693325
 40
3.399998
 50
278.456390
 51
0.000064
  0
ARC
  8
0
 10
61.198074
 20
41.693329
 40
5.099999
 50
119.353477
 51
0.000000
  0
ARC
  8
0
 10
61.198074
 20
41.693329
 40
5.099998
 50
0.000000
 51
60.646523
  0
ARC
  8
0
 10
56.198074
 20
52.693325
 40
5.099998
 50
131.810303
 51
48.189762
  0
ARC
  8
0
 10
56.198074
 20
52.693325
 40
6.000001
 50
124.518112
 51
55.481934
  0
ARC
  8
0
 10
56.198074
 20
52.693325
 40
3.900001
 50
150.667923
 51
29.332281
  0
ARC
  8
0
 10
56.198074
 20
52.693325
 40
3.400002
 50
180.000061
 51
261.543365
  0
ARC
  8
0
 62
     4
 10
81.698059
 20
61.693333
 40
6.000002
 50
73.808769
 51
106.191528
  0
ARC
  8
0
 62
     4
 10
70.698059
 20
61.693333
 40
6.000000
 50
73.808838
 51
106.191551
  0
CIRCLE
  8
0
 10
58.698059
 20
79.693329
 40
6.849999
  0
CIRCLE
  8
0
 10
58.698059
 20
104.193314
 40
3.559999
  0
ARC
  8
0
 62
     4
 10
69.248047
 20
66.687073
 40
0.799998
 50
106.191879
 51
180.000000
  0
ARC
  8
0
 62
     4
 10
72.148041
 20
66.687088
 40
0.800003
 50
0.000000
 51
73.808800
  0
ARC
  8
0
 62
     4
 10
80.248047
 20
66.687073
 40
0.799998
 50
106.191879
 51
180.000000
  0
ARC
  8
0
 62
     4
 10
83.148041
 20
66.687080
 40
0.800003
 50
0.000000
 51
73.808800
  0
ARC
  8
0
 62
     4
 10
349.592163
 20
149.262756
 40
0.500000
 50
270.000000
 51
359.998260
  0
ARC
  8
0
 62
     4
 10
335.592163
 20
149.263000
 40
0.500000
 50
179.998245
 51
270.000000
  0
ARC
  8
0
 62
     4
 10
349.593506
 20
228.762756
 40
0.500000
 50
359.998260
 51
90.000000
  0
ARC
  8
0
 62
     4
 10
335.593506
 20
228.763000
 40
0.500000
 50
90.000000
 51
179.998245
  0
ARC
  8
0
 62
     4
 10
341.592499
 20
222.263077
 40
1.500000
 50
0.000000
 51
180.000000
  0
CIRCLE
  8
0
 10
325.092651
 20
206.962967
 40
1.650000
  0
ARC
  8
0
 10
237.003387
 20
211.620422
 40
0.500000
 50
272.000732
 51
0.000000
  0
ARC
  8
0
 62
     4
 10
348.092682
 20
61.693333
 40
6.000002
 50
73.808769
 51
106.191528
  0
ARC
  8
0
 62
     4
 10
337.092682
 20
61.693333
 40
6.000002
 50
73.808769
 51
106.191551
  0
CIRCLE
  8
0
 10
325.092682
 20
79.693329
 40
6.849999
  0
CIRCLE
  8
0
 10
325.092682
 20
104.193314
 40
3.559999
  0
ARC
  8
0
 62
     4
 10
335.642670
 20
66.687073
 40
0.799998
 50
106.191879
 51
180.000000
  0
ARC
  8
0
 62
     4
 10
338.542664
 20
66.687088
 40
0.799988
 50
0.000000
 51
73.808273
  0
ARC
  8
0
 62
     4
 10
346.642670
 20
66.687073
 40
0.799998
 50
106.191879
 51
180.000000
  0
ARC
  8
0
 62
     4
 10
349.542664
 20
66.687080
 40
0.799988
 50
0.000000
 51
73.808273
  0
CIRCLE
  8
0
 10
327.592682
 20
41.693329
 40
6.000000
  0
CIRCLE
  8
0
 62
     2
 10
322.592682
 20
52.693329
 40
4.000000
  0
CIRCLE
  8
0
 10
322.592682
 20
52.693329
 40
3.625000
  0
CIRCLE
  8
0
 10
322.592682
 20
52.693329
 40
6.000000
  0
CIRCLE
  8
0
 62
     2
 10
327.592682
 20
41.693329
 40
4.000000
  0
CIRCLE
  8
0
 10
327.592682
 20
41.693329
 40
3.625000
  0
CIRCLE
  8
0
 10
-226.734787
 20
-44.537033
 40
1.500000
  0
CIRCLE
  8
0
 10
-207.734772
 20
-44.537033
 40
1.500000
  0
CIRCLE
  8
0
 10
-226.734772
 20
-51.637032
 40
3.500000
  0
CIRCLE
  8
0
 10
-226.734772
 20
-51.637032
 40
3.000000
  0
CIRCLE
  8
0
 10
-226.734772
 20
-51.637032
 40
2.500000
  0
CIRCLE
  8
0
 10
-226.734772
 20
-51.637032
 40
2.000000
  0
CIRCLE
  8
0
 10
-226.734772
 20
-51.637032
 40
1.000000
  0
ARC
  8
0
 62
     4
 10
-183.235321
 20
-102.237244
 40
0.500000
 50
269.998260
 51
359.999115
  0
ARC
  8
0
 62
     4
 10
-197.235321
 20
-102.237000
 40
0.500000
 50
179.999130
 51
269.998260
  0
ARC
  8
0
 62
     4
 10
-183.233963
 20
-22.737244
 40
0.500000
 50
359.998901
 51
89.998253
  0
ARC
  8
0
 62
     4
 10
-197.233963
 20
-22.737000
 40
0.500000
 50
89.998253
 51
179.999130
  0
ARC
  8
0
 62
     4
 10
-191.234970
 20
-29.236923
 40
1.500000
 50
0.000000
 51
180.000000
  0
ARC
  8
0
 10
-312.996613
 20
-14.937027
 40
0.299988
 50
0.000000
 51
90.000000
  0
ARC
  8
0
 10
-313.196625
 20
-39.879578
 40
0.500000
 50
272.000732
 51
0.000000
  0
CIRCLE
  8
0
 10
-207.734787
 20
-157.535461
 40
3.559999
  0
ARC
  8
0
 10
-220.392242
 20
-168.535461
 40
0.499999
 50
1.998977
 51
90.000000
  0
ARC
  8
0
 10
-233.077332
 20
-168.535461
 40
0.500000
 50
90.000000
 51
177.999283
  0
CIRCLE
  8
0
 10
-207.734787
 20
-182.035461
 40
6.849999
  0
ARC
  8
0
 62
     4
 10
-184.734787
 20
-200.035461
 40
5.999995
 50
73.808601
 51
106.191261
  0
ARC
  8
0
 62
     4
 10
-183.284775
 20
-195.041718
 40
0.800003
 50
0.000000
 51
73.808121
  0
ARC
  8
0
 62
     4
 10
-186.184784
 20
-195.041718
 40
0.799998
 50
106.191879
 51
180.000000
  0
ARC
  8
0
 62
     4
 10
-197.184784
 20
-195.041718
 40
0.799998
 50
106.191879
 51
180.000000
  0
ARC
  8
0
 62
     4
 10
-195.734787
 20
-200.035461
 40
5.999995
 50
73.808601
 51
106.191261
  0
ARC
  8
0
 62
     4
 10
-194.284775
 20
-195.041718
 40
0.800003
 50
0.000000
 51
73.808121
  0
ARC
  8
0
 10
-210.234787
 20
-209.035461
 40
5.600001
 50
131.795074
 51
228.204926
  0
ARC
  8
0
 10
-210.234787
 20
-209.035461
 40
5.099993
 50
162.895523
 51
197.104477
  0
CIRCLE
  8
0
 10
-210.234787
 20
-209.035461
 40
3.000000
  0
ARC
  8
0
 10
-210.234787
 20
-208.035461
 40
4.900009
 50
0.000000
 51
180.000000
  0
ARC
  8
0
 10
-210.234787
 20
-210.035461
 40
4.900009
 50
180.000000
 51
0.000000
  0
ARC
  8
0
 10
-210.234787
 20
-209.035461
 40
5.099993
 50
342.895508
 51
17.104481
  0
ARC
  8
0
 10
-210.234787
 20
-209.035461
 40
5.600001
 50
311.795074
 51
48.204929
  0
ARC
  8
0
 10
-205.234787
 20
-220.035461
 40
5.100006
 50
0.000000
 51
60.646523
  0
ARC
  8
0
 10
-205.234787
 20
-220.035461
 40
5.099999
 50
119.353477
 51
0.000000
  0
CIRCLE
  8
0
 10
39.615219
 20
-44.537033
 40
1.500000
  0
CIRCLE
  8
0
 10
58.615234
 20
-44.537033
 40
1.500000
  0
CIRCLE
  8
0
 10
39.615234
 20
-51.637024
 40
3.500000
  0
CIRCLE
  8
0
 10
39.615234
 20
-51.637024
 40
3.000000
  0
CIRCLE
  8
0
 10
39.615234
 20
-51.637024
 40
2.500000
  0
CIRCLE
  8
0
 10
39.615234
 20
-51.637024
 40
2.000000
  0
CIRCLE
  8
0
 10
39.615234
 20
-51.637024
 40
1.000000
  0
ARC
  8
0
 62
     4
 10
83.114685
 20
-102.237244
 40
0.500000
 50
269.999115
 51
359.999115
  0
ARC
  8
0
 62
     4
 10
69.114685
 20
-102.237000
 40
0.500000
 50
179.999130
 51
269.999115
  0
ARC
  8
0
 62
     4
 10
83.116043
 20
-22.737244
 40
0.500000
 50
359.998901
 51
89.999123
  0
ARC
  8
0
 62
     4
 10
69.116043
 20
-22.737000
 40
0.500000
 50
89.999123
 51
179.999130
  0
ARC
  8
0
 62
     4
 10
75.115036
 20
-29.236923
 40
1.500000
 50
0.000000
 51
180.000000
  0
ARC
  8
0
 10
56.115234
 20
-116.737030
 40
5.249999
 50
334.305267
 51
25.694839
  0
ARC
  8
0
 10
56.115234
 20
-116.737030
 40
5.250000
 50
154.306091
 51
205.693817
  0
ARC
  8
0
 10
56.115219
 20
-115.737030
 40
4.900002
 50
0.000000
 51
180.000000
  0
ARC
  8
0
 10
56.115219
 20
-117.737030
 40
4.900002
 50
180.000000
 51
0.000000
  0
CIRCLE
  8
0
 10
56.115234
 20
-116.737030
 40
3.000000
  0
ARC
  8
0
 10
-46.846649
 20
-39.879578
 40
0.499999
 50
272.000275
 51
0.000000
  0
ARC
  8
0
 10
-46.646637
 20
-14.937027
 40
0.299999
 50
0.000000
 51
90.000000
  0
ARC
  8
0
 10
-88.346581
 20
-118.787033
 40
1.900002
 50
180.000000
 51
270.000000
  0
ARC
  8
0
 10
-88.346581
 20
-118.987030
 40
3.000000
 50
180.000000
 51
270.000000
  0
ARC
  8
0
 10
61.115219
 20
-220.035461
 40
5.099999
 50
119.353477
 51
0.000000
  0
ARC
  8
0
 10
61.115219
 20
-220.035461
 40
5.099998
 50
0.000000
 51
60.646523
  0
CIRCLE
  8
0
 10
58.615219
 20
-157.535461
 40
3.559999
  0
ARC
  8
0
 10
45.957764
 20
-168.535461
 40
0.499999
 50
1.998977
 51
90.000000
  0
ARC
  8
0
 10
33.272675
 20
-168.535461
 40
0.500000
 50
90.000000
 51
177.999283
  0
CIRCLE
  8
0
 10
58.615219
 20
-182.035461
 40
6.849999
  0
ARC
  8
0
 62
     4
 10
81.615219
 20
-200.035461
 40
5.999993
 50
73.808670
 51
106.191330
  0
ARC
  8
0
 62
     4
 10
83.065231
 20
-195.041718
 40
0.800003
 50
0.000000
 51
73.808647
  0
ARC
  8
0
 62
     4
 10
80.165222
 20
-195.041718
 40
0.799996
 50
106.191353
 51
180.000000
  0
ARC
  8
0
 62
     4
 10
69.165222
 20
-195.041718
 40
0.799996
 50
106.191353
 51
180.000000
  0
ARC
  8
0
 62
     4
 10
70.615219
 20
-200.035461
 40
5.999993
 50
73.808670
 51
106.191330
  0
ARC
  8
0
 62
     4
 10
72.065231
 20
-195.041718
 40
0.800003
 50
0.000000
 51
73.808647
  0
ARC
  8
0
 10
56.115234
 20
-209.035461
 40
5.099999
 50
140.760696
 51
39.239513
  0
ARC
  8
0
 10
53.165222
 20
-206.435455
 40
1.000000
 50
180.000000
 51
267.134277
  0
ARC
  8
0
 10
56.115234
 20
-209.035461
 40
3.999998
 50
153.060532
 51
26.939713
  0
ARC
  8
0
 10
56.115234
 20
-209.035461
 40
6.000002
 50
131.172928
 51
48.827248
  0
ARC
  8
0
 10
59.065216
 20
-206.435455
 40
1.000000
 50
270.000000
 51
0.000000
  0
ARC
  8
0
 10
56.115219
 20
-209.035461
 40
2.900002
 50
180.000000
 51
0.000000
  0
CIRCLE
  8
0
 10
305.965210
 20
-44.537033
 40
1.500000
  0
CIRCLE
  8
0
 10
324.965210
 20
-44.537033
 40
1.500000
  0
CIRCLE
  8
0
 10
305.965210
 20
-51.637024
 40
3.500000
  0
CIRCLE
  8
0
 10
305.965210
 20
-51.637024
 40
3.000000
  0
CIRCLE
  8
0
 10
305.965210
 20
-51.637024
 40
2.500000
  0
CIRCLE
  8
0
 10
305.965210
 20
-51.637024
 40
2.000000
  0
CIRCLE
  8
0
 10
305.965210
 20
-51.637024
 40
1.000000
  0
ARC
  8
0
 62
     4
 10
349.464661
 20
-102.237244
 40
0.500000
 50
270.000000
 51
359.999115
  0
ARC
  8
0
 62
     4
 10
335.464661
 20
-102.237000
 40
0.500000
 50
179.999130
 51
270.000000
  0
ARC
  8
0
 62
     4
 10
349.466003
 20
-22.737244
 40
0.500000
 50
359.998901
 51
90.000000
  0
ARC
  8
0
 62
     4
 10
335.466003
 20
-22.737000
 40
0.500000
 50
90.000000
 51
179.999130
  0
ARC
  8
0
 62
     4
 10
341.465027
 20
-29.236923
 40
1.500000
 50
0.000000
 51
180.000000
  0
ARC
  8
0
 10
219.703339
 20
-14.937027
 40
0.300003
 50
0.000000
 51
90.000000
  0
ARC
  8
0
 10
219.503326
 20
-39.879578
 40
0.500000
 50
272.000732
 51
0.000000
  0
CIRCLE
  8
0
 10
324.965210
 20
-152.535461
 40
3.559999
  0
ARC
  8
0
 10
312.307739
 20
-163.535461
 40
0.499999
 50
1.998977
 51
90.000000
  0
ARC
  8
0
 10
299.622650
 20
-163.535461
 40
0.500000
 50
90.000000
 51
177.999283
  0
CIRCLE
  8
0
 10
324.965210
 20
-177.035461
 40
6.849999
  0
ARC
  8
0
 62
     4
 10
347.965210
 20
-195.035461
 40
5.999991
 50
73.808739
 51
106.191261
  0
ARC
  8
0
 62
     4
 10
349.415222
 20
-190.041718
 40
0.799988
 50
0.000000
 51
73.808121
  0
ARC
  8
0
 62
     4
 10
346.515198
 20
-190.041718
 40
0.799998
 50
106.191879
 51
180.000000
  0
ARC
  8
0
 62
     4
 10
335.515198
 20
-190.041718
 40
0.799998
 50
106.191879
 51
180.000000
  0
ARC
  8
0
 62
     4
 10
336.965210
 20
-195.035461
 40
5.999991
 50
73.808739
 51
106.191261
  0
ARC
  8
0
 62
     4
 10
338.415222
 20
-190.041718
 40
0.799988
 50
0.000000
 51
73.808121
  0
CIRCLE
  8
0
 62
     2
 10
322.465210
 20
-204.035461
 40
4.000000
  0
CIRCLE
  8
0
 10
322.465210
 20
-204.035461
 40
3.625000
  0
CIRCLE
  8
0
 10
322.465210
 20
-204.035461
 40
6.000000
  0
CIRCLE
  8
0
 62
     2
 10
327.465210
 20
-215.035461
 40
4.000000
  0
CIRCLE
  8
0
 10
327.465210
 20
-215.035461
 40
3.625000
  0
CIRCLE
  8
0
 10
327.465210
 20
-215.035461
 40
6.000000
  0
TEXT
  8
0
 10
-345.785156
 20
253.500000
 40
12.500000
  1
X88M
 50
0.000000
 41
1.052632
 51
0.000000
  7
STANDARD
  0
TEXT
  8
0
 10
242.014816
 20
-274.500000
 40
12.500000
  1
KOGANEI CORP.
 50
0.000000
 41
1.052632
 51
0.000000
  7
STANDARD
  0
TEXT
  8
0
 10
251.264664
 20
256.649994
 40
9.000000
  1
DATE: OCT ,1993
 50
0.000000
 41
1.052632
 51
0.000000
  7
STANDARD
  0
TEXT
  8
0
 10
-350.825012
 20
1.950000
 40
7.000000
  1
MODEL:FMJ07E1-J4S(J6S)-E
 50
0.000000
 41
1.052632
 51
0.000000
  7
STANDARD
  0
TEXT
  8
0
 10
-84.475014
 20
1.950000
 40
7.000000
  1
MODEL:FMJ07E1-J4U(J6U)-E
 50
0.000000
 41
1.052632
 51
0.000000
  7
STANDARD
  0
TEXT
  8
0
 10
199.375000
 20
1.949999
 40
7.000000
  1
MODEL:FMJ07E1-M8M-E
 50
0.000000
 41
1.052632
 51
0.000000
  7
STANDARD
  0
TEXT
  8
0
 10
-350.825012
 20
-274.549988
 40
7.000000
  1
MODEL:FMJ07E2-J6S(J4S)-E
 50
0.000000
 41
1.052632
 51
0.000000
  7
STANDARD
  0
TEXT
  8
0
 10
-84.475014
 20
-274.549988
 40
7.000000
  1
MODEL:FMJ07E2-J6U(J4U)-E
 50
0.000000
 41
1.052632
 51
0.000000
  7
STANDARD
  0
TEXT
  8
0
 10
199.375000
 20
-249.550003
 40
7.000000
  1
MODEL:FMJ07E2-M8M-E
 50
0.000000
 41
1.052632
 51
0.000000
  7
STANDARD
  0
TEXT
  8
0
 10
-215.875000
 20
39.993324
 40
3.000000
  1
A
 50
0.000000
 41
1.052632
 51
0.000000
  7
STANDARD
  0
TEXT
  8
0
 10
-202.680557
 20
57.507576
 40
3.000000
  1
B
 50
0.000000
 41
1.052632
 51
0.000000
  7
STANDARD
  0
TEXT
  8
0
 10
50.519630
 20
39.993328
 40
3.000000
  1
A
 50
0.000000
 41
1.052632
 51
0.000000
  7
STANDARD
  0
TEXT
  8
0
 10
63.714081
 20
57.507580
 40
3.000000
  1
B
 50
0.000000
 41
1.052632
 51
0.000000
  7
STANDARD
  0
TEXT
  8
0
 10
-215.913223
 20
-221.735458
 40
3.000000
  1
A
 50
0.000000
 41
1.052632
 51
0.000000
  7
STANDARD
  0
TEXT
  8
0
 10
-202.718781
 20
-204.221207
 40
3.000000
  1
B
 50
0.000000
 41
1.052632
 51
0.000000
  7
STANDARD
  0
TEXT
  8
0
 10
50.436783
 20
-221.735458
 40
3.000000
  1
A
 50
0.000000
 41
1.052632
 51
0.000000
  7
STANDARD
  0
TEXT
  8
0
 10
63.631226
 20
-204.221207
 40
3.000000
  1
B
 50
0.000000
 41
1.052632
 51
0.000000
  7
STANDARD
  0
ENDSEC
  0
EOF
