  0
SECTION
  2
HEADER
  0
ENDSEC
  0
SECTION
  2
TABLES
  0
TABLE
  2
LTYPE
 70
     4
  0
LTYPE
  2
CONTINUOUS
 70
    64
  3
Solid line
 72
    65
 73
     0
 40
0.000000
  0
LTYPE
  2
DASHED
 70
    64
  3
__ __ __ __ __ __ __ __ __ __ __ __ __ __ __
 72
    65
 73
     2
 40
3.500000
 49
2.000000
 49
-1.500000
  0
LTYPE
  2
CENTER
 70
    64
  3
____ _ ____ _ ____ _ ____ _ ____ _ ____ _ ____
 72
    65
 73
     4
 40
17.500000
 49
13.000000
 49
-1.500000
 49
1.500000
 49
-1.500000
  0
LTYPE
  2
PHANTOM
 70
    64
  3
_____ _ _ _____ _ _ _____ _ _ _____ _ _ ____  
 72
    65
 73
     6
 40
15.500000
 49
8.000000
 49
-1.500000
 49
1.500000
 49
-1.500000
 49
1.500000
 49
-1.500000
  0
LTYPE
  2
DASHED1
 70
    64
  3
__ __ __ __ __ __ __ __ __ __ __ __ __ __ __
 72
    65
 73
     2
 40
1.500000
 49
1.000000
 49
-0.500000
  0
LTYPE
  2
DASHED2
 70
    64
  3
__ __ __ __ __ __ __ __ __ __ __ __ __ __ __
 72
    65
 73
     2
 40
3.500000
 49
2.500000
 49
-1.000000
  0
LTYPE
  2
DASHED3
 70
    64
  3
__ __ __ __ __ __ __ __ __ __ __ __ __ __ __
 72
    65
 73
     2
 40
6.000000
 49
4.000000
 49
-2.000000
  0
LTYPE
  2
DASHED4
 70
    64
  3
__ __ __ __ __ __ __ __ __ __ __ __ __ __ __
 72
    65
 73
     2
 40
12.000000
 49
10.000000
 49
-2.000000
  0
LTYPE
  2
DASHED5
 70
    64
  3
__ __ __ __ __ __ __ __ __ __ __ __ __ __ __
 72
    65
 73
     2
 40
17.000000
 49
15.000000
 49
-2.000000
  0
LTYPE
  2
DASHED6
 70
    64
  3
__ __ __ __ __ __ __ __ __ __ __ __ __ __ __
 72
    65
 73
     2
 40
29.000000
 49
27.000000
 49
-2.000000
  0
LTYPE
  2
PHANTOM1
 70
    64
  3
_____ _ _ _____ _ _ _____ _ _ _____ _ _ ____  
 72
    65
 73
     6
 40
31.000000
 49
25.000000
 49
-1.500000
 49
1.000000
 49
-1.000000
 49
1.000000
 49
-1.500000
  0
LTYPE
  2
PHANTOM2
 70
    64
  3
_____ _ _ _____ _ _ _____ _ _ _____ _ _ ____  
 72
    65
 73
     6
 40
36.000000
 49
27.000000
 49
-1.500000
 49
2.500000
 49
-1.000000
 49
2.500000
 49
-1.500000
  0
LTYPE
  2
PHANTOM3
 70
    64
  3
_____ _ _ _____ _ _ _____ _ _ _____ _ _ ____  
 72
    65
 73
     6
 40
78.000000
 49
64.000000
 49
-2.000000
 49
4.000000
 49
-2.000000
 49
4.000000
 49
-2.000000
  0
LTYPE
  2
CENTER1
 70
    64
  3
____ _ ____ _ ____ _ ____ _ ____ _ ____ _ ____
 72
    65
 73
     4
 40
19.000000
 49
14.000000
 49
-1.000000
 49
3.000000
 49
-1.000000
  0
LTYPE
  2
CENTER2
 70
    64
  3
____ _ ____ _ ____ _ ____ _ ____ _ ____ _ ____
 72
    65
 73
     4
 40
28.500000
 49
25.000000
 49
-1.000000
 49
1.500000
 49
-1.000000
  0
LTYPE
  2
CENTER3
 70
    64
  3
____ _ ____ _ ____ _ ____ _ ____ _ ____ _ ____
 72
    65
 73
     4
 40
31.500000
 49
27.000000
 49
-1.000000
 49
2.500000
 49
-1.000000
  0
LTYPE
  2
CENTER4
 70
    64
  3
____ _ ____ _ ____ _ ____ _ ____ _ ____ _ ____
 72
    65
 73
     4
 40
50.000000
 49
45.000000
 49
-1.000000
 49
3.000000
 49
-1.000000
  0
LTYPE
  2
CENTER5
 70
    64
  3
____ _ ____ _ ____ _ ____ _ ____ _ ____ _ ____
 72
    65
 73
     4
 40
100.000000
 49
92.000000
 49
-2.000000
 49
4.000000
 49
-2.000000
  0
LTYPE
  2
SBK1
 70
    64
  3
______ _ _ _ ______ _ _ _ ______ _ _ _ _____  
 72
    65
 73
     8
 40
60.500000
 49
45.000000
 49
-2.000000
 49
2.500000
 49
-2.000000
 49
2.500000
 49
-2.000000
 49
2.500000
 49
-2.000000
  0
LTYPE
  2
SBK2
 70
    64
  3
______ _ _ _ ______ _ _ _ ______ _ _ _ _____  
 72
    65
 73
     8
 40
84.000000
 49
64.000000
 49
-2.000000
 49
4.000000
 49
-2.000000
 49
4.000000
 49
-2.000000
 49
4.000000
 49
-2.000000
  0
LTYPE
  2
STCH
 70
    64
  3
__ __ __ __ __ __ __ __ __ __ __ __ __ __ __
 72
    65
 73
     2
 40
3.000000
 49
1.000000
 49
-2.000000
  0
LTYPE
  2
MTCH
 70
    64
  3
_____ _ _ _____ _ _ _____ _ _ _____ _ _ ____  
 72
    65
 73
     6
 40
80.000000
 49
66.000000
 49
-2.000000
 49
4.000000
 49
-2.000000
 49
4.000000
 49
-2.000000
  0
ENDTAB
  0
TABLE
  2
LAYER
 70
     1
  0
LAYER
  2
0
 70
     0
 62
     7
  6
CONTINUOUS
  0
ENDTAB
  0
TABLE
  2
STYLE
 70
     1
  0
STYLE
  2
STANDARD
 70
     0
 40
0.000000
 41
1.000000
 50
0.000000
 71
     0
 42
0.200000
  3
txt
  4
BIGFONT
  0
ENDTAB
  0
TABLE
  2
VIEW
 70
     0
  0
ENDTAB
  0
ENDSEC
  0
SECTION
  2
BLOCKS
  0
ENDSEC
  0
SECTION
  2
ENTITIES
  0
LINE
  8
0
 10
399.799988
 20
276.250000
 11
399.799988
 21
-276.750000
  0
LINE
  8
0
 10
-399.250000
 20
276.250000
 11
-399.250000
 21
-276.750000
  0
LINE
  8
0
 10
-399.250000
 20
276.250000
 11
399.799988
 21
276.250000
  0
LINE
  8
0
 10
-399.250000
 20
-276.750000
 11
399.799988
 21
-276.750000
  0
LINE
  8
0
 10
133.449997
 20
-251.750000
 11
399.799988
 21
-251.750000
  0
LINE
  8
0
 10
239.799988
 20
251.250000
 11
399.799988
 21
251.250000
  0
LINE
  8
0
 10
-399.250000
 20
251.250000
 11
-239.250000
 21
251.250000
  0
LINE
  8
0
 10
239.799988
 20
-251.750000
 11
239.799988
 21
-276.750000
  0
LINE
  8
0
 10
239.799988
 20
251.250000
 11
239.799988
 21
276.250000
  0
LINE
  8
0
 10
-239.250000
 20
276.250000
 11
-239.250000
 21
251.250000
  0
LINE
  8
0
 10
-399.250000
 20
-0.250000
 11
399.799988
 21
-0.250000
  0
LINE
  8
0
 10
-399.250000
 20
-261.750000
 11
133.449997
 21
-261.750000
  0
LINE
  8
0
 10
-399.250000
 20
14.750000
 11
399.799988
 21
14.750000
  0
LINE
  8
0
 10
-132.900009
 20
276.250000
 11
-132.900009
 21
-276.750000
  0
LINE
  8
0
 10
133.449997
 20
276.250000
 11
133.449997
 21
-276.750000
  0
LINE
  8
0
 10
133.449997
 20
-236.750000
 11
399.799988
 21
-236.750000
  0
LINE
  8
0
  6
PHANTOM
 62
     2
 10
212.503387
 20
-24.237030
 11
185.503387
 21
-24.237030
  0
LINE
  8
0
  6
PHANTOM
 62
     2
 10
212.503387
 20
-24.237030
 11
212.503387
 21
-122.237030
  0
LINE
  8
0
  6
PHANTOM
 62
     2
 10
212.503387
 20
-122.237030
 11
185.503387
 21
-122.237030
  0
LINE
  8
0
  6
PHANTOM
 62
     2
 10
185.503387
 20
-122.237030
 11
185.503387
 21
-24.237030
  0
LINE
  8
0
  6
PHANTOM
 62
     2
 10
-320.196564
 20
237.262970
 11
-347.196564
 21
237.262970
  0
LINE
  8
0
  6
PHANTOM
 62
     2
 10
-320.196564
 20
237.262970
 11
-320.196564
 21
139.262970
  0
LINE
  8
0
  6
PHANTOM
 62
     2
 10
-320.196564
 20
139.262970
 11
-347.196564
 21
139.262970
  0
LINE
  8
0
  6
PHANTOM
 62
     2
 10
-347.196564
 20
139.262970
 11
-347.196564
 21
237.262970
  0
LINE
  8
0
  6
PHANTOM
 62
     2
 10
-53.846588
 20
237.262970
 11
-80.846588
 21
237.262970
  0
LINE
  8
0
  6
PHANTOM
 62
     2
 10
-53.846588
 20
237.262970
 11
-53.846588
 21
139.262970
  0
LINE
  8
0
  6
PHANTOM
 62
     2
 10
-53.846588
 20
139.262970
 11
-80.846588
 21
139.262970
  0
LINE
  8
0
  6
PHANTOM
 62
     2
 10
-80.846588
 20
139.262970
 11
-80.846588
 21
237.262970
  0
LINE
  8
0
  6
PHANTOM
 62
     2
 10
212.503448
 20
237.262970
 11
185.503448
 21
237.262970
  0
LINE
  8
0
  6
PHANTOM
 62
     2
 10
212.503448
 20
237.262970
 11
212.503448
 21
139.262970
  0
LINE
  8
0
  6
PHANTOM
 62
     2
 10
212.503448
 20
139.262970
 11
185.503448
 21
139.262970
  0
LINE
  8
0
  6
PHANTOM
 62
     2
 10
185.503448
 20
139.262970
 11
185.503448
 21
237.262970
  0
LINE
  8
0
  6
PHANTOM
 62
     2
 10
-320.196564
 20
-24.237030
 11
-347.196564
 21
-24.237030
  0
LINE
  8
0
  6
PHANTOM
 62
     2
 10
-320.196564
 20
-24.237030
 11
-320.196564
 21
-122.237030
  0
LINE
  8
0
  6
PHANTOM
 62
     2
 10
-320.196564
 20
-122.237030
 11
-347.196564
 21
-122.237030
  0
LINE
  8
0
  6
PHANTOM
 62
     2
 10
-347.196564
 20
-122.237030
 11
-347.196564
 21
-24.237030
  0
LINE
  8
0
  6
PHANTOM
 62
     2
 10
-53.846588
 20
-24.237030
 11
-80.846588
 21
-24.237030
  0
LINE
  8
0
  6
PHANTOM
 62
     2
 10
-53.846588
 20
-24.237030
 11
-53.846588
 21
-122.237030
  0
LINE
  8
0
  6
PHANTOM
 62
     2
 10
-53.846588
 20
-122.237030
 11
-80.846588
 21
-122.237030
  0
LINE
  8
0
  6
PHANTOM
 62
     2
 10
-80.846588
 20
-122.237030
 11
-80.846588
 21
-24.237030
  0
LINE
  8
0
 10
-199.196625
 20
229.262955
 11
-183.196625
 21
229.262955
  0
LINE
  8
0
 10
-193.196625
 20
229.262955
 11
-193.196625
 21
222.662964
  0
LINE
  8
0
 10
-193.196625
 20
222.662964
 11
-185.696625
 21
222.662964
  0
LINE
  8
0
 10
-185.696625
 20
229.262955
 11
-185.696625
 21
222.662964
  0
LINE
  8
0
 10
-193.196625
 20
222.162964
 11
-193.196625
 21
215.662964
  0
LINE
  8
0
 10
-193.196625
 20
222.162964
 11
-185.696625
 21
222.162964
  0
LINE
  8
0
 10
-185.696625
 20
222.162964
 11
-185.696625
 21
215.662964
  0
LINE
  8
0
 10
-193.196625
 20
215.662964
 11
-185.696625
 21
215.662964
  0
LINE
  8
0
 10
-196.696625
 20
229.262955
 11
-196.696625
 21
215.662964
  0
LINE
  8
0
 10
-193.696625
 20
229.262955
 11
-193.696625
 21
215.662964
  0
LINE
  8
0
 10
-196.696625
 20
215.662964
 11
-193.696625
 21
215.662964
  0
LINE
  8
0
 10
-196.696625
 20
229.262955
 11
-193.696625
 21
229.262955
  0
LINE
  8
0
 10
-195.196625
 20
210.412979
 11
-191.696625
 21
210.412979
  0
LINE
  8
0
 10
-195.196625
 20
212.412964
 11
-195.196625
 21
210.412979
  0
LINE
  8
0
 10
-195.196625
 20
212.412964
 11
-191.696625
 21
212.412964
  0
LINE
  8
0
 10
-191.696625
 20
212.412964
 11
-191.696625
 21
210.412979
  0
LINE
  8
0
 10
-190.696625
 20
210.412979
 11
-187.196625
 21
210.412979
  0
LINE
  8
0
 10
-190.696625
 20
212.412964
 11
-190.696625
 21
210.412979
  0
LINE
  8
0
 10
-190.696625
 20
212.412964
 11
-187.196625
 21
212.412964
  0
LINE
  8
0
 10
-187.196625
 20
212.412964
 11
-187.196625
 21
210.412979
  0
LINE
  8
0
 10
-196.696625
 20
215.162964
 11
-185.696625
 21
215.162964
  0
LINE
  8
0
 10
-185.696625
 20
215.162964
 11
-185.696625
 21
206.162979
  0
LINE
  8
0
 10
-196.696625
 20
215.162964
 11
-196.696625
 21
206.162979
  0
LINE
  8
0
 10
-196.696625
 20
206.162979
 11
-185.696625
 21
206.162979
  0
LINE
  8
0
 10
-199.196625
 20
204.262970
 11
-183.196625
 21
204.262970
  0
LINE
  8
0
 10
-198.196625
 20
194.262970
 11
-198.196625
 21
202.262970
  0
LINE
  8
0
 10
-184.196625
 20
194.262970
 11
-184.196625
 21
202.262970
  0
LINE
  8
0
 10
-184.196625
 20
202.262970
 11
-188.696625
 21
202.262970
  0
LINE
  8
0
 10
-193.696625
 20
199.562973
 11
-193.696625
 21
202.262970
  0
LINE
  8
0
 10
-188.696625
 20
199.562973
 11
-188.696625
 21
202.262970
  0
LINE
  8
0
 10
-193.696625
 20
202.262970
 11
-198.196625
 21
202.262970
  0
LINE
  8
0
 10
-198.696625
 20
232.262955
 11
-183.696625
 21
232.262955
  0
LINE
  8
0
 10
-183.696625
 20
194.262970
 11
-198.696625
 21
194.262970
  0
LINE
  8
0
 10
-184.696625
 20
194.762970
 11
-197.696625
 21
194.762970
  0
LINE
  8
0
 10
-184.696625
 20
201.762970
 11
-188.196625
 21
201.762970
  0
LINE
  8
0
 10
-197.696625
 20
194.762970
 11
-197.696625
 21
201.762970
  0
LINE
  8
0
 10
-184.696625
 20
194.762970
 11
-184.696625
 21
201.762970
  0
LINE
  8
0
 10
-194.196625
 20
199.762970
 11
-194.196625
 21
201.762970
  0
LINE
  8
0
 10
-188.196625
 20
199.762970
 11
-188.196625
 21
201.762970
  0
LINE
  8
0
 10
-197.696625
 20
201.762970
 11
-194.196625
 21
201.762970
  0
LINE
  8
0
 10
-183.196625
 20
184.262970
 11
-199.196625
 21
184.262970
  0
LINE
  8
0
 10
-183.196625
 20
194.262970
 11
-199.196625
 21
194.262970
  0
LINE
  8
0
 10
-183.696625
 20
154.262970
 11
-198.696625
 21
154.262970
  0
LINE
  8
0
 10
-183.196625
 20
147.762970
 11
-199.196625
 21
147.762970
  0
LINE
  8
0
 10
-199.196625
 20
154.262970
 11
-183.196625
 21
154.262970
  0
LINE
  8
0
 10
-186.968048
 20
198.023880
 11
-187.907745
 21
198.365906
  0
LINE
  8
0
 10
-195.425278
 20
198.023849
 11
-194.485580
 21
198.365860
  0
LINE
  8
0
 10
-193.275116
 20
199.862976
 11
-189.118134
 21
199.862976
  0
LINE
  8
0
 10
-193.275116
 20
199.262970
 11
-189.118134
 21
199.262970
  0
LINE
  8
0
 10
-190.896637
 20
197.484512
 11
-190.896637
 21
198.462967
  0
LINE
  8
0
 10
-191.496613
 20
197.484512
 11
-191.496613
 21
198.462967
  0
LINE
  8
0
 10
-191.496613
 20
198.462967
 11
-190.896637
 21
198.462967
  0
LINE
  8
0
 10
-199.196625
 20
237.262970
 11
-199.196625
 21
139.262970
  0
LINE
  8
0
 10
-183.196625
 20
237.262970
 11
-183.196625
 21
139.262970
  0
LINE
  8
0
 10
-199.196625
 20
237.262970
 11
-183.196625
 21
237.262970
  0
LINE
  8
0
 10
-199.196625
 20
139.262970
 11
-183.196625
 21
139.262970
  0
LINE
  8
0
 10
-194.955475
 20
198.194870
 11
-194.657120
 21
196.502838
  0
LINE
  8
0
 10
-194.955444
 20
198.194885
 11
-193.639267
 21
197.090485
  0
LINE
  8
0
 10
-187.437729
 20
198.194855
 11
-187.736069
 21
196.502808
  0
LINE
  8
0
 10
-187.437866
 20
198.194824
 11
-188.754013
 21
197.090439
  0
LINE
  8
0
 10
-185.296600
 20
135.862976
 11
-197.096649
 21
135.862976
  0
LINE
  8
0
 10
-187.296600
 20
137.062973
 11
-187.296600
 21
135.862976
  0
LINE
  8
0
 10
-197.096649
 20
137.062973
 11
-197.096649
 21
135.862976
  0
LINE
  8
0
 10
-185.296600
 20
137.062973
 11
-197.096649
 21
137.062973
  0
LINE
  8
0
 10
-194.696625
 20
138.562973
 11
-194.696625
 21
137.062973
  0
LINE
  8
0
 10
-189.696625
 20
138.562973
 11
-189.696625
 21
137.062973
  0
LINE
  8
0
 10
-197.296600
 20
139.262970
 11
-197.296600
 21
138.562973
  0
LINE
  8
0
 10
-187.096649
 20
139.262970
 11
-187.096649
 21
138.562973
  0
LINE
  8
0
 10
-197.296600
 20
138.562973
 11
-185.096649
 21
138.562973
  0
LINE
  8
0
 10
-185.296600
 20
137.062973
 11
-185.296600
 21
135.862976
  0
LINE
  8
0
 10
-187.696625
 20
138.562973
 11
-187.696625
 21
137.062973
  0
LINE
  8
0
 10
-185.096649
 20
139.262970
 11
-185.096649
 21
138.562973
  0
LINE
  8
0
  6
CENTER
 62
     2
 10
-191.196625
 20
239.262970
 11
-191.196625
 21
133.862976
  0
LINE
  8
0
  6
CENTER
 62
     2
 10
-190.196625
 20
143.262970
 11
-190.196625
 21
133.862976
  0
LINE
  8
0
  6
CENTER
 62
     2
 10
-192.196625
 20
143.262970
 11
-192.196625
 21
133.862976
  0
LINE
  8
0
 10
-289.196564
 20
194.262970
 11
-319.196564
 21
194.262970
  0
LINE
  8
0
 10
-289.196564
 20
154.262970
 11
-319.196564
 21
154.262970
  0
LINE
  8
0
 10
-289.196564
 20
184.262970
 11
-319.196564
 21
184.262970
  0
LINE
  8
0
 10
-289.196503
 20
232.263016
 11
-285.196503
 21
231.557709
  0
LINE
  8
0
 10
-289.196564
 20
204.262970
 11
-287.281647
 21
204.776062
  0
LINE
  8
0
 10
-289.196564
 20
204.262970
 11
-319.196564
 21
204.262970
  0
LINE
  8
0
 10
-319.196564
 20
229.262970
 11
-285.196564
 21
229.262970
  0
LINE
  8
0
 10
-289.196564
 20
147.762970
 11
-319.196564
 21
147.762970
  0
LINE
  8
0
 10
-289.196564
 20
232.262985
 11
-289.196564
 21
147.762970
  0
LINE
  8
0
 10
-285.196564
 20
231.557678
 11
-285.196564
 21
214.262970
  0
LINE
  8
0
 10
-289.196564
 20
232.262970
 11
-318.696564
 21
232.262970
  0
LINE
  8
0
 10
-334.796539
 20
135.862976
 11
-344.596588
 21
135.862976
  0
LINE
  8
0
 10
-334.796539
 20
137.062973
 11
-334.796539
 21
135.862976
  0
LINE
  8
0
 10
-344.596588
 20
137.062973
 11
-344.596588
 21
135.862976
  0
LINE
  8
0
 10
-334.796539
 20
137.062973
 11
-344.596588
 21
137.062973
  0
LINE
  8
0
 10
-342.196564
 20
138.562973
 11
-342.196564
 21
137.062973
  0
LINE
  8
0
 10
-337.196564
 20
138.562973
 11
-337.196564
 21
137.062973
  0
LINE
  8
0
 10
-344.796539
 20
139.262970
 11
-344.796539
 21
138.562973
  0
LINE
  8
0
 10
-334.596588
 20
139.262970
 11
-334.596588
 21
138.562973
  0
LINE
  8
0
 10
-322.796539
 20
135.862976
 11
-332.596588
 21
135.862976
  0
LINE
  8
0
 10
-322.796539
 20
137.062973
 11
-322.796539
 21
135.862976
  0
LINE
  8
0
 10
-332.596588
 20
137.062973
 11
-332.596588
 21
135.862976
  0
LINE
  8
0
 10
-322.796539
 20
137.062973
 11
-332.596588
 21
137.062973
  0
LINE
  8
0
 10
-330.196564
 20
138.562973
 11
-330.196564
 21
137.062973
  0
LINE
  8
0
 10
-325.196564
 20
138.562973
 11
-325.196564
 21
137.062973
  0
LINE
  8
0
 10
-332.796539
 20
139.262970
 11
-332.796539
 21
138.562973
  0
LINE
  8
0
 10
-322.596588
 20
139.262970
 11
-322.596588
 21
138.562973
  0
LINE
  8
0
 10
-344.796539
 20
138.562973
 11
-334.596588
 21
138.562973
  0
LINE
  8
0
 10
-332.796539
 20
138.562973
 11
-322.596588
 21
138.562973
  0
LINE
  8
0
  6
CENTER
 62
     2
 10
-339.696564
 20
143.862976
 11
-339.696564
 21
133.862976
  0
LINE
  8
0
  6
CENTER
 62
     2
 10
-327.696564
 20
143.862976
 11
-327.696564
 21
133.862976
  0
LINE
  8
0
 10
-319.196564
 20
231.762970
 11
-319.196564
 21
147.762970
  0
LINE
  8
0
 10
-320.196564
 20
155.262970
 11
-319.196564
 21
155.262970
  0
LINE
  8
0
 10
-320.196564
 20
226.962967
 11
-319.196564
 21
226.962967
  0
LINE
  8
0
 10
-183.696625
 20
81.763000
 11
-184.196625
 21
81.763000
  0
LINE
  8
0
 10
-199.196625
 20
54.763000
 11
-199.196625
 21
81.763000
  0
LINE
  8
0
 10
-183.196625
 20
54.763000
 11
-183.196625
 21
81.763000
  0
LINE
  8
0
 10
-199.196625
 20
54.763000
 11
-183.196625
 21
54.763000
  0
LINE
  8
0
  6
CENTER
 62
     2
 10
-192.196625
 20
79.929550
 11
-192.196625
 21
68.459976
  0
LINE
  8
0
  6
CENTER
 62
     2
 10
-190.196625
 20
67.923111
 11
-190.196625
 21
56.648773
  0
LINE
  8
0
  6
CENTER
 62
     2
 10
-186.473663
 20
74.263000
 11
-198.089630
 21
74.263000
  0
LINE
  8
0
  6
CENTER
 62
     2
 10
-184.521393
 20
62.263000
 11
-196.137360
 21
62.263000
  0
LINE
  8
0
 10
-198.196625
 20
81.763000
 11
-198.696625
 21
81.763000
  0
LINE
  8
0
 10
-188.296600
 20
75.263000
 11
-188.296600
 21
73.263000
  0
LINE
  8
0
 10
-196.096649
 20
75.263000
 11
-196.096649
 21
73.263000
  0
LINE
  8
0
 10
-186.296600
 20
63.263000
 11
-186.296600
 21
61.263000
  0
LINE
  8
0
 10
-194.096649
 20
63.263000
 11
-194.096649
 21
61.263000
  0
LINE
  8
0
 10
-198.696625
 20
112.763000
 11
-198.696625
 21
81.763000
  0
LINE
  8
0
 10
-183.696625
 20
112.763000
 11
-183.696625
 21
81.763000
  0
LINE
  8
0
 10
-198.696625
 20
112.763000
 11
-183.696625
 21
112.763000
  0
LINE
  8
0
 10
-198.696716
 20
112.762993
 11
-198.064255
 21
116.349823
  0
LINE
  8
0
 10
-183.696716
 20
112.762978
 11
-184.329163
 21
116.349792
  0
LINE
  8
0
 10
-184.821503
 20
116.763000
 11
-197.571747
 21
116.763000
  0
LINE
  8
0
 10
-197.991302
 20
114.919495
 11
-184.401947
 21
114.919495
  0
LINE
  8
0
 10
-196.696625
 20
115.448441
 11
-196.696625
 21
116.763000
  0
LINE
  8
0
 10
-185.696625
 20
115.448441
 11
-185.696625
 21
116.763000
  0
LINE
  8
0
 10
-197.991302
 20
114.919479
 11
-197.991302
 21
116.534988
  0
LINE
  8
0
 10
-184.401947
 20
114.919479
 11
-184.401947
 21
116.534958
  0
LINE
  8
0
 10
-196.696625
 20
115.448441
 11
-185.696625
 21
115.448441
  0
LINE
  8
0
 10
-198.696732
 20
112.763000
 11
-197.991440
 21
114.919479
  0
LINE
  8
0
 10
-183.696625
 20
112.763023
 11
-184.401886
 21
114.919518
  0
LINE
  8
0
 10
-199.196625
 20
81.763000
 11
-183.196625
 21
81.763000
  0
LINE
  8
0
 10
-198.696625
 20
82.763000
 11
-183.696625
 21
82.763000
  0
LINE
  8
0
  6
CENTER
 62
     2
 10
-191.196625
 20
52.763000
 11
-191.196625
 21
118.763000
  0
LINE
  8
0
  6
CENTER
 62
     2
 10
68.253357
 20
133.762970
 11
80.053360
 21
133.762970
  0
LINE
  8
0
  6
CENTER
 62
     2
 10
74.153351
 20
141.262970
 11
74.153351
 21
127.762970
  0
LINE
  8
0
 10
68.003349
 20
139.262970
 11
68.003349
 21
138.462982
  0
LINE
  8
0
 10
80.003365
 20
138.462967
 11
79.103355
 21
137.462967
  0
LINE
  8
0
 10
68.903366
 20
137.462997
 11
68.003372
 21
138.462982
  0
LINE
  8
0
 10
70.253357
 20
132.762970
 11
70.253357
 21
134.762970
  0
LINE
  8
0
 10
78.053360
 20
132.762970
 11
78.053360
 21
134.762970
  0
LINE
  8
0
 10
68.903358
 20
137.462967
 11
71.339104
 21
137.462967
  0
LINE
  8
0
 10
72.153351
 20
127.762970
 11
72.153351
 21
126.763016
  0
LINE
  8
0
 10
80.153351
 20
127.762970
 11
80.153351
 21
126.762970
  0
LINE
  8
0
 10
72.153358
 20
126.762970
 11
72.805214
 21
126.762970
  0
LINE
  8
0
 10
79.650681
 20
126.488831
 11
80.153336
 21
126.763008
  0
LINE
  8
0
 10
72.656006
 20
126.488800
 11
72.153351
 21
126.762978
  0
LINE
  8
0
  6
CENTER
 62
     2
 10
76.153351
 20
141.262970
 11
76.153351
 21
117.762970
  0
LINE
  8
0
 10
80.003349
 20
138.462982
 11
80.003349
 21
139.262970
  0
LINE
  8
0
 10
80.003349
 20
138.462982
 11
75.386230
 21
138.462982
  0
LINE
  8
0
  6
CENTER
 62
     2
 10
70.253349
 20
123.762970
 11
82.053352
 21
123.762970
  0
LINE
  8
0
 10
79.373337
 20
137.762970
 11
82.003357
 21
137.762970
  0
LINE
  8
0
 10
71.403358
 20
127.762970
 11
73.661362
 21
127.762970
  0
LINE
  8
0
 10
81.253349
 20
137.762970
 11
81.253349
 21
128.162979
  0
LINE
  8
0
 10
71.053352
 20
130.396545
 11
71.053352
 21
128.162979
  0
LINE
  8
0
 10
71.053360
 20
128.162979
 11
74.242867
 21
128.162979
  0
LINE
  8
0
 10
81.253365
 20
128.162979
 11
80.903358
 21
127.762970
  0
LINE
  8
0
 10
71.053352
 20
128.162964
 11
71.403358
 21
127.762962
  0
LINE
  8
0
 10
70.153351
 20
137.462967
 11
70.153351
 21
136.462967
  0
LINE
  8
0
 10
78.153351
 20
137.462967
 11
78.153351
 21
136.462967
  0
LINE
  8
0
 10
70.153358
 20
136.462967
 11
70.643372
 21
136.462967
  0
LINE
  8
0
 10
77.759476
 20
136.248184
 11
78.153336
 21
136.463013
  0
LINE
  8
0
 10
70.547211
 20
136.248138
 11
70.153351
 21
136.462967
  0
LINE
  8
0
 10
82.003349
 20
139.262970
 11
82.003349
 21
137.762970
  0
LINE
  8
0
 10
72.253349
 20
122.762970
 11
72.253349
 21
124.762970
  0
LINE
  8
0
 10
80.053352
 20
122.762970
 11
80.053352
 21
124.762970
  0
LINE
  8
0
 10
77.663345
 20
136.462967
 11
78.153358
 21
136.462967
  0
LINE
  8
0
 10
76.967613
 20
137.462967
 11
79.103355
 21
137.462967
  0
LINE
  8
0
 10
72.920486
 20
138.462982
 11
68.003357
 21
138.462982
  0
LINE
  8
0
 10
79.501488
 20
126.762970
 11
80.153358
 21
126.762970
  0
LINE
  8
0
 10
78.645340
 20
127.762970
 11
80.903358
 21
127.762970
  0
LINE
  8
0
 10
78.063835
 20
128.162979
 11
81.253357
 21
128.162979
  0
LINE
  8
0
 10
67.153351
 20
229.262955
 11
83.153351
 21
229.262955
  0
LINE
  8
0
 10
73.153351
 20
229.262955
 11
73.153351
 21
222.662964
  0
LINE
  8
0
 10
73.153351
 20
222.662964
 11
80.653351
 21
222.662964
  0
LINE
  8
0
 10
80.653351
 20
229.262955
 11
80.653351
 21
222.662964
  0
LINE
  8
0
 10
73.153351
 20
222.162964
 11
73.153351
 21
215.662964
  0
LINE
  8
0
 10
73.153351
 20
222.162964
 11
80.653351
 21
222.162964
  0
LINE
  8
0
 10
80.653351
 20
222.162964
 11
80.653351
 21
215.662964
  0
LINE
  8
0
 10
73.153351
 20
215.662964
 11
80.653351
 21
215.662964
  0
LINE
  8
0
 10
69.653351
 20
229.262955
 11
69.653351
 21
215.662964
  0
LINE
  8
0
 10
72.653351
 20
229.262955
 11
72.653351
 21
215.662964
  0
LINE
  8
0
 10
69.653351
 20
215.662964
 11
72.653351
 21
215.662964
  0
LINE
  8
0
 10
69.653351
 20
229.262955
 11
72.653351
 21
229.262955
  0
LINE
  8
0
 10
71.153351
 20
210.412979
 11
74.653351
 21
210.412979
  0
LINE
  8
0
 10
71.153351
 20
212.412964
 11
71.153351
 21
210.412979
  0
LINE
  8
0
 10
71.153351
 20
212.412964
 11
74.653351
 21
212.412964
  0
LINE
  8
0
 10
74.653351
 20
212.412964
 11
74.653351
 21
210.412979
  0
LINE
  8
0
 10
75.653351
 20
210.412979
 11
79.153351
 21
210.412979
  0
LINE
  8
0
 10
75.653351
 20
212.412964
 11
75.653351
 21
210.412979
  0
LINE
  8
0
 10
75.653351
 20
212.412964
 11
79.153351
 21
212.412964
  0
LINE
  8
0
 10
79.153351
 20
212.412964
 11
79.153351
 21
210.412979
  0
LINE
  8
0
 10
69.653351
 20
215.162964
 11
80.653351
 21
215.162964
  0
LINE
  8
0
 10
80.653351
 20
215.162964
 11
80.653351
 21
206.162979
  0
LINE
  8
0
 10
69.653351
 20
215.162964
 11
69.653351
 21
206.162979
  0
LINE
  8
0
 10
69.653351
 20
206.162979
 11
80.653351
 21
206.162979
  0
LINE
  8
0
 10
67.153351
 20
204.262970
 11
83.153351
 21
204.262970
  0
LINE
  8
0
 10
68.153351
 20
194.262970
 11
68.153351
 21
202.262970
  0
LINE
  8
0
 10
82.153351
 20
194.262970
 11
82.153351
 21
202.262970
  0
LINE
  8
0
 10
82.153351
 20
202.262970
 11
77.653351
 21
202.262970
  0
LINE
  8
0
 10
72.653351
 20
199.562973
 11
72.653351
 21
202.262970
  0
LINE
  8
0
 10
77.653351
 20
199.562973
 11
77.653351
 21
202.262970
  0
LINE
  8
0
 10
72.653351
 20
202.262970
 11
68.153351
 21
202.262970
  0
LINE
  8
0
 10
67.653351
 20
232.262955
 11
82.653351
 21
232.262955
  0
LINE
  8
0
 10
82.653351
 20
194.262970
 11
67.653351
 21
194.262970
  0
LINE
  8
0
 10
81.653351
 20
194.762970
 11
68.653351
 21
194.762970
  0
LINE
  8
0
 10
81.653351
 20
201.762970
 11
78.153351
 21
201.762970
  0
LINE
  8
0
 10
68.653351
 20
194.762970
 11
68.653351
 21
201.762970
  0
LINE
  8
0
 10
81.653351
 20
194.762970
 11
81.653351
 21
201.762970
  0
LINE
  8
0
 10
72.153351
 20
199.762970
 11
72.153351
 21
201.762970
  0
LINE
  8
0
 10
78.153351
 20
199.762970
 11
78.153351
 21
201.762970
  0
LINE
  8
0
 10
68.653351
 20
201.762970
 11
72.153351
 21
201.762970
  0
LINE
  8
0
 10
83.153351
 20
184.262970
 11
67.153351
 21
184.262970
  0
LINE
  8
0
 10
83.153351
 20
194.262970
 11
67.153351
 21
194.262970
  0
LINE
  8
0
 10
82.653351
 20
154.262970
 11
67.653351
 21
154.262970
  0
LINE
  8
0
 10
83.153351
 20
147.762970
 11
67.153351
 21
147.762970
  0
LINE
  8
0
 10
67.153351
 20
154.262970
 11
83.153351
 21
154.262970
  0
LINE
  8
0
 10
79.381920
 20
198.023880
 11
78.442223
 21
198.365906
  0
LINE
  8
0
 10
70.924683
 20
198.023849
 11
71.864372
 21
198.365875
  0
LINE
  8
0
 10
73.074860
 20
199.862976
 11
77.231842
 21
199.862976
  0
LINE
  8
0
 10
73.074860
 20
199.262970
 11
77.231842
 21
199.262970
  0
LINE
  8
0
 10
75.453339
 20
197.484512
 11
75.453339
 21
198.462967
  0
LINE
  8
0
 10
74.853363
 20
197.484512
 11
74.853363
 21
198.462967
  0
LINE
  8
0
 10
74.853363
 20
198.462967
 11
75.453339
 21
198.462967
  0
LINE
  8
0
 10
67.153351
 20
237.262970
 11
67.153351
 21
139.262970
  0
LINE
  8
0
 10
83.153351
 20
237.262970
 11
83.153351
 21
139.262970
  0
LINE
  8
0
 10
67.153351
 20
237.262970
 11
83.153351
 21
237.262970
  0
LINE
  8
0
 10
67.153351
 20
139.262970
 11
83.153351
 21
139.262970
  0
LINE
  8
0
 10
71.394524
 20
198.194870
 11
71.692871
 21
196.502823
  0
LINE
  8
0
 10
71.394569
 20
198.194901
 11
72.710739
 21
197.090500
  0
LINE
  8
0
 10
78.912231
 20
198.194855
 11
78.613876
 21
196.502823
  0
LINE
  8
0
 10
78.912102
 20
198.194824
 11
77.595955
 21
197.090439
  0
LINE
  8
0
  6
CENTER
 62
     2
 10
75.153351
 20
239.262970
 11
75.153351
 21
116.434814
  0
LINE
  8
0
 10
-67.496582
 20
139.262970
 11
-67.496582
 21
137.762970
  0
LINE
  8
0
 10
-55.496616
 20
138.462997
 11
-56.396618
 21
137.462997
  0
LINE
  8
0
 10
-66.596581
 20
137.462952
 11
-67.496590
 21
138.462952
  0
LINE
  8
0
 10
-66.596573
 20
137.462967
 11
-56.396576
 21
137.462967
  0
LINE
  8
0
 10
-77.346573
 20
127.762970
 11
-77.346573
 21
122.862976
  0
LINE
  8
0
 10
-69.346573
 20
127.762970
 11
-69.346573
 21
126.762970
  0
LINE
  8
0
 10
-77.346573
 20
126.762970
 11
-69.346573
 21
126.762970
  0
LINE
  8
0
 10
-70.446579
 20
126.162971
 11
-69.346573
 21
126.762978
  0
LINE
  8
0
 10
-76.246574
 20
126.163017
 11
-77.346573
 21
126.763016
  0
LINE
  8
0
 10
-79.496582
 20
139.262970
 11
-79.496582
 21
137.762970
  0
LINE
  8
0
 10
-55.496582
 20
138.462982
 11
-55.496582
 21
139.262970
  0
LINE
  8
0
 10
-55.496582
 20
138.462982
 11
-67.496582
 21
138.462982
  0
LINE
  8
0
 10
-76.246582
 20
126.162979
 11
-76.246582
 21
122.862976
  0
LINE
  8
0
 10
-74.246582
 20
119.762970
 11
-60.746582
 21
119.762970
  0
LINE
  8
0
 10
-67.646576
 20
127.762970
 11
-60.746582
 21
127.762970
  0
LINE
  8
0
 10
-70.446564
 20
126.162979
 11
-76.246567
 21
126.162979
  0
LINE
  8
0
 10
-69.529892
 20
126.662964
 11
-68.146591
 21
126.662964
  0
LINE
  8
0
 10
-74.246582
 20
120.862976
 11
-68.146591
 21
120.862976
  0
LINE
  8
0
 10
-68.146591
 20
126.662964
 11
-68.146591
 21
120.862976
  0
LINE
  8
0
 10
-67.646576
 20
127.762970
 11
-67.646576
 21
119.762970
  0
LINE
  8
0
 10
-60.746582
 20
127.762970
 11
-60.746582
 21
119.762970
  0
LINE
  8
0
 10
-59.946579
 20
127.662979
 11
-59.946579
 21
119.862976
  0
LINE
  8
0
 10
-58.146576
 20
128.662979
 11
-58.146576
 21
118.862976
  0
LINE
  8
0
 10
-59.346573
 20
128.662979
 11
-59.346573
 21
118.862976
  0
LINE
  8
0
 10
-68.146584
 20
120.862999
 11
-67.646576
 21
119.762993
  0
LINE
  8
0
 10
-68.146629
 20
126.662964
 11
-67.646622
 21
127.762970
  0
LINE
  8
0
 10
-60.746582
 20
119.862976
 11
-59.946579
 21
119.862976
  0
LINE
  8
0
 10
-60.746582
 20
127.662964
 11
-59.946579
 21
127.662964
  0
LINE
  8
0
 10
-59.946579
 20
126.262970
 11
-59.346573
 21
126.262970
  0
LINE
  8
0
 10
-59.946579
 20
121.262970
 11
-59.346573
 21
121.262970
  0
LINE
  8
0
 10
-59.346573
 20
128.662964
 11
-58.146576
 21
128.662964
  0
LINE
  8
0
 10
-59.346573
 20
118.862976
 11
-58.146576
 21
118.862976
  0
LINE
  8
0
 10
-79.496582
 20
137.762970
 11
-67.496582
 21
137.762970
  0
LINE
  8
0
 10
-78.096573
 20
127.762970
 11
-68.596573
 21
127.762970
  0
LINE
  8
0
 10
-68.246582
 20
137.762970
 11
-68.246582
 21
128.162964
  0
LINE
  8
0
 10
-78.446579
 20
137.762970
 11
-78.446579
 21
128.162964
  0
LINE
  8
0
 10
-78.446579
 20
128.162964
 11
-68.246582
 21
128.162964
  0
LINE
  8
0
 10
-68.246574
 20
128.162949
 11
-68.596565
 21
127.762962
  0
LINE
  8
0
 10
-78.446602
 20
128.162994
 11
-78.096611
 21
127.763000
  0
LINE
  8
0
 10
-47.946594
 20
131.262970
 11
-47.346588
 21
131.262970
  0
LINE
  8
0
 10
-47.346588
 20
138.662979
 11
-46.146591
 21
138.662979
  0
LINE
  8
0
 10
-47.346588
 20
128.862976
 11
-46.146591
 21
128.862976
  0
LINE
  8
0
 10
-65.346573
 20
137.462967
 11
-65.346573
 21
132.862976
  0
LINE
  8
0
 10
-57.346573
 20
137.462967
 11
-57.346573
 21
136.462967
  0
LINE
  8
0
 10
-65.346573
 20
136.462967
 11
-57.346573
 21
136.462967
  0
LINE
  8
0
 10
-58.446583
 20
135.862961
 11
-57.346588
 21
136.462967
  0
LINE
  8
0
 10
-64.246567
 20
135.862991
 11
-65.346558
 21
136.462997
  0
LINE
  8
0
 10
-64.246582
 20
135.862976
 11
-64.246582
 21
132.862976
  0
LINE
  8
0
 10
-62.246582
 20
129.762970
 11
-48.746597
 21
129.762970
  0
LINE
  8
0
 10
-55.646576
 20
137.762970
 11
-48.746597
 21
137.762970
  0
LINE
  8
0
 10
-58.446564
 20
135.862976
 11
-64.246582
 21
135.862976
  0
LINE
  8
0
 10
-57.346573
 20
136.662979
 11
-56.146591
 21
136.662979
  0
LINE
  8
0
 10
-62.246582
 20
130.862976
 11
-56.146591
 21
130.862976
  0
LINE
  8
0
 10
-56.146591
 20
136.662979
 11
-56.146591
 21
130.862976
  0
LINE
  8
0
 10
-55.646576
 20
137.762970
 11
-55.646576
 21
129.762970
  0
LINE
  8
0
 10
-48.746597
 20
137.762970
 11
-48.746597
 21
129.762970
  0
LINE
  8
0
 10
-47.946594
 20
137.662979
 11
-47.946594
 21
129.862976
  0
LINE
  8
0
 10
-46.146591
 20
138.662979
 11
-46.146591
 21
128.862976
  0
LINE
  8
0
 10
-47.346588
 20
138.662979
 11
-47.346588
 21
128.862976
  0
LINE
  8
0
 10
-56.146580
 20
130.862961
 11
-55.646580
 21
129.762970
  0
LINE
  8
0
 10
-56.146610
 20
136.663010
 11
-55.646614
 21
137.763000
  0
LINE
  8
0
 10
-48.746597
 20
129.862976
 11
-47.946594
 21
129.862976
  0
LINE
  8
0
 10
-48.746597
 20
137.662979
 11
-47.946594
 21
137.662979
  0
LINE
  8
0
 10
-47.946594
 20
136.262970
 11
-47.346588
 21
136.262970
  0
LINE
  8
0
 10
-22.846588
 20
194.262985
 11
-52.846588
 21
194.262985
  0
LINE
  8
0
 10
-22.846588
 20
154.262985
 11
-52.846588
 21
154.262985
  0
LINE
  8
0
 10
-22.846525
 20
232.263046
 11
-18.846523
 21
231.557739
  0
LINE
  8
0
 10
-22.846600
 20
204.263000
 11
-20.931667
 21
204.776108
  0
LINE
  8
0
 10
-22.846588
 20
204.262985
 11
-52.846588
 21
204.262985
  0
LINE
  8
0
 10
-52.846588
 20
229.262985
 11
-18.846588
 21
229.262985
  0
LINE
  8
0
 10
-22.846588
 20
147.762985
 11
-52.846588
 21
147.762985
  0
LINE
  8
0
 10
-22.846588
 20
232.263000
 11
-22.846588
 21
147.762985
  0
LINE
  8
0
 10
-18.846588
 20
231.557693
 11
-18.846588
 21
214.262985
  0
LINE
  8
0
 10
-22.846588
 20
232.262985
 11
-52.346588
 21
232.262985
  0
LINE
  8
0
  6
CENTER
 62
     2
 10
-66.276222
 20
133.762970
 11
-44.146591
 21
133.762970
  0
LINE
  8
0
  6
CENTER
 62
     2
 10
-78.749985
 20
123.762970
 11
-56.146576
 21
123.762970
  0
LINE
  8
0
 10
-52.846588
 20
232.263000
 11
-52.846588
 21
147.762985
  0
LINE
  8
0
 10
-22.846588
 20
184.262985
 11
-52.846588
 21
184.262985
  0
LINE
  8
0
 10
-53.846588
 20
226.962982
 11
-52.846588
 21
226.962982
  0
LINE
  8
0
 10
-53.846588
 20
155.262985
 11
-52.846588
 21
155.262985
  0
LINE
  8
0
 10
72.253342
 20
54.862999
 11
72.253342
 21
55.663002
  0
LINE
  8
0
 10
78.653343
 20
55.663002
 11
78.653343
 21
56.262993
  0
LINE
  8
0
 10
79.553345
 20
47.462990
 11
79.553345
 21
42.263000
  0
LINE
  8
0
 10
72.753342
 20
47.462990
 11
72.753342
 21
42.263000
  0
LINE
  8
0
 10
75.653343
 20
38.395187
 11
75.653343
 21
47.962990
  0
LINE
  8
0
 10
76.653343
 20
38.395187
 11
76.653343
 21
47.962990
  0
LINE
  8
0
 10
80.053345
 20
57.463005
 11
72.253342
 21
57.463005
  0
LINE
  8
0
 10
80.053345
 20
56.262993
 11
72.253342
 21
56.262993
  0
LINE
  8
0
 10
80.153343
 20
47.962990
 11
80.153343
 21
54.862999
  0
LINE
  8
0
 10
79.553352
 20
47.463005
 11
76.653351
 21
47.463005
  0
LINE
  8
0
 10
73.653343
 20
55.663002
 11
73.653343
 21
56.262993
  0
LINE
  8
0
 10
80.153351
 20
54.862999
 11
72.153351
 21
54.862999
  0
LINE
  8
0
 10
75.653351
 20
47.463005
 11
72.753349
 21
47.463005
  0
LINE
  8
0
 10
80.153351
 20
47.963005
 11
72.153351
 21
47.963005
  0
LINE
  8
0
 10
72.153351
 20
47.962978
 11
72.753349
 21
47.462978
  0
LINE
  8
0
 10
79.553352
 20
47.463013
 11
80.153351
 21
47.963013
  0
LINE
  8
0
 10
80.053352
 20
55.663002
 11
72.253349
 21
55.663002
  0
LINE
  8
0
 10
80.053345
 20
54.862999
 11
80.053345
 21
55.663002
  0
LINE
  8
0
 10
72.153343
 20
47.962990
 11
72.153343
 21
54.862999
  0
LINE
  8
0
 10
72.253342
 20
56.262993
 11
72.253342
 21
57.463005
  0
LINE
  8
0
 10
80.053345
 20
56.262993
 11
80.053345
 21
57.463005
  0
LINE
  8
0
 10
73.653343
 20
57.463005
 11
73.653343
 21
59.962990
  0
LINE
  8
0
 10
74.653343
 20
57.463005
 11
74.653343
 21
59.962990
  0
LINE
  8
0
 10
77.553345
 20
59.462990
 11
77.553345
 21
57.463005
  0
LINE
  8
0
 10
70.753342
 20
59.462990
 11
70.753342
 21
54.263000
  0
LINE
  8
0
 10
73.653351
 20
59.463005
 11
70.753349
 21
59.463005
  0
LINE
  8
0
 10
77.553352
 20
59.463005
 11
74.653351
 21
59.463005
  0
LINE
  8
0
 10
78.153351
 20
59.963005
 11
70.153351
 21
59.963005
  0
LINE
  8
0
 10
77.553329
 20
59.463017
 11
78.153313
 21
59.963005
  0
LINE
  8
0
 10
70.153336
 20
59.962986
 11
70.753342
 21
59.462978
  0
LINE
  8
0
 10
78.153343
 20
59.962990
 11
78.153343
 21
66.862999
  0
LINE
  8
0
 10
70.153343
 20
59.962990
 11
70.153343
 21
66.862999
  0
LINE
  8
0
 10
78.153351
 20
66.862999
 11
70.153351
 21
66.862999
  0
LINE
  8
0
 10
70.253342
 20
66.862999
 11
70.253342
 21
67.662987
  0
LINE
  8
0
 10
78.053352
 20
67.663002
 11
70.253349
 21
67.663002
  0
LINE
  8
0
 10
78.053345
 20
66.862999
 11
78.053345
 21
67.662987
  0
LINE
  8
0
 10
76.653343
 20
67.662987
 11
76.653343
 21
68.262993
  0
LINE
  8
0
 10
78.053345
 20
68.262993
 11
70.253342
 21
68.262993
  0
LINE
  8
0
 10
71.653343
 20
67.662987
 11
71.653343
 21
68.262993
  0
LINE
  8
0
 10
70.253342
 20
68.262993
 11
70.253342
 21
69.462990
  0
LINE
  8
0
 10
78.053345
 20
69.462990
 11
70.253342
 21
69.462990
  0
LINE
  8
0
 10
78.053345
 20
68.262993
 11
78.053345
 21
69.462990
  0
LINE
  8
0
 10
83.153351
 20
61.763000
 11
78.153343
 21
61.763000
  0
LINE
  8
0
 10
67.153351
 20
34.763000
 11
67.153351
 21
61.763000
  0
LINE
  8
0
 10
83.153351
 20
34.763000
 11
83.153351
 21
61.763000
  0
LINE
  8
0
 10
67.153351
 20
34.763000
 11
83.153351
 21
34.763000
  0
LINE
  8
0
  6
CENTER
 62
     2
 10
74.153351
 20
71.462990
 11
74.153351
 21
62.763000
  0
LINE
  8
0
  6
CENTER
 62
     2
 10
76.153351
 20
59.463005
 11
76.153351
 21
49.861137
  0
LINE
  8
0
 10
70.153343
 20
61.763000
 11
67.153351
 21
61.763000
  0
LINE
  8
0
 10
67.653351
 20
92.763000
 11
67.653351
 21
61.763000
  0
LINE
  8
0
 10
82.653351
 20
92.763000
 11
82.653351
 21
61.763000
  0
LINE
  8
0
 10
67.653351
 20
92.763000
 11
82.653351
 21
92.763000
  0
LINE
  8
0
 10
67.653275
 20
92.763000
 11
68.285728
 21
96.349838
  0
LINE
  8
0
 10
82.653275
 20
92.762985
 11
82.020821
 21
96.349800
  0
LINE
  8
0
 10
81.528473
 20
96.763000
 11
68.778229
 21
96.763000
  0
LINE
  8
0
 10
68.358673
 20
94.919495
 11
81.948029
 21
94.919495
  0
LINE
  8
0
 10
69.653351
 20
95.448441
 11
69.653351
 21
96.763000
  0
LINE
  8
0
 10
80.653351
 20
95.448441
 11
80.653351
 21
96.763000
  0
LINE
  8
0
 10
68.358673
 20
94.919479
 11
68.358673
 21
96.534988
  0
LINE
  8
0
 10
81.948029
 20
94.919479
 11
81.948029
 21
96.534958
  0
LINE
  8
0
 10
69.653351
 20
95.448441
 11
80.653351
 21
95.448441
  0
LINE
  8
0
 10
67.653236
 20
92.763000
 11
68.358536
 21
94.919487
  0
LINE
  8
0
 10
82.653351
 20
92.763016
 11
81.948074
 21
94.919510
  0
LINE
  8
0
 10
67.653351
 20
62.763000
 11
70.153343
 21
62.763000
  0
LINE
  8
0
 10
78.153343
 20
62.763000
 11
82.653351
 21
62.763000
  0
LINE
  8
0
  6
CENTER
 62
     2
 10
75.153351
 20
98.763000
 11
75.153351
 21
32.763000
  0
LINE
  8
0
  6
CENTER
 62
     2
 10
334.603333
 20
132.762985
 11
346.403320
 21
132.762985
  0
LINE
  8
0
  6
CENTER
 62
     2
 10
340.503326
 20
141.262970
 11
340.503326
 21
126.762985
  0
LINE
  8
0
 10
334.353333
 20
139.262970
 11
334.353333
 21
138.462982
  0
LINE
  8
0
 10
346.353363
 20
138.462982
 11
345.453369
 21
137.462982
  0
LINE
  8
0
 10
335.253357
 20
137.462997
 11
334.353363
 21
138.462982
  0
LINE
  8
0
 10
336.603333
 20
131.762985
 11
336.603333
 21
133.762985
  0
LINE
  8
0
 10
344.403320
 20
131.762985
 11
344.403320
 21
133.762985
  0
LINE
  8
0
 10
335.253326
 20
137.462967
 11
339.270386
 21
137.462967
  0
LINE
  8
0
 10
338.503326
 20
124.762985
 11
338.503326
 21
123.763031
  0
LINE
  8
0
 10
346.503326
 20
124.762985
 11
346.503326
 21
123.762985
  0
LINE
  8
0
 10
338.503326
 20
123.762985
 11
339.155182
 21
123.762985
  0
LINE
  8
0
 10
346.000671
 20
123.488853
 11
346.503326
 21
123.763031
  0
LINE
  8
0
 10
339.005951
 20
123.488808
 11
338.503296
 21
123.762985
  0
LINE
  8
0
  6
CENTER
 62
     2
 10
342.503326
 20
141.262970
 11
342.503326
 21
114.762985
  0
LINE
  8
0
 10
346.353333
 20
138.462982
 11
346.353333
 21
139.262970
  0
LINE
  8
0
  6
CENTER
 62
     2
 10
336.603333
 20
120.762985
 11
348.403320
 21
120.762985
  0
LINE
  8
0
 10
345.723328
 20
137.762970
 11
348.353333
 21
137.762970
  0
LINE
  8
0
 10
337.753326
 20
124.762985
 11
340.011353
 21
124.762985
  0
LINE
  8
0
 10
347.603333
 20
137.762970
 11
347.603333
 21
125.162994
  0
LINE
  8
0
 10
337.403320
 20
129.396561
 11
337.403320
 21
125.162994
  0
LINE
  8
0
 10
337.403320
 20
125.162994
 11
340.592834
 21
125.162994
  0
LINE
  8
0
 10
347.603333
 20
125.162987
 11
347.253357
 21
124.763000
  0
LINE
  8
0
 10
337.403290
 20
125.162979
 11
337.753296
 21
124.762978
  0
LINE
  8
0
 10
336.503326
 20
137.462967
 11
336.503326
 21
135.462982
  0
LINE
  8
0
 10
344.503326
 20
137.462967
 11
344.503326
 21
135.462982
  0
LINE
  8
0
 10
336.503326
 20
135.462982
 11
336.993347
 21
135.462982
  0
LINE
  8
0
 10
344.109436
 20
135.248199
 11
344.503296
 21
135.463028
  0
LINE
  8
0
 10
336.897156
 20
135.248154
 11
336.503296
 21
135.462982
  0
LINE
  8
0
 10
348.353333
 20
139.262970
 11
348.353333
 21
137.762970
  0
LINE
  8
0
 10
338.603333
 20
119.762985
 11
338.603333
 21
121.762985
  0
LINE
  8
0
 10
346.403320
 20
119.762985
 11
346.403320
 21
121.762985
  0
LINE
  8
0
 10
344.013306
 20
135.462982
 11
344.503326
 21
135.462982
  0
LINE
  8
0
 10
341.736267
 20
137.462967
 11
345.453339
 21
137.462967
  0
LINE
  8
0
 10
346.353333
 20
138.462982
 11
334.353333
 21
138.462982
  0
LINE
  8
0
 10
345.851471
 20
123.762985
 11
346.503326
 21
123.762985
  0
LINE
  8
0
 10
344.995300
 20
124.762985
 11
347.253326
 21
124.762985
  0
LINE
  8
0
 10
344.413818
 20
125.162994
 11
347.603333
 21
125.162994
  0
LINE
  8
0
 10
333.503326
 20
229.262955
 11
349.503326
 21
229.262955
  0
LINE
  8
0
 10
339.503326
 20
229.262955
 11
339.503326
 21
222.662964
  0
LINE
  8
0
 10
339.503326
 20
222.662964
 11
347.003326
 21
222.662964
  0
LINE
  8
0
 10
347.003326
 20
229.262955
 11
347.003326
 21
222.662964
  0
LINE
  8
0
 10
339.503326
 20
222.162964
 11
339.503326
 21
215.662964
  0
LINE
  8
0
 10
339.503326
 20
222.162964
 11
347.003326
 21
222.162964
  0
LINE
  8
0
 10
347.003326
 20
222.162964
 11
347.003326
 21
215.662964
  0
LINE
  8
0
 10
339.503326
 20
215.662964
 11
347.003326
 21
215.662964
  0
LINE
  8
0
 10
336.003326
 20
229.262955
 11
336.003326
 21
215.662964
  0
LINE
  8
0
 10
339.003326
 20
229.262955
 11
339.003326
 21
215.662964
  0
LINE
  8
0
 10
336.003326
 20
215.662964
 11
339.003326
 21
215.662964
  0
LINE
  8
0
 10
336.003326
 20
229.262955
 11
339.003326
 21
229.262955
  0
LINE
  8
0
 10
337.503326
 20
210.412979
 11
341.003326
 21
210.412979
  0
LINE
  8
0
 10
337.503326
 20
212.412964
 11
337.503326
 21
210.412979
  0
LINE
  8
0
 10
337.503326
 20
212.412964
 11
341.003326
 21
212.412964
  0
LINE
  8
0
 10
341.003326
 20
212.412964
 11
341.003326
 21
210.412979
  0
LINE
  8
0
 10
342.003326
 20
210.412979
 11
345.503326
 21
210.412979
  0
LINE
  8
0
 10
342.003326
 20
212.412964
 11
342.003326
 21
210.412979
  0
LINE
  8
0
 10
342.003326
 20
212.412964
 11
345.503326
 21
212.412964
  0
LINE
  8
0
 10
345.503326
 20
212.412964
 11
345.503326
 21
210.412979
  0
LINE
  8
0
 10
336.003326
 20
215.162964
 11
347.003326
 21
215.162964
  0
LINE
  8
0
 10
347.003326
 20
215.162964
 11
347.003326
 21
206.162979
  0
LINE
  8
0
 10
336.003326
 20
215.162964
 11
336.003326
 21
206.162979
  0
LINE
  8
0
 10
336.003326
 20
206.162979
 11
347.003326
 21
206.162979
  0
LINE
  8
0
 10
333.503326
 20
204.262970
 11
349.503326
 21
204.262970
  0
LINE
  8
0
 10
334.503326
 20
194.262970
 11
334.503326
 21
202.262970
  0
LINE
  8
0
 10
348.503326
 20
194.262970
 11
348.503326
 21
202.262970
  0
LINE
  8
0
 10
348.503326
 20
202.262970
 11
344.003326
 21
202.262970
  0
LINE
  8
0
 10
339.003326
 20
199.562973
 11
339.003326
 21
202.262970
  0
LINE
  8
0
 10
344.003326
 20
199.562973
 11
344.003326
 21
202.262970
  0
LINE
  8
0
 10
339.003326
 20
202.262970
 11
334.503326
 21
202.262970
  0
LINE
  8
0
 10
334.003326
 20
232.262955
 11
349.003326
 21
232.262955
  0
LINE
  8
0
 10
349.003326
 20
194.262970
 11
334.003326
 21
194.262970
  0
LINE
  8
0
 10
348.003326
 20
194.762970
 11
335.003326
 21
194.762970
  0
LINE
  8
0
 10
348.003326
 20
201.762970
 11
344.503326
 21
201.762970
  0
LINE
  8
0
 10
335.003326
 20
194.762970
 11
335.003326
 21
201.762970
  0
LINE
  8
0
 10
348.003326
 20
194.762970
 11
348.003326
 21
201.762970
  0
LINE
  8
0
 10
338.503326
 20
199.762970
 11
338.503326
 21
201.762970
  0
LINE
  8
0
 10
344.503326
 20
199.762970
 11
344.503326
 21
201.762970
  0
LINE
  8
0
 10
335.003326
 20
201.762970
 11
338.503326
 21
201.762970
  0
LINE
  8
0
 10
349.503326
 20
184.262970
 11
333.503326
 21
184.262970
  0
LINE
  8
0
 10
349.503326
 20
194.262970
 11
333.503326
 21
194.262970
  0
LINE
  8
0
 10
349.003326
 20
154.262970
 11
334.003326
 21
154.262970
  0
LINE
  8
0
 10
349.503326
 20
147.762970
 11
333.503326
 21
147.762970
  0
LINE
  8
0
 10
333.503326
 20
154.262970
 11
349.503326
 21
154.262970
  0
LINE
  8
0
 10
345.731873
 20
198.023895
 11
344.792175
 21
198.365906
  0
LINE
  8
0
 10
337.274658
 20
198.023849
 11
338.214355
 21
198.365860
  0
LINE
  8
0
 10
339.424835
 20
199.862976
 11
343.581818
 21
199.862976
  0
LINE
  8
0
 10
339.424835
 20
199.262970
 11
343.581818
 21
199.262970
  0
LINE
  8
0
 10
341.803314
 20
197.484512
 11
341.803314
 21
198.462967
  0
LINE
  8
0
 10
341.203339
 20
197.484512
 11
341.203339
 21
198.462967
  0
LINE
  8
0
 10
341.203339
 20
198.462967
 11
341.803314
 21
198.462967
  0
LINE
  8
0
 10
333.503326
 20
237.262970
 11
333.503326
 21
139.262970
  0
LINE
  8
0
 10
349.503326
 20
237.262970
 11
349.503326
 21
139.262970
  0
LINE
  8
0
 10
333.503326
 20
237.262970
 11
349.503326
 21
237.262970
  0
LINE
  8
0
 10
333.503326
 20
139.262970
 11
349.503326
 21
139.262970
  0
LINE
  8
0
 10
337.744507
 20
198.194855
 11
338.042847
 21
196.502823
  0
LINE
  8
0
 10
337.744568
 20
198.194901
 11
339.060730
 21
197.090500
  0
LINE
  8
0
 10
345.262177
 20
198.194855
 11
344.963837
 21
196.502823
  0
LINE
  8
0
 10
345.262054
 20
198.194809
 11
343.945892
 21
197.090424
  0
LINE
  8
0
  6
CENTER
 62
     2
 10
341.503326
 20
239.262970
 11
341.503326
 21
114.369339
  0
LINE
  8
0
 10
198.853394
 20
139.262970
 11
198.853394
 21
137.762970
  0
LINE
  8
0
 10
210.853378
 20
138.462997
 11
209.953369
 21
137.462997
  0
LINE
  8
0
 10
199.753403
 20
137.462967
 11
198.853394
 21
138.462967
  0
LINE
  8
0
 10
199.753403
 20
137.462967
 11
209.953400
 21
137.462967
  0
LINE
  8
0
 10
189.003403
 20
124.762985
 11
189.003403
 21
119.862991
  0
LINE
  8
0
 10
197.003403
 20
124.762985
 11
197.003403
 21
123.762985
  0
LINE
  8
0
 10
189.003403
 20
123.762985
 11
197.003403
 21
123.762985
  0
LINE
  8
0
 10
195.903397
 20
123.162987
 11
197.003387
 21
123.762985
  0
LINE
  8
0
 10
190.103394
 20
123.163033
 11
189.003403
 21
123.763031
  0
LINE
  8
0
 10
186.853394
 20
139.262970
 11
186.853394
 21
137.762970
  0
LINE
  8
0
 10
210.853394
 20
138.462982
 11
210.853394
 21
139.262970
  0
LINE
  8
0
 10
210.853394
 20
138.462982
 11
198.853394
 21
138.462982
  0
LINE
  8
0
 10
190.103394
 20
123.162994
 11
190.103394
 21
119.862991
  0
LINE
  8
0
 10
199.753357
 20
124.763008
 11
206.653381
 21
124.763008
  0
LINE
  8
0
 10
195.903412
 20
123.162994
 11
190.103409
 21
123.162994
  0
LINE
  8
0
 10
196.820084
 20
123.662979
 11
199.253372
 21
123.661438
  0
LINE
  8
0
 10
199.253372
 20
123.661446
 11
199.253372
 21
117.864563
  0
LINE
  8
0
 10
199.753403
 20
124.763008
 11
199.753403
 21
116.763000
  0
LINE
  8
0
 10
206.653381
 20
124.763008
 11
206.653381
 21
116.763000
  0
LINE
  8
0
 10
207.453384
 20
124.661446
 11
207.453384
 21
116.864563
  0
LINE
  8
0
 10
209.253387
 20
125.661446
 11
209.253387
 21
115.864563
  0
LINE
  8
0
 10
208.053391
 20
125.661446
 11
208.053391
 21
115.864563
  0
LINE
  8
0
 10
199.256302
 20
117.857994
 11
199.755768
 21
116.759155
  0
LINE
  8
0
 10
199.248596
 20
123.663101
 11
199.749680
 21
124.765495
  0
LINE
  8
0
 10
206.653381
 20
116.860657
 11
207.453384
 21
116.860657
  0
LINE
  8
0
 10
206.653381
 20
124.661446
 11
207.453384
 21
124.661446
  0
LINE
  8
0
 10
207.453384
 20
123.263008
 11
208.053391
 21
123.263008
  0
LINE
  8
0
 10
207.453384
 20
118.263000
 11
208.053391
 21
118.263000
  0
LINE
  8
0
 10
208.053391
 20
125.661446
 11
209.253387
 21
125.661446
  0
LINE
  8
0
 10
208.053391
 20
115.860657
 11
209.253387
 21
115.860657
  0
LINE
  8
0
 10
186.853394
 20
137.762970
 11
198.853394
 21
137.762970
  0
LINE
  8
0
 10
188.253403
 20
124.762985
 11
197.753403
 21
124.762985
  0
LINE
  8
0
 10
198.103394
 20
137.762970
 11
198.103394
 21
125.162979
  0
LINE
  8
0
 10
187.903397
 20
137.762970
 11
187.903397
 21
125.162979
  0
LINE
  8
0
 10
187.903397
 20
125.162979
 11
198.103394
 21
125.162979
  0
LINE
  8
0
 10
198.103378
 20
125.162956
 11
197.753387
 21
124.762970
  0
LINE
  8
0
 10
187.903381
 20
125.163010
 11
188.253372
 21
124.763016
  0
LINE
  8
0
 10
219.453400
 20
130.262985
 11
220.053406
 21
130.262985
  0
LINE
  8
0
 10
220.053406
 20
137.662994
 11
221.253403
 21
137.662994
  0
LINE
  8
0
 10
220.053406
 20
127.862991
 11
221.253403
 21
127.862991
  0
LINE
  8
0
 10
201.003403
 20
137.462967
 11
201.003403
 21
131.862991
  0
LINE
  8
0
 10
209.003403
 20
137.462967
 11
209.003403
 21
135.462982
  0
LINE
  8
0
 10
201.003403
 20
135.462982
 11
209.003403
 21
135.462982
  0
LINE
  8
0
 10
207.903412
 20
134.862976
 11
209.003403
 21
135.462982
  0
LINE
  8
0
 10
202.103409
 20
134.863007
 11
201.003418
 21
135.463013
  0
LINE
  8
0
 10
202.103394
 20
134.862991
 11
202.103394
 21
131.862991
  0
LINE
  8
0
 10
204.103394
 20
128.762985
 11
218.653397
 21
128.762985
  0
LINE
  8
0
 10
211.753418
 20
136.762985
 11
218.653397
 21
136.762985
  0
LINE
  8
0
 10
207.903412
 20
134.862991
 11
202.103394
 21
134.862991
  0
LINE
  8
0
 10
209.003403
 20
135.662994
 11
211.253403
 21
135.662994
  0
LINE
  8
0
 10
204.103394
 20
129.862991
 11
211.253403
 21
129.862991
  0
LINE
  8
0
 10
211.253403
 20
135.662994
 11
211.253403
 21
129.862991
  0
LINE
  8
0
 10
211.753418
 20
136.762985
 11
211.753418
 21
128.762985
  0
LINE
  8
0
 10
218.653397
 20
136.762985
 11
218.653397
 21
128.762985
  0
LINE
  8
0
 10
219.453400
 20
136.662994
 11
219.453400
 21
128.862991
  0
LINE
  8
0
 10
221.253403
 20
137.662994
 11
221.253403
 21
127.862991
  0
LINE
  8
0
 10
220.053406
 20
137.662994
 11
220.053406
 21
127.862991
  0
LINE
  8
0
 10
211.253403
 20
129.862976
 11
211.753403
 21
128.762985
  0
LINE
  8
0
 10
211.253387
 20
135.663025
 11
211.753387
 21
136.763016
  0
LINE
  8
0
 10
218.653397
 20
128.862991
 11
219.453400
 21
128.862991
  0
LINE
  8
0
 10
218.653397
 20
136.662994
 11
219.453400
 21
136.662994
  0
LINE
  8
0
 10
219.453400
 20
135.262985
 11
220.053406
 21
135.262985
  0
LINE
  8
0
 10
243.503387
 20
194.262985
 11
213.503387
 21
194.262985
  0
LINE
  8
0
 10
243.503387
 20
154.262985
 11
213.503387
 21
154.262985
  0
LINE
  8
0
 10
243.503387
 20
184.262985
 11
213.503387
 21
184.262985
  0
LINE
  8
0
 10
243.503448
 20
232.263062
 11
247.503448
 21
231.557755
  0
LINE
  8
0
 10
243.503372
 20
204.263016
 11
245.418304
 21
204.776108
  0
LINE
  8
0
 10
243.503387
 20
204.262985
 11
213.503387
 21
204.262985
  0
LINE
  8
0
 10
213.503387
 20
229.262985
 11
247.503387
 21
229.262985
  0
LINE
  8
0
 10
243.503387
 20
147.762985
 11
213.503387
 21
147.762985
  0
LINE
  8
0
 10
243.503387
 20
232.263000
 11
243.503387
 21
147.762985
  0
LINE
  8
0
 10
247.503387
 20
231.557693
 11
247.503387
 21
214.262985
  0
LINE
  8
0
 10
243.503387
 20
232.262985
 11
214.003387
 21
232.262985
  0
LINE
  8
0
 10
192.103394
 20
117.862991
 11
199.253372
 21
117.862991
  0
LINE
  8
0
 10
192.103394
 20
116.762985
 11
206.653381
 21
116.762985
  0
LINE
  8
0
  6
CENTER
 62
     2
 10
199.958298
 20
132.762970
 11
223.253403
 21
132.762970
  0
LINE
  8
0
  6
CENTER
 62
     2
 10
187.482819
 20
120.762970
 11
211.253387
 21
120.762970
  0
LINE
  8
0
 10
213.503387
 20
231.762985
 11
213.503387
 21
147.762985
  0
LINE
  8
0
 10
212.503387
 20
226.962982
 11
213.503387
 21
226.962982
  0
LINE
  8
0
 10
212.503387
 20
155.262985
 11
213.503387
 21
155.262985
  0
LINE
  8
0
 10
338.603333
 20
55.912994
 11
338.603333
 21
56.712997
  0
LINE
  8
0
 10
345.003326
 20
56.712997
 11
345.003326
 21
57.312988
  0
LINE
  8
0
 10
345.903320
 20
48.512985
 11
345.903320
 21
42.263000
  0
LINE
  8
0
 10
339.103333
 20
48.512985
 11
339.103333
 21
42.263000
  0
LINE
  8
0
 10
342.003326
 20
38.395187
 11
342.003326
 21
49.012985
  0
LINE
  8
0
 10
343.003326
 20
38.395187
 11
343.003326
 21
49.012985
  0
LINE
  8
0
 10
346.403320
 20
58.513000
 11
338.603333
 21
58.513000
  0
LINE
  8
0
 10
346.403320
 20
57.312988
 11
338.603333
 21
57.312988
  0
LINE
  8
0
 10
346.503326
 20
49.012985
 11
346.503326
 21
55.912994
  0
LINE
  8
0
 10
345.903320
 20
48.513000
 11
343.003326
 21
48.513000
  0
LINE
  8
0
 10
340.003326
 20
56.712997
 11
340.003326
 21
57.312988
  0
LINE
  8
0
 10
346.503326
 20
55.912994
 11
338.503326
 21
55.912994
  0
LINE
  8
0
 10
342.003326
 20
48.513000
 11
339.103333
 21
48.513000
  0
LINE
  8
0
 10
346.503326
 20
49.013000
 11
338.503326
 21
49.013000
  0
LINE
  8
0
 10
338.503357
 20
49.012978
 11
339.103333
 21
48.512978
  0
LINE
  8
0
 10
345.903320
 20
48.512997
 11
346.503357
 21
49.013004
  0
LINE
  8
0
 10
346.403320
 20
56.712997
 11
338.603333
 21
56.712997
  0
LINE
  8
0
 10
346.403320
 20
55.912994
 11
346.403320
 21
56.712997
  0
LINE
  8
0
 10
338.503326
 20
49.012985
 11
338.503326
 21
55.912994
  0
LINE
  8
0
 10
338.603333
 20
57.312988
 11
338.603333
 21
58.513000
  0
LINE
  8
0
 10
346.403320
 20
57.312988
 11
346.403320
 21
58.513000
  0
LINE
  8
0
 10
340.003326
 20
58.513000
 11
340.003326
 21
61.013000
  0
LINE
  8
0
 10
341.003326
 20
58.513000
 11
341.003326
 21
61.013000
  0
LINE
  8
0
 10
343.903320
 20
60.513000
 11
343.903320
 21
58.513000
  0
LINE
  8
0
 10
337.103333
 20
60.513000
 11
337.103333
 21
54.263000
  0
LINE
  8
0
 10
340.003326
 20
60.513016
 11
337.103333
 21
60.513016
  0
LINE
  8
0
 10
343.903320
 20
60.513016
 11
341.003326
 21
60.513016
  0
LINE
  8
0
 10
344.503326
 20
61.013016
 11
336.503326
 21
61.013016
  0
LINE
  8
0
 10
343.903320
 20
60.513023
 11
344.503296
 21
61.013012
  0
LINE
  8
0
 10
336.503326
 20
61.013008
 11
337.103333
 21
60.513000
  0
LINE
  8
0
 10
344.503326
 20
61.013000
 11
344.503326
 21
67.913010
  0
LINE
  8
0
 10
336.503326
 20
61.013000
 11
336.503326
 21
67.913010
  0
LINE
  8
0
 10
344.503326
 20
67.913010
 11
336.503326
 21
67.913010
  0
LINE
  8
0
 10
336.603333
 20
67.913010
 11
336.603333
 21
68.712997
  0
LINE
  8
0
 10
344.403320
 20
68.713013
 11
336.603333
 21
68.713013
  0
LINE
  8
0
 10
344.403320
 20
67.913010
 11
344.403320
 21
68.712997
  0
LINE
  8
0
 10
343.003326
 20
68.712997
 11
343.003326
 21
69.313004
  0
LINE
  8
0
 10
344.403320
 20
69.313004
 11
336.603333
 21
69.313004
  0
LINE
  8
0
 10
338.003326
 20
68.712997
 11
338.003326
 21
69.313004
  0
LINE
  8
0
 10
336.603333
 20
69.313004
 11
336.603333
 21
70.513000
  0
LINE
  8
0
 10
344.403320
 20
70.513000
 11
336.603333
 21
70.513000
  0
LINE
  8
0
 10
344.403320
 20
69.313004
 11
344.403320
 21
70.513000
  0
LINE
  8
0
 10
349.503326
 20
61.763000
 11
344.503326
 21
61.763000
  0
LINE
  8
0
 10
333.503326
 20
34.763000
 11
333.503326
 21
61.763000
  0
LINE
  8
0
 10
349.503326
 20
34.763000
 11
349.503326
 21
61.763000
  0
LINE
  8
0
 10
333.503326
 20
34.763000
 11
349.503326
 21
34.763000
  0
LINE
  8
0
  6
CENTER
 62
     2
 10
340.503326
 20
71.340424
 11
340.503326
 21
48.459976
  0
LINE
  8
0
  6
CENTER
 62
     2
 10
342.503326
 20
59.147842
 11
342.503326
 21
36.648773
  0
LINE
  8
0
 10
336.503326
 20
61.763000
 11
333.503326
 21
61.763000
  0
LINE
  8
0
 10
334.003326
 20
92.763000
 11
334.003326
 21
61.763000
  0
LINE
  8
0
 10
349.003326
 20
92.763000
 11
349.003326
 21
61.763000
  0
LINE
  8
0
 10
334.003326
 20
92.763000
 11
349.003326
 21
92.763000
  0
LINE
  8
0
 10
334.003265
 20
92.762993
 11
334.635712
 21
96.349838
  0
LINE
  8
0
 10
349.003265
 20
92.762985
 11
348.370819
 21
96.349808
  0
LINE
  8
0
 10
347.878448
 20
96.763000
 11
335.128204
 21
96.763000
  0
LINE
  8
0
 10
334.708649
 20
94.919495
 11
348.298004
 21
94.919495
  0
LINE
  8
0
 10
336.003326
 20
95.448441
 11
336.003326
 21
96.763000
  0
LINE
  8
0
 10
347.003326
 20
95.448441
 11
347.003326
 21
96.763000
  0
LINE
  8
0
 10
334.708649
 20
94.919479
 11
334.708649
 21
96.534988
  0
LINE
  8
0
 10
348.298004
 20
94.919479
 11
348.298004
 21
96.534958
  0
LINE
  8
0
 10
336.003326
 20
95.448441
 11
347.003326
 21
95.448441
  0
LINE
  8
0
 10
334.003204
 20
92.763000
 11
334.708496
 21
94.919487
  0
LINE
  8
0
 10
349.003326
 20
92.763023
 11
348.298035
 21
94.919510
  0
LINE
  8
0
 10
334.003326
 20
62.763000
 11
336.503326
 21
62.763000
  0
LINE
  8
0
 10
344.503326
 20
62.763000
 11
349.003326
 21
62.763000
  0
LINE
  8
0
  6
CENTER
 62
     2
 10
341.503326
 20
98.763000
 11
341.503326
 21
32.763000
  0
LINE
  8
0
 10
-199.196594
 20
-32.237030
 11
-183.196594
 21
-32.237030
  0
LINE
  8
0
 10
-193.196594
 20
-32.237030
 11
-193.196594
 21
-38.837021
  0
LINE
  8
0
 10
-193.196594
 20
-38.837021
 11
-185.696594
 21
-38.837021
  0
LINE
  8
0
 10
-185.696594
 20
-32.237030
 11
-185.696594
 21
-38.837021
  0
LINE
  8
0
 10
-193.196594
 20
-39.337021
 11
-193.196594
 21
-45.837021
  0
LINE
  8
0
 10
-193.196594
 20
-39.337021
 11
-185.696594
 21
-39.337021
  0
LINE
  8
0
 10
-185.696594
 20
-39.337021
 11
-185.696594
 21
-45.837021
  0
LINE
  8
0
 10
-193.196594
 20
-45.837021
 11
-185.696594
 21
-45.837021
  0
LINE
  8
0
 10
-196.696594
 20
-32.237030
 11
-196.696594
 21
-45.837021
  0
LINE
  8
0
 10
-193.696594
 20
-32.237030
 11
-193.696594
 21
-45.837021
  0
LINE
  8
0
 10
-196.696594
 20
-45.837021
 11
-193.696594
 21
-45.837021
  0
LINE
  8
0
 10
-196.696594
 20
-32.237030
 11
-193.696594
 21
-32.237030
  0
LINE
  8
0
 10
-195.196594
 20
-51.087006
 11
-191.696594
 21
-51.087006
  0
LINE
  8
0
 10
-195.196594
 20
-49.087021
 11
-195.196594
 21
-51.087006
  0
LINE
  8
0
 10
-195.196594
 20
-49.087021
 11
-191.696594
 21
-49.087021
  0
LINE
  8
0
 10
-191.696594
 20
-49.087021
 11
-191.696594
 21
-51.087006
  0
LINE
  8
0
 10
-190.696594
 20
-51.087006
 11
-187.196594
 21
-51.087006
  0
LINE
  8
0
 10
-190.696594
 20
-49.087021
 11
-190.696594
 21
-51.087006
  0
LINE
  8
0
 10
-190.696594
 20
-49.087021
 11
-187.196594
 21
-49.087021
  0
LINE
  8
0
 10
-187.196594
 20
-49.087021
 11
-187.196594
 21
-51.087006
  0
LINE
  8
0
 10
-196.696594
 20
-46.337021
 11
-185.696594
 21
-46.337021
  0
LINE
  8
0
 10
-185.696594
 20
-46.337021
 11
-185.696594
 21
-55.337006
  0
LINE
  8
0
 10
-196.696594
 20
-46.337021
 11
-196.696594
 21
-55.337006
  0
LINE
  8
0
 10
-196.696594
 20
-55.337006
 11
-185.696594
 21
-55.337006
  0
LINE
  8
0
 10
-199.196594
 20
-57.237015
 11
-183.196594
 21
-57.237015
  0
LINE
  8
0
 10
-198.196594
 20
-67.237015
 11
-198.196594
 21
-59.237015
  0
LINE
  8
0
 10
-184.196594
 20
-67.237015
 11
-184.196594
 21
-59.237015
  0
LINE
  8
0
 10
-184.196594
 20
-59.237015
 11
-188.696594
 21
-59.237015
  0
LINE
  8
0
 10
-193.696594
 20
-61.937012
 11
-193.696594
 21
-59.237015
  0
LINE
  8
0
 10
-188.696594
 20
-61.937012
 11
-188.696594
 21
-59.237015
  0
LINE
  8
0
 10
-193.696594
 20
-59.237015
 11
-198.196594
 21
-59.237015
  0
LINE
  8
0
 10
-198.696594
 20
-29.237030
 11
-183.696594
 21
-29.237030
  0
LINE
  8
0
 10
-183.696594
 20
-67.237015
 11
-198.696594
 21
-67.237015
  0
LINE
  8
0
 10
-184.696594
 20
-66.737015
 11
-197.696594
 21
-66.737015
  0
LINE
  8
0
 10
-184.696594
 20
-59.737015
 11
-188.196594
 21
-59.737015
  0
LINE
  8
0
 10
-197.696594
 20
-66.737015
 11
-197.696594
 21
-59.737015
  0
LINE
  8
0
 10
-184.696594
 20
-66.737015
 11
-184.696594
 21
-59.737015
  0
LINE
  8
0
 10
-194.196594
 20
-61.737015
 11
-194.196594
 21
-59.737015
  0
LINE
  8
0
 10
-188.196594
 20
-61.737015
 11
-188.196594
 21
-59.737015
  0
LINE
  8
0
 10
-197.696594
 20
-59.737015
 11
-194.196594
 21
-59.737015
  0
LINE
  8
0
 10
-183.196594
 20
-77.237015
 11
-199.196594
 21
-77.237015
  0
LINE
  8
0
 10
-183.196594
 20
-67.237015
 11
-199.196594
 21
-67.237015
  0
LINE
  8
0
 10
-183.696594
 20
-107.237015
 11
-198.696594
 21
-107.237015
  0
LINE
  8
0
 10
-183.196594
 20
-113.737015
 11
-199.196594
 21
-113.737015
  0
LINE
  8
0
 10
-199.196594
 20
-107.237015
 11
-183.196594
 21
-107.237015
  0
LINE
  8
0
 10
-186.968018
 20
-63.476097
 11
-187.907715
 21
-63.134075
  0
LINE
  8
0
 10
-195.425262
 20
-63.476135
 11
-194.485565
 21
-63.134117
  0
LINE
  8
0
 10
-193.275085
 20
-61.637009
 11
-189.118103
 21
-61.637009
  0
LINE
  8
0
 10
-193.275085
 20
-62.237015
 11
-189.118103
 21
-62.237015
  0
LINE
  8
0
 10
-190.896606
 20
-64.015472
 11
-190.896606
 21
-63.037018
  0
LINE
  8
0
 10
-191.496582
 20
-64.015472
 11
-191.496582
 21
-63.037018
  0
LINE
  8
0
 10
-191.496582
 20
-63.037018
 11
-190.896606
 21
-63.037018
  0
LINE
  8
0
 10
-199.196594
 20
-24.237015
 11
-199.196594
 21
-123.237015
  0
LINE
  8
0
 10
-183.196594
 20
-24.237015
 11
-183.196594
 21
-123.237015
  0
LINE
  8
0
 10
-199.196594
 20
-24.237015
 11
-183.196594
 21
-24.237015
  0
LINE
  8
0
 10
-194.955444
 20
-63.305138
 11
-194.657089
 21
-64.997177
  0
LINE
  8
0
 10
-194.955414
 20
-63.305119
 11
-193.639252
 21
-64.409515
  0
LINE
  8
0
 10
-187.437698
 20
-63.305111
 11
-187.736038
 21
-64.997139
  0
LINE
  8
0
 10
-187.437820
 20
-63.305141
 11
-188.753967
 21
-64.409523
  0
LINE
  8
0
  6
CENTER
 62
     2
 10
-192.196594
 20
-118.237015
 11
-192.196594
 21
-126.237015
  0
LINE
  8
0
  6
CENTER
 62
     2
 10
-190.196594
 20
-118.237015
 11
-190.196594
 21
-126.237015
  0
LINE
  8
0
 10
-199.196594
 20
-122.237015
 11
-183.196594
 21
-122.237015
  0
LINE
  8
0
 10
-198.196594
 20
-123.237015
 11
-198.196594
 21
-123.737015
  0
LINE
  8
0
 10
-184.196594
 20
-123.237015
 11
-184.196594
 21
-123.737015
  0
LINE
  8
0
 10
-199.196594
 20
-123.237015
 11
-183.196594
 21
-123.237015
  0
LINE
  8
0
 10
-197.696594
 20
-124.237015
 11
-184.696594
 21
-124.237015
  0
LINE
  8
0
 10
-198.196579
 20
-123.737007
 11
-197.696579
 21
-124.237007
  0
LINE
  8
0
 10
-184.696594
 20
-124.237007
 11
-184.196594
 21
-123.737007
  0
LINE
  8
0
 10
-186.196594
 20
-123.237015
 11
-186.196594
 21
-123.737015
  0
LINE
  8
0
 10
-186.696594
 20
-124.237007
 11
-186.196594
 21
-123.737007
  0
LINE
  8
0
  6
CENTER
 62
     2
 10
-191.196594
 20
-22.237015
 11
-191.196594
 21
-126.237015
  0
LINE
  8
0
 10
-289.196564
 20
-67.237030
 11
-319.196564
 21
-67.237030
  0
LINE
  8
0
 10
-289.196564
 20
-107.237030
 11
-319.196564
 21
-107.237030
  0
LINE
  8
0
 10
-289.196564
 20
-77.237030
 11
-319.196564
 21
-77.237030
  0
LINE
  8
0
 10
-289.196503
 20
-29.236971
 11
-285.196503
 21
-29.942280
  0
LINE
  8
0
 10
-289.196594
 20
-57.237034
 11
-287.281677
 21
-56.723930
  0
LINE
  8
0
 10
-289.196564
 20
-57.237030
 11
-319.196564
 21
-57.237030
  0
LINE
  8
0
 10
-319.196564
 20
-32.237030
 11
-285.196564
 21
-32.237030
  0
LINE
  8
0
 10
-289.196564
 20
-113.737030
 11
-319.196564
 21
-113.737030
  0
LINE
  8
0
 10
-289.196564
 20
-29.237015
 11
-289.196564
 21
-113.737030
  0
LINE
  8
0
 10
-285.196564
 20
-29.942322
 11
-285.196564
 21
-47.237030
  0
LINE
  8
0
 10
-289.196564
 20
-29.237030
 11
-318.696564
 21
-29.237030
  0
LINE
  8
0
  6
CENTER
 62
     2
 10
-339.696564
 20
-120.565979
 11
-339.696564
 21
-126.271950
  0
LINE
  8
0
  6
CENTER
 62
     2
 10
-327.696564
 20
-120.565979
 11
-327.696564
 21
-126.271950
  0
LINE
  8
0
 10
-345.196564
 20
-124.237030
 11
-334.196564
 21
-124.237030
  0
LINE
  8
0
 10
-345.696564
 20
-123.237030
 11
-345.696564
 21
-123.737030
  0
LINE
  8
0
 10
-333.696564
 20
-123.237030
 11
-333.696564
 21
-123.737030
  0
LINE
  8
0
 10
-321.696564
 20
-123.237030
 11
-321.696564
 21
-123.737030
  0
LINE
  8
0
 10
-333.196564
 20
-124.237030
 11
-322.196564
 21
-124.237030
  0
LINE
  8
0
 10
-321.696533
 20
-123.737007
 11
-322.196564
 21
-124.237015
  0
LINE
  8
0
 10
-333.196564
 20
-124.237030
 11
-333.696564
 21
-123.737030
  0
LINE
  8
0
 10
-333.696533
 20
-123.737015
 11
-334.196564
 21
-124.237030
  0
LINE
  8
0
 10
-345.696503
 20
-123.737022
 11
-345.196503
 21
-124.237015
  0
LINE
  8
0
 10
-347.196564
 20
-123.237030
 11
-320.196564
 21
-123.237030
  0
LINE
  8
0
 10
-320.196564
 20
-122.237030
 11
-320.196564
 21
-123.237030
  0
LINE
  8
0
 10
-347.196564
 20
-122.237030
 11
-347.196564
 21
-123.237030
  0
LINE
  8
0
 10
-319.196564
 20
-29.737030
 11
-319.196564
 21
-113.737030
  0
LINE
  8
0
 10
-320.196564
 20
-34.537033
 11
-319.196564
 21
-34.537033
  0
LINE
  8
0
 10
-320.196564
 20
-106.237030
 11
-319.196564
 21
-106.237030
  0
LINE
  8
0
 10
-183.696625
 20
-202.736984
 11
-184.196625
 21
-202.736984
  0
LINE
  8
0
 10
-199.196625
 20
-229.736984
 11
-199.196625
 21
-202.736984
  0
LINE
  8
0
 10
-183.196625
 20
-229.736984
 11
-183.196625
 21
-202.736984
  0
LINE
  8
0
 10
-199.196625
 20
-229.736984
 11
-183.196625
 21
-229.736984
  0
LINE
  8
0
  6
CENTER
 62
     2
 10
-192.196625
 20
-203.211945
 11
-192.196625
 21
-216.952820
  0
LINE
  8
0
  6
CENTER
 62
     2
 10
-190.196625
 20
-215.525192
 11
-190.196625
 21
-228.998383
  0
LINE
  8
0
  6
CENTER
 62
     2
 10
-184.783813
 20
-210.236984
 11
-198.970810
 21
-210.236984
  0
LINE
  8
0
  6
CENTER
 62
     2
 10
-183.623871
 20
-222.236984
 11
-196.829376
 21
-222.236984
  0
LINE
  8
0
 10
-198.196625
 20
-202.736984
 11
-198.696625
 21
-202.736984
  0
LINE
  8
0
 10
-198.696625
 20
-171.736984
 11
-198.696625
 21
-202.736984
  0
LINE
  8
0
 10
-183.696625
 20
-171.736984
 11
-183.696625
 21
-202.736984
  0
LINE
  8
0
 10
-198.696625
 20
-171.736984
 11
-183.696625
 21
-171.736984
  0
LINE
  8
0
 10
-198.696716
 20
-171.737000
 11
-198.064270
 21
-168.150162
  0
LINE
  8
0
 10
-183.696716
 20
-171.737015
 11
-184.329163
 21
-168.150192
  0
LINE
  8
0
 10
-184.821503
 20
-167.736984
 11
-197.571747
 21
-167.736984
  0
LINE
  8
0
 10
-197.991302
 20
-169.580490
 11
-184.401947
 21
-169.580490
  0
LINE
  8
0
 10
-196.696625
 20
-169.051544
 11
-196.696625
 21
-167.736984
  0
LINE
  8
0
 10
-185.696625
 20
-169.051544
 11
-185.696625
 21
-167.736984
  0
LINE
  8
0
 10
-197.991302
 20
-169.580505
 11
-197.991302
 21
-167.964996
  0
LINE
  8
0
 10
-184.401947
 20
-169.580505
 11
-184.401947
 21
-167.965027
  0
LINE
  8
0
 10
-196.696625
 20
-169.051544
 11
-185.696625
 21
-169.051544
  0
LINE
  8
0
 10
-198.696747
 20
-171.736984
 11
-197.991440
 21
-169.580505
  0
LINE
  8
0
 10
-183.696625
 20
-171.736954
 11
-184.401901
 21
-169.580460
  0
LINE
  8
0
 10
-199.196625
 20
-202.736984
 11
-183.196625
 21
-202.736984
  0
LINE
  8
0
 10
-198.696625
 20
-201.736984
 11
-183.696625
 21
-201.736984
  0
LINE
  8
0
  6
CENTER
 62
     2
 10
-191.196625
 20
-231.736984
 11
-191.196625
 21
-165.736984
  0
LINE
  8
0
 10
67.153381
 20
-31.828262
 11
83.153381
 21
-31.828262
  0
LINE
  8
0
 10
73.153381
 20
-31.828262
 11
73.153381
 21
-38.428253
  0
LINE
  8
0
 10
73.153381
 20
-38.428253
 11
80.653381
 21
-38.428253
  0
LINE
  8
0
 10
80.653381
 20
-31.828262
 11
80.653381
 21
-38.428253
  0
LINE
  8
0
 10
73.153381
 20
-38.928253
 11
73.153381
 21
-45.428253
  0
LINE
  8
0
 10
73.153381
 20
-38.928253
 11
80.653381
 21
-38.928253
  0
LINE
  8
0
 10
80.653381
 20
-38.928253
 11
80.653381
 21
-45.428253
  0
LINE
  8
0
 10
73.153381
 20
-45.428253
 11
80.653381
 21
-45.428253
  0
LINE
  8
0
 10
69.653381
 20
-31.828262
 11
69.653381
 21
-45.428253
  0
LINE
  8
0
 10
72.653381
 20
-31.828262
 11
72.653381
 21
-45.428253
  0
LINE
  8
0
 10
69.653381
 20
-45.428253
 11
72.653381
 21
-45.428253
  0
LINE
  8
0
 10
69.653381
 20
-31.828262
 11
72.653381
 21
-31.828262
  0
LINE
  8
0
 10
71.153381
 20
-50.678238
 11
74.653381
 21
-50.678238
  0
LINE
  8
0
 10
71.153381
 20
-48.678253
 11
71.153381
 21
-50.678238
  0
LINE
  8
0
 10
71.153381
 20
-48.678253
 11
74.653381
 21
-48.678253
  0
LINE
  8
0
 10
74.653381
 20
-48.678253
 11
74.653381
 21
-50.678238
  0
LINE
  8
0
 10
75.653381
 20
-50.678238
 11
79.153381
 21
-50.678238
  0
LINE
  8
0
 10
75.653381
 20
-48.678253
 11
75.653381
 21
-50.678238
  0
LINE
  8
0
 10
75.653381
 20
-48.678253
 11
79.153381
 21
-48.678253
  0
LINE
  8
0
 10
79.153381
 20
-48.678253
 11
79.153381
 21
-50.678238
  0
LINE
  8
0
 10
69.653381
 20
-45.928253
 11
80.653381
 21
-45.928253
  0
LINE
  8
0
 10
80.653381
 20
-45.928253
 11
80.653381
 21
-54.928238
  0
LINE
  8
0
 10
69.653381
 20
-45.928253
 11
69.653381
 21
-54.928238
  0
LINE
  8
0
 10
69.653381
 20
-54.928238
 11
80.653381
 21
-54.928238
  0
LINE
  8
0
 10
67.153381
 20
-56.828247
 11
83.153381
 21
-56.828247
  0
LINE
  8
0
 10
68.153381
 20
-66.828247
 11
68.153381
 21
-58.828247
  0
LINE
  8
0
 10
82.153381
 20
-66.828247
 11
82.153381
 21
-58.828247
  0
LINE
  8
0
 10
82.153381
 20
-58.828247
 11
77.653381
 21
-58.828247
  0
LINE
  8
0
 10
72.653381
 20
-61.528244
 11
72.653381
 21
-58.828247
  0
LINE
  8
0
 10
77.653381
 20
-61.528244
 11
77.653381
 21
-58.828247
  0
LINE
  8
0
 10
72.653381
 20
-58.828247
 11
68.153381
 21
-58.828247
  0
LINE
  8
0
 10
67.653381
 20
-28.828262
 11
82.653381
 21
-28.828262
  0
LINE
  8
0
 10
82.653381
 20
-66.828247
 11
67.653381
 21
-66.828247
  0
LINE
  8
0
 10
81.653381
 20
-66.328247
 11
68.653381
 21
-66.328247
  0
LINE
  8
0
 10
81.653381
 20
-59.328247
 11
78.153381
 21
-59.328247
  0
LINE
  8
0
 10
68.653381
 20
-66.328247
 11
68.653381
 21
-59.328247
  0
LINE
  8
0
 10
81.653381
 20
-66.328247
 11
81.653381
 21
-59.328247
  0
LINE
  8
0
 10
72.153381
 20
-61.328247
 11
72.153381
 21
-59.328247
  0
LINE
  8
0
 10
78.153381
 20
-61.328247
 11
78.153381
 21
-59.328247
  0
LINE
  8
0
 10
68.653381
 20
-59.328247
 11
72.153381
 21
-59.328247
  0
LINE
  8
0
 10
83.153381
 20
-76.828247
 11
67.153381
 21
-76.828247
  0
LINE
  8
0
 10
83.153381
 20
-66.828247
 11
67.153381
 21
-66.828247
  0
LINE
  8
0
 10
82.653381
 20
-106.828247
 11
67.653381
 21
-106.828247
  0
LINE
  8
0
 10
79.382004
 20
-63.067348
 11
78.442307
 21
-62.725330
  0
LINE
  8
0
 10
70.924767
 20
-63.067348
 11
71.864464
 21
-62.725327
  0
LINE
  8
0
 10
73.074921
 20
-61.228241
 11
77.231842
 21
-61.228241
  0
LINE
  8
0
 10
73.074921
 20
-61.828247
 11
77.231842
 21
-61.828247
  0
LINE
  8
0
 10
75.453384
 20
-63.606705
 11
75.453384
 21
-62.628250
  0
LINE
  8
0
 10
74.853378
 20
-63.606705
 11
74.853378
 21
-62.628250
  0
LINE
  8
0
 10
74.853378
 20
-62.628250
 11
75.453384
 21
-62.628250
  0
LINE
  8
0
 10
67.153381
 20
-23.828247
 11
67.153381
 21
-122.828247
  0
LINE
  8
0
 10
83.153381
 20
-23.828247
 11
83.153381
 21
-122.828247
  0
LINE
  8
0
 10
67.153381
 20
-23.828247
 11
83.153381
 21
-23.828247
  0
LINE
  8
0
 10
81.053406
 20
-125.228241
 11
69.253357
 21
-125.228241
  0
LINE
  8
0
 10
71.394630
 20
-62.896355
 11
71.692978
 21
-64.588387
  0
LINE
  8
0
 10
71.394653
 20
-62.896332
 11
72.710823
 21
-64.000732
  0
LINE
  8
0
 10
83.153381
 20
-122.828247
 11
67.153381
 21
-122.828247
  0
LINE
  8
0
 10
83.153381
 20
-106.828247
 11
67.153381
 21
-106.828247
  0
LINE
  8
0
 10
78.912132
 20
-62.896336
 11
78.613785
 21
-64.588364
  0
LINE
  8
0
 10
78.912132
 20
-62.896324
 11
77.595955
 21
-64.000725
  0
LINE
  8
0
  6
CENTER
 62
     2
 10
75.153381
 20
-21.828247
 11
75.153381
 21
-127.228241
  0
LINE
  8
0
 10
79.053406
 20
-124.028244
 11
79.053406
 21
-125.228241
  0
LINE
  8
0
 10
69.253357
 20
-124.028244
 11
69.253357
 21
-125.228241
  0
LINE
  8
0
 10
81.053406
 20
-124.028244
 11
69.253357
 21
-124.028244
  0
LINE
  8
0
 10
71.653381
 20
-122.828247
 11
71.653381
 21
-124.028244
  0
LINE
  8
0
 10
76.653381
 20
-122.828247
 11
76.653381
 21
-124.028244
  0
LINE
  8
0
 10
81.053406
 20
-124.028244
 11
81.053406
 21
-125.228241
  0
LINE
  8
0
 10
78.653381
 20
-122.828247
 11
78.653381
 21
-124.028244
  0
LINE
  8
0
  6
CENTER
 62
     2
 10
76.153381
 20
-118.828247
 11
76.153381
 21
-127.228241
  0
LINE
  8
0
  6
CENTER
 62
     2
 10
74.153381
 20
-118.828247
 11
74.153381
 21
-127.228241
  0
LINE
  8
0
 10
-22.846558
 20
-67.237030
 11
-52.846558
 21
-67.237030
  0
LINE
  8
0
 10
-22.846558
 20
-77.237030
 11
-52.846558
 21
-77.237030
  0
LINE
  8
0
 10
-22.846552
 20
-29.236979
 11
-18.846552
 21
-29.942286
  0
LINE
  8
0
 10
-22.846577
 20
-57.237022
 11
-20.931660
 21
-56.723923
  0
LINE
  8
0
 10
-22.846558
 20
-57.237030
 11
-52.846558
 21
-57.237030
  0
LINE
  8
0
 10
-52.846558
 20
-32.237030
 11
-18.846558
 21
-32.237030
  0
LINE
  8
0
 10
-22.846558
 20
-29.237000
 11
-22.846558
 21
-123.237030
  0
LINE
  8
0
 10
-22.846558
 20
-107.237030
 11
-52.846558
 21
-107.237030
  0
LINE
  8
0
 10
-18.846558
 20
-29.942322
 11
-18.846558
 21
-47.237030
  0
LINE
  8
0
 10
-22.846558
 20
-29.237030
 11
-52.346558
 21
-29.237030
  0
LINE
  8
0
 10
-52.846558
 20
-123.237030
 11
-22.846565
 21
-123.237030
  0
LINE
  8
0
 10
-56.446518
 20
-125.637024
 11
-66.246567
 21
-125.637024
  0
LINE
  8
0
 10
-56.446518
 20
-124.437027
 11
-56.446518
 21
-125.637024
  0
LINE
  8
0
 10
-66.246567
 20
-124.437027
 11
-66.246567
 21
-125.637024
  0
LINE
  8
0
 10
-56.446518
 20
-124.437027
 11
-66.246567
 21
-124.437027
  0
LINE
  8
0
 10
-63.846542
 20
-122.937027
 11
-63.846542
 21
-124.437027
  0
LINE
  8
0
 10
-58.846542
 20
-122.937027
 11
-58.846542
 21
-124.437027
  0
LINE
  8
0
 10
-66.446518
 20
-122.237030
 11
-66.446518
 21
-122.937027
  0
LINE
  8
0
 10
-56.246567
 20
-122.237030
 11
-56.246567
 21
-122.937027
  0
LINE
  8
0
 10
-66.446518
 20
-122.937027
 11
-56.246567
 21
-122.937027
  0
LINE
  8
0
  6
CENTER
 62
     2
 10
-61.346542
 20
-117.637024
 11
-61.346542
 21
-127.637024
  0
LINE
  8
0
 10
-68.446518
 20
-125.637024
 11
-78.246567
 21
-125.637024
  0
LINE
  8
0
 10
-68.446518
 20
-124.437027
 11
-68.446518
 21
-125.637024
  0
LINE
  8
0
 10
-78.246567
 20
-124.437027
 11
-78.246567
 21
-125.637024
  0
LINE
  8
0
 10
-68.446518
 20
-124.437027
 11
-78.246567
 21
-124.437027
  0
LINE
  8
0
 10
-75.846542
 20
-122.937027
 11
-75.846542
 21
-124.437027
  0
LINE
  8
0
 10
-70.846542
 20
-122.937027
 11
-70.846542
 21
-124.437027
  0
LINE
  8
0
 10
-78.446518
 20
-122.237030
 11
-78.446518
 21
-122.937027
  0
LINE
  8
0
 10
-68.246567
 20
-122.237030
 11
-68.246567
 21
-122.937027
  0
LINE
  8
0
 10
-78.446518
 20
-122.937027
 11
-68.246567
 21
-122.937027
  0
LINE
  8
0
  6
CENTER
 62
     2
 10
-73.346542
 20
-117.637024
 11
-73.346542
 21
-127.637024
  0
LINE
  8
0
 10
-52.846558
 20
-29.737030
 11
-52.846558
 21
-123.237030
  0
LINE
  8
0
 10
-53.846558
 20
-34.537033
 11
-52.846558
 21
-34.537033
  0
LINE
  8
0
 10
-53.846558
 20
-106.237030
 11
-52.846558
 21
-106.237030
  0
LINE
  8
0
 10
67.153343
 20
-227.736954
 11
67.153343
 21
-200.736954
  0
LINE
  8
0
 10
83.153343
 20
-227.736954
 11
83.153343
 21
-200.736954
  0
LINE
  8
0
 10
67.153343
 20
-227.736954
 11
83.153343
 21
-227.736954
  0
LINE
  8
0
  6
CENTER
 62
     2
 10
74.153343
 20
-202.570404
 11
74.153343
 21
-214.039978
  0
LINE
  8
0
  6
CENTER
 62
     2
 10
76.153343
 20
-214.576843
 11
76.153343
 21
-225.851181
  0
LINE
  8
0
  6
CENTER
 62
     2
 10
79.876328
 20
-208.236954
 11
68.260345
 21
-208.236954
  0
LINE
  8
0
  6
CENTER
 62
     2
 10
81.828590
 20
-220.236954
 11
70.212608
 21
-220.236954
  0
LINE
  8
0
 10
78.053345
 20
-207.236954
 11
78.053345
 21
-209.236954
  0
LINE
  8
0
 10
70.253342
 20
-207.236954
 11
70.253342
 21
-209.236954
  0
LINE
  8
0
 10
80.053345
 20
-219.236954
 11
80.053345
 21
-221.236954
  0
LINE
  8
0
 10
72.253342
 20
-219.236954
 11
72.253342
 21
-221.236954
  0
LINE
  8
0
 10
67.653343
 20
-169.736954
 11
67.653343
 21
-200.736954
  0
LINE
  8
0
 10
82.653343
 20
-169.736954
 11
82.653343
 21
-200.736954
  0
LINE
  8
0
 10
67.653343
 20
-169.736954
 11
82.653343
 21
-169.736954
  0
LINE
  8
0
 10
67.653297
 20
-169.736954
 11
68.285751
 21
-166.150131
  0
LINE
  8
0
 10
82.653404
 20
-169.736969
 11
82.020950
 21
-166.150146
  0
LINE
  8
0
 10
81.528473
 20
-165.736954
 11
68.778191
 21
-165.736954
  0
LINE
  8
0
 10
68.358643
 20
-167.580460
 11
81.948051
 21
-167.580460
  0
LINE
  8
0
 10
69.653336
 20
-167.051514
 11
69.653336
 21
-165.736954
  0
LINE
  8
0
 10
80.653336
 20
-167.051514
 11
80.653336
 21
-165.736954
  0
LINE
  8
0
 10
68.358635
 20
-167.580475
 11
68.358635
 21
-165.964966
  0
LINE
  8
0
 10
81.948036
 20
-167.580475
 11
81.948036
 21
-165.964996
  0
LINE
  8
0
 10
69.653343
 20
-167.051514
 11
80.653343
 21
-167.051514
  0
LINE
  8
0
 10
80.653343
 20
-165.936951
 11
69.653343
 21
-165.936951
  0
LINE
  8
0
 10
67.653313
 20
-169.736969
 11
68.358612
 21
-167.580490
  0
LINE
  8
0
 10
82.653336
 20
-169.736938
 11
81.948067
 21
-167.580444
  0
LINE
  8
0
 10
67.153343
 20
-200.736954
 11
83.153343
 21
-200.736954
  0
LINE
  8
0
 10
67.653343
 20
-199.736954
 11
82.653343
 21
-199.736954
  0
LINE
  8
0
  6
CENTER
 62
     2
 10
75.153343
 20
-229.736954
 11
75.153343
 21
-163.936951
  0
LINE
  8
0
 10
333.503387
 20
-32.237045
 11
349.503387
 21
-32.237045
  0
LINE
  8
0
 10
339.503387
 20
-32.237045
 11
339.503387
 21
-38.837036
  0
LINE
  8
0
 10
339.503387
 20
-38.837036
 11
347.003387
 21
-38.837036
  0
LINE
  8
0
 10
347.003387
 20
-32.237045
 11
347.003387
 21
-38.837036
  0
LINE
  8
0
 10
339.503387
 20
-39.337036
 11
339.503387
 21
-45.837036
  0
LINE
  8
0
 10
339.503387
 20
-39.337036
 11
347.003387
 21
-39.337036
  0
LINE
  8
0
 10
347.003387
 20
-39.337036
 11
347.003387
 21
-45.837036
  0
LINE
  8
0
 10
339.503387
 20
-45.837036
 11
347.003387
 21
-45.837036
  0
LINE
  8
0
 10
336.003387
 20
-32.237045
 11
336.003387
 21
-45.837036
  0
LINE
  8
0
 10
339.003387
 20
-32.237045
 11
339.003387
 21
-45.837036
  0
LINE
  8
0
 10
336.003387
 20
-45.837036
 11
339.003387
 21
-45.837036
  0
LINE
  8
0
 10
336.003387
 20
-32.237045
 11
339.003387
 21
-32.237045
  0
LINE
  8
0
 10
337.503387
 20
-51.087021
 11
341.003387
 21
-51.087021
  0
LINE
  8
0
 10
337.503387
 20
-49.087036
 11
337.503387
 21
-51.087021
  0
LINE
  8
0
 10
337.503387
 20
-49.087036
 11
341.003387
 21
-49.087036
  0
LINE
  8
0
 10
341.003387
 20
-49.087036
 11
341.003387
 21
-51.087021
  0
LINE
  8
0
 10
342.003387
 20
-51.087021
 11
345.503387
 21
-51.087021
  0
LINE
  8
0
 10
342.003387
 20
-49.087036
 11
342.003387
 21
-51.087021
  0
LINE
  8
0
 10
342.003387
 20
-49.087036
 11
345.503387
 21
-49.087036
  0
LINE
  8
0
 10
345.503387
 20
-49.087036
 11
345.503387
 21
-51.087021
  0
LINE
  8
0
 10
336.003387
 20
-46.337036
 11
347.003387
 21
-46.337036
  0
LINE
  8
0
 10
347.003387
 20
-46.337036
 11
347.003387
 21
-55.337021
  0
LINE
  8
0
 10
336.003387
 20
-46.337036
 11
336.003387
 21
-55.337021
  0
LINE
  8
0
 10
336.003387
 20
-55.337021
 11
347.003387
 21
-55.337021
  0
LINE
  8
0
 10
333.503387
 20
-57.237030
 11
349.503387
 21
-57.237030
  0
LINE
  8
0
 10
334.503387
 20
-67.237030
 11
334.503387
 21
-59.237030
  0
LINE
  8
0
 10
348.503387
 20
-67.237030
 11
348.503387
 21
-59.237030
  0
LINE
  8
0
 10
348.503387
 20
-59.237030
 11
344.003387
 21
-59.237030
  0
LINE
  8
0
 10
339.003387
 20
-61.937027
 11
339.003387
 21
-59.237030
  0
LINE
  8
0
 10
344.003387
 20
-61.937027
 11
344.003387
 21
-59.237030
  0
LINE
  8
0
 10
339.003387
 20
-59.237030
 11
334.503387
 21
-59.237030
  0
LINE
  8
0
 10
334.003387
 20
-29.237045
 11
349.003387
 21
-29.237045
  0
LINE
  8
0
 10
349.003387
 20
-67.237030
 11
334.003387
 21
-67.237030
  0
LINE
  8
0
 10
348.003387
 20
-66.737030
 11
335.003387
 21
-66.737030
  0
LINE
  8
0
 10
348.003387
 20
-59.737030
 11
344.503387
 21
-59.737030
  0
LINE
  8
0
 10
335.003387
 20
-66.737030
 11
335.003387
 21
-59.737030
  0
LINE
  8
0
 10
348.003387
 20
-66.737030
 11
348.003387
 21
-59.737030
  0
LINE
  8
0
 10
338.503387
 20
-61.737030
 11
338.503387
 21
-59.737030
  0
LINE
  8
0
 10
344.503387
 20
-61.737030
 11
344.503387
 21
-59.737030
  0
LINE
  8
0
 10
335.003387
 20
-59.737030
 11
338.503387
 21
-59.737030
  0
LINE
  8
0
 10
349.503387
 20
-77.237030
 11
333.503387
 21
-77.237030
  0
LINE
  8
0
 10
349.503387
 20
-67.237030
 11
333.503387
 21
-67.237030
  0
LINE
  8
0
 10
349.003387
 20
-107.237030
 11
334.003387
 21
-107.237030
  0
LINE
  8
0
 10
345.731964
 20
-63.476116
 11
344.792267
 21
-63.134098
  0
LINE
  8
0
 10
337.274780
 20
-63.476124
 11
338.214478
 21
-63.134106
  0
LINE
  8
0
 10
339.424927
 20
-61.637024
 11
343.581848
 21
-61.637024
  0
LINE
  8
0
 10
339.424927
 20
-62.237030
 11
343.581848
 21
-62.237030
  0
LINE
  8
0
 10
341.803406
 20
-64.015488
 11
341.803406
 21
-63.037033
  0
LINE
  8
0
 10
341.203369
 20
-64.015488
 11
341.203369
 21
-63.037033
  0
LINE
  8
0
 10
341.203369
 20
-63.037033
 11
341.803406
 21
-63.037033
  0
LINE
  8
0
 10
333.503387
 20
-24.237030
 11
333.503387
 21
-123.237030
  0
LINE
  8
0
 10
349.503387
 20
-24.237030
 11
349.503387
 21
-123.237030
  0
LINE
  8
0
 10
333.503387
 20
-24.237030
 11
349.503387
 21
-24.237030
  0
LINE
  8
0
 10
337.744659
 20
-63.305134
 11
338.043030
 21
-64.997162
  0
LINE
  8
0
 10
337.744690
 20
-63.305103
 11
339.060852
 21
-64.409500
  0
LINE
  8
0
 10
349.503387
 20
-123.237030
 11
333.503387
 21
-123.237030
  0
LINE
  8
0
 10
349.503387
 20
-107.237030
 11
333.503387
 21
-107.237030
  0
LINE
  8
0
 10
345.262115
 20
-63.305119
 11
344.963776
 21
-64.997147
  0
LINE
  8
0
 10
345.262146
 20
-63.305119
 11
343.945953
 21
-64.409515
  0
LINE
  8
0
  6
CENTER
 62
     2
 10
341.503387
 20
-21.828247
 11
341.503387
 21
-126.237030
  0
LINE
  8
0
  6
CENTER
 62
     2
 10
340.503387
 20
-121.237030
 11
340.503387
 21
-126.237030
  0
LINE
  8
0
  6
CENTER
 62
     2
 10
342.503387
 20
-121.237030
 11
342.503387
 21
-126.237030
  0
LINE
  8
0
 10
334.503387
 20
-123.237030
 11
334.503387
 21
-123.737030
  0
LINE
  8
0
 10
348.503387
 20
-123.237030
 11
348.503387
 21
-123.737030
  0
LINE
  8
0
 10
335.003387
 20
-124.237030
 11
348.003387
 21
-124.237030
  0
LINE
  8
0
 10
334.503357
 20
-123.737015
 11
335.003387
 21
-124.237022
  0
LINE
  8
0
 10
348.003387
 20
-124.237030
 11
348.503357
 21
-123.737038
  0
LINE
  8
0
 10
346.503387
 20
-123.237030
 11
346.503387
 21
-123.737030
  0
LINE
  8
0
 10
346.003387
 20
-124.237030
 11
346.503387
 21
-123.737022
  0
LINE
  8
0
 10
243.503418
 20
-67.237030
 11
213.503418
 21
-67.237030
  0
LINE
  8
0
 10
243.503418
 20
-77.237030
 11
213.503418
 21
-77.237030
  0
LINE
  8
0
 10
243.503433
 20
-29.236959
 11
247.503433
 21
-29.942268
  0
LINE
  8
0
 10
243.503403
 20
-57.237026
 11
245.418320
 21
-56.723927
  0
LINE
  8
0
 10
243.503418
 20
-57.237030
 11
213.503418
 21
-57.237030
  0
LINE
  8
0
 10
213.503418
 20
-32.237030
 11
247.503418
 21
-32.237030
  0
LINE
  8
0
 10
243.503418
 20
-107.237030
 11
213.503418
 21
-107.237030
  0
LINE
  8
0
 10
247.503418
 20
-29.942322
 11
247.503418
 21
-47.237030
  0
LINE
  8
0
 10
243.503418
 20
-29.237030
 11
214.003418
 21
-29.237030
  0
LINE
  8
0
 10
243.503418
 20
-29.237030
 11
243.503418
 21
-123.237030
  0
LINE
  8
0
 10
213.503418
 20
-123.237030
 11
243.503418
 21
-123.237030
  0
LINE
  8
0
 10
212.503387
 20
-122.237030
 11
212.503387
 21
-123.237030
  0
LINE
  8
0
  6
CENTER
 62
     2
 10
193.003387
 20
-120.565979
 11
193.003387
 21
-126.271950
  0
LINE
  8
0
  6
CENTER
 62
     2
 10
205.003387
 20
-120.565979
 11
205.003387
 21
-126.271950
  0
LINE
  8
0
 10
187.503387
 20
-124.237030
 11
198.503387
 21
-124.237030
  0
LINE
  8
0
 10
187.003387
 20
-123.237030
 11
187.003387
 21
-123.737030
  0
LINE
  8
0
 10
199.003387
 20
-123.237030
 11
199.003387
 21
-123.737030
  0
LINE
  8
0
 10
211.003387
 20
-123.237030
 11
211.003387
 21
-123.737030
  0
LINE
  8
0
 10
199.503387
 20
-124.237030
 11
210.503387
 21
-124.237030
  0
LINE
  8
0
 10
211.003387
 20
-123.737030
 11
210.503387
 21
-124.237030
  0
LINE
  8
0
 10
199.503387
 20
-124.237030
 11
199.003387
 21
-123.737030
  0
LINE
  8
0
 10
199.003372
 20
-123.737022
 11
198.503372
 21
-124.237022
  0
LINE
  8
0
 10
187.003372
 20
-123.737007
 11
187.503372
 21
-124.237000
  0
LINE
  8
0
 10
185.503387
 20
-123.237030
 11
212.503387
 21
-123.237030
  0
LINE
  8
0
 10
212.503387
 20
-122.237030
 11
212.503387
 21
-123.237030
  0
LINE
  8
0
 10
185.503387
 20
-122.237030
 11
185.503387
 21
-123.237030
  0
LINE
  8
0
 10
213.503418
 20
-29.737030
 11
213.503418
 21
-123.237030
  0
LINE
  8
0
 10
212.503418
 20
-34.537033
 11
213.503418
 21
-34.537033
  0
LINE
  8
0
 10
212.503418
 20
-106.237030
 11
213.503418
 21
-106.237030
  0
LINE
  8
0
 10
333.503296
 20
-221.736954
 11
333.503296
 21
-194.736954
  0
LINE
  8
0
 10
349.503296
 20
-221.736954
 11
349.503296
 21
-194.736954
  0
LINE
  8
0
 10
333.503296
 20
-221.736954
 11
349.503296
 21
-221.736954
  0
LINE
  8
0
 10
334.003296
 20
-163.736954
 11
334.003296
 21
-194.736954
  0
LINE
  8
0
 10
349.003296
 20
-163.736954
 11
349.003296
 21
-194.736954
  0
LINE
  8
0
 10
334.003296
 20
-163.736954
 11
349.003296
 21
-163.736954
  0
LINE
  8
0
 10
334.003265
 20
-163.736954
 11
334.635712
 21
-160.150131
  0
LINE
  8
0
 10
349.003387
 20
-163.736969
 11
348.370911
 21
-160.150146
  0
LINE
  8
0
 10
347.878418
 20
-159.736954
 11
335.128143
 21
-159.736954
  0
LINE
  8
0
 10
334.708588
 20
-161.580460
 11
348.298004
 21
-161.580460
  0
LINE
  8
0
 10
336.003296
 20
-161.051514
 11
336.003296
 21
-159.736954
  0
LINE
  8
0
 10
347.003296
 20
-161.051514
 11
347.003296
 21
-159.736954
  0
LINE
  8
0
 10
334.708588
 20
-161.580475
 11
334.708588
 21
-159.964966
  0
LINE
  8
0
 10
348.297974
 20
-161.580475
 11
348.297974
 21
-159.964996
  0
LINE
  8
0
 10
336.003296
 20
-161.051514
 11
347.003296
 21
-161.051514
  0
LINE
  8
0
 10
347.003296
 20
-159.936951
 11
336.003296
 21
-159.936951
  0
LINE
  8
0
 10
334.003265
 20
-163.736969
 11
334.708557
 21
-161.580475
  0
LINE
  8
0
 10
349.003296
 20
-163.736923
 11
348.298035
 21
-161.580460
  0
LINE
  8
0
 10
333.503296
 20
-194.736954
 11
349.503296
 21
-194.736954
  0
LINE
  8
0
  6
CENTER
 62
     2
 10
340.503296
 20
-195.211914
 11
340.503296
 21
-208.952789
  0
LINE
  8
0
  6
CENTER
 62
     2
 10
342.503296
 20
-207.525162
 11
342.503296
 21
-220.998352
  0
LINE
  8
0
  6
CENTER
 62
     2
 10
347.916107
 20
-202.236954
 11
333.729095
 21
-202.236954
  0
LINE
  8
0
  6
CENTER
 62
     2
 10
349.076050
 20
-214.236954
 11
335.870544
 21
-214.236954
  0
LINE
  8
0
  6
CENTER
 62
     2
 10
341.503296
 20
-223.736954
 11
341.503296
 21
-157.736954
  0
LINE
  8
0
 10
334.003296
 20
-193.736954
 11
349.003296
 21
-193.736954
  0
CIRCLE
  8
0
 10
-191.196625
 20
199.562973
 40
2.100000
  0
ARC
  8
0
 10
-191.196625
 20
199.562973
 40
2.500000
 50
180.000000
 51
0.000000
  0
ARC
  8
0
 10
-191.196625
 20
199.762970
 40
3.000000
 50
180.000000
 51
0.000000
  0
ARC
  8
0
 10
-191.196625
 20
199.562973
 40
4.000006
 50
281.536987
 51
340.000122
  0
ARC
  8
0
 10
-191.196625
 20
199.562973
 40
4.000000
 50
199.999878
 51
258.463013
  0
ARC
  8
0
 10
-198.696625
 20
231.762955
 40
0.500000
 50
90.000000
 51
180.000000
  0
ARC
  8
0
 10
-183.696625
 20
231.762955
 40
0.500000
 50
0.000000
 51
90.000000
  0
ARC
  8
0
 10
-346.593903
 20
233.462967
 40
0.199988
 50
214.417557
 51
270.000000
  0
ARC
  8
0
 10
-287.411041
 20
205.259033
 40
0.499989
 50
284.998535
 51
338.681427
  0
ARC
  8
0
 10
-310.196564
 20
214.262970
 40
24.999994
 50
338.433136
 51
0.000035
  0
ARC
  8
0
 10
-318.696564
 20
231.762970
 40
0.500000
 50
90.000000
 51
180.000000
  0
ARC
  8
0
 10
-192.196625
 20
75.263000
 40
3.899994
 50
0.000000
 51
180.000000
  0
ARC
  8
0
 10
-192.196625
 20
73.263000
 40
3.899994
 50
180.000000
 51
0.000000
  0
CIRCLE
  8
0
 10
-192.196625
 20
74.263000
 40
2.000000
  0
ARC
  8
0
 10
-190.196625
 20
63.263000
 40
3.899994
 50
0.000000
 51
179.999939
  0
ARC
  8
0
 10
-190.196625
 20
61.263000
 40
3.899994
 50
180.000000
 51
359.999939
  0
CIRCLE
  8
0
 10
-190.196625
 20
62.263000
 40
2.000000
  0
CIRCLE
  8
0
 10
-190.196625
 20
62.263000
 40
5.099999
  0
ARC
  8
0
 10
-197.571747
 20
116.263000
 40
0.500000
 50
90.000000
 51
170.000122
  0
ARC
  8
0
 10
-184.821503
 20
116.263000
 40
0.499997
 50
9.999877
 51
90.000000
  0
CIRCLE
  8
0
 10
-192.196625
 20
74.263000
 40
5.099999
  0
ARC
  8
0
 10
76.153351
 20
122.762970
 40
3.900002
 50
180.000000
 51
0.000000
  0
ARC
  8
0
 10
76.153351
 20
123.612961
 40
3.999998
 50
166.725296
 51
192.851547
  0
ARC
  8
0
 10
76.153351
 20
123.612961
 40
3.999999
 50
347.148346
 51
0.000000
  0
ARC
  8
0
 10
76.153351
 20
123.612961
 40
4.000000
 50
0.000000
 51
13.274598
  0
CIRCLE
  8
0
 10
74.153358
 20
133.762970
 40
2.000000
  0
ARC
  8
0
 10
74.153358
 20
134.762970
 40
3.900002
 50
0.000000
 51
180.000000
  0
ARC
  8
0
 10
74.153358
 20
132.762970
 40
3.900002
 50
180.000000
 51
0.000000
  0
ARC
  8
0
 10
74.153358
 20
133.612976
 40
4.000000
 50
0.000000
 51
13.274598
  0
ARC
  8
0
 10
74.153358
 20
133.612976
 40
3.999997
 50
166.725403
 51
192.851654
  0
ARC
  8
0
 10
74.153358
 20
133.612976
 40
3.999999
 50
347.148346
 51
0.000000
  0
CIRCLE
  8
0
 10
76.153351
 20
123.762970
 40
2.000000
  0
ARC
  8
0
 10
76.153351
 20
124.762970
 40
3.900002
 50
0.000000
 51
180.000000
  0
CIRCLE
  8
0
 10
75.153351
 20
199.562973
 40
2.100000
  0
ARC
  8
0
 10
75.153351
 20
199.562973
 40
2.500000
 50
180.000000
 51
0.000000
  0
ARC
  8
0
 10
75.153351
 20
199.762970
 40
3.000000
 50
180.000000
 51
0.000000
  0
ARC
  8
0
 10
75.153351
 20
199.562973
 40
4.000006
 50
281.536987
 51
340.000122
  0
ARC
  8
0
 10
75.153351
 20
199.562973
 40
4.000000
 50
199.999878
 51
258.463013
  0
ARC
  8
0
 10
67.653351
 20
231.762955
 40
0.500000
 50
90.000000
 51
180.000000
  0
ARC
  8
0
 10
82.653351
 20
231.762955
 40
0.500000
 50
0.000000
 51
90.000000
  0
ARC
  8
0
 10
-74.246582
 20
122.862976
 40
2.000000
 50
180.000000
 51
270.000000
  0
ARC
  8
0
 10
-74.246582
 20
122.862976
 40
3.099998
 50
180.000000
 51
270.000000
  0
ARC
  8
0
 10
-62.246582
 20
132.862976
 40
2.000000
 50
180.000000
 51
270.000000
  0
ARC
  8
0
 10
-62.246582
 20
132.862976
 40
3.099998
 50
180.000000
 51
270.000000
  0
ARC
  8
0
 10
-80.243927
 20
233.462982
 40
0.199994
 50
214.416321
 51
270.000000
  0
ARC
  8
0
 10
-21.061066
 20
205.259048
 40
0.499993
 50
285.000244
 51
338.681244
  0
ARC
  8
0
 10
-43.846588
 20
214.262985
 40
25.000004
 50
338.433136
 51
0.000035
  0
ARC
  8
0
 10
-52.346588
 20
231.762985
 40
0.500000
 50
90.000000
 51
180.000000
  0
ARC
  8
0
 10
76.153351
 20
42.263000
 40
3.900001
 50
150.667923
 51
29.332281
  0
ARC
  8
0
 10
74.153351
 20
54.263000
 40
5.100001
 50
131.810333
 51
246.911041
  0
ARC
  8
0
 10
74.153351
 20
54.263000
 40
6.000001
 50
124.518112
 51
250.528625
  0
ARC
  8
0
 10
76.153351
 20
42.263000
 40
3.399999
 50
278.456512
 51
0.000000
  0
ARC
  8
0
 10
76.153351
 20
42.263000
 40
3.400002
 50
180.000061
 51
261.543488
  0
ARC
  8
0
 10
74.153351
 20
54.263000
 40
5.099996
 50
15.932834
 51
23.088690
  0
ARC
  8
0
 10
74.153351
 20
54.263000
 40
6.000000
 50
13.493412
 51
19.471132
  0
ARC
  8
0
 10
76.153351
 20
42.263000
 40
6.000000
 50
124.518219
 51
55.481964
  0
ARC
  8
0
 10
74.153351
 20
54.263000
 40
3.900001
 50
150.667923
 51
239.147949
  0
ARC
  8
0
 10
74.153351
 20
54.263000
 40
3.400002
 50
180.000061
 51
233.967941
  0
ARC
  8
0
 10
76.153351
 20
42.263000
 40
4.599998
 50
137.657593
 51
42.342709
  0
ARC
  8
0
 10
76.153351
 20
42.263000
 40
5.099998
 50
131.810486
 51
48.189762
  0
ARC
  8
0
 10
74.153351
 20
54.263000
 40
5.099997
 50
38.862408
 51
48.189793
  0
ARC
  8
0
 10
74.153351
 20
54.263000
 40
6.000003
 50
32.230984
 51
55.481884
  0
ARC
  8
0
 10
68.778229
 20
96.263000
 40
0.500000
 50
90.000000
 51
170.000122
  0
ARC
  8
0
 10
81.528473
 20
96.263000
 40
0.499997
 50
9.999877
 51
90.000000
  0
ARC
  8
0
 10
342.503326
 20
119.762985
 40
3.899994
 50
180.000000
 51
0.000000
  0
ARC
  8
0
 10
342.503326
 20
120.612976
 40
4.000006
 50
166.725327
 51
192.851486
  0
ARC
  8
0
 10
342.503326
 20
120.612976
 40
4.000013
 50
347.148407
 51
0.000000
  0
ARC
  8
0
 10
342.503326
 20
120.612976
 40
4.000000
 50
0.000000
 51
13.274573
  0
CIRCLE
  8
0
 10
340.503326
 20
132.762985
 40
3.000000
  0
ARC
  8
0
 10
340.503326
 20
133.762985
 40
3.899994
 50
0.000000
 51
180.000000
  0
ARC
  8
0
 10
340.503326
 20
131.762985
 40
3.899994
 50
180.000000
 51
0.000000
  0
ARC
  8
0
 10
340.503326
 20
132.612991
 40
4.000000
 50
0.000000
 51
13.274573
  0
ARC
  8
0
 10
340.503326
 20
132.612991
 40
4.000004
 50
166.725433
 51
192.851593
  0
ARC
  8
0
 10
340.503326
 20
132.612991
 40
4.000013
 50
347.148407
 51
0.000000
  0
ARC
  8
0
 10
342.503326
 20
121.762985
 40
3.899994
 50
0.000000
 51
180.000000
  0
CIRCLE
  8
0
 10
341.503326
 20
199.562973
 40
2.100000
  0
ARC
  8
0
 10
341.503326
 20
199.562973
 40
2.500000
 50
180.000000
 51
0.000000
  0
ARC
  8
0
 10
341.503326
 20
199.762970
 40
3.000000
 50
180.000000
 51
0.000000
  0
ARC
  8
0
 10
341.503326
 20
199.562973
 40
4.000003
 50
281.536774
 51
340.000061
  0
ARC
  8
0
 10
341.503326
 20
199.562973
 40
3.999986
 50
199.999954
 51
258.463226
  0
ARC
  8
0
 10
334.003326
 20
231.762955
 40
0.500000
 50
90.000000
 51
180.000000
  0
ARC
  8
0
 10
349.003326
 20
231.762955
 40
0.500000
 50
0.000000
 51
90.000000
  0
CIRCLE
  8
0
 10
342.503326
 20
120.762985
 40
3.000000
  0
ARC
  8
0
 10
192.103394
 20
119.862991
 40
2.000000
 50
180.000000
 51
270.000000
  0
ARC
  8
0
 10
192.103394
 20
119.862991
 40
3.100006
 50
180.000000
 51
270.000000
  0
ARC
  8
0
 10
204.103394
 20
131.862991
 40
2.000000
 50
180.000000
 51
270.000000
  0
ARC
  8
0
 10
204.103394
 20
131.862991
 40
3.100006
 50
180.000000
 51
270.000000
  0
ARC
  8
0
 10
186.106049
 20
233.462982
 40
0.200000
 50
214.415085
 51
270.000000
  0
ARC
  8
0
 10
245.288910
 20
205.259048
 40
0.499993
 50
285.000244
 51
338.681427
  0
ARC
  8
0
 10
222.503387
 20
214.262985
 40
25.000008
 50
338.433136
 51
0.000035
  0
ARC
  8
0
 10
214.003387
 20
231.762985
 40
0.500000
 50
90.000000
 51
180.000000
  0
ARC
  8
0
 10
340.503326
 20
54.263000
 40
5.099996
 50
131.810272
 51
246.911194
  0
ARC
  8
0
 10
340.503326
 20
54.263000
 40
5.999997
 50
124.518059
 51
256.506378
  0
ARC
  8
0
 10
342.503326
 20
42.263000
 40
3.399999
 50
278.456512
 51
0.000000
  0
ARC
  8
0
 10
342.503326
 20
42.263000
 40
3.399994
 50
180.000061
 51
261.543488
  0
ARC
  8
0
 10
342.503326
 20
42.263000
 40
3.900011
 50
150.668335
 51
29.332085
  0
ARC
  8
0
 10
340.503326
 20
54.263000
 40
5.999992
 50
24.100183
 51
30.552780
  0
ARC
  8
0
 10
342.503326
 20
42.263000
 40
6.000008
 50
124.518333
 51
55.481964
  0
ARC
  8
0
 10
340.503326
 20
54.263000
 40
3.899994
 50
150.667862
 51
239.148056
  0
ARC
  8
0
 10
340.503326
 20
54.263000
 40
3.399994
 50
180.000061
 51
233.968048
  0
ARC
  8
0
 10
342.503326
 20
42.263000
 40
4.600009
 50
137.657715
 51
42.342709
  0
ARC
  8
0
 10
342.503326
 20
42.263000
 40
5.100008
 50
131.810608
 51
48.189762
  0
ARC
  8
0
 10
340.503326
 20
54.263000
 40
5.999994
 50
45.099529
 51
55.481945
  0
ARC
  8
0
 10
335.128204
 20
96.263000
 40
0.500000
 50
90.000000
 51
170.000122
  0
ARC
  8
0
 10
347.878448
 20
96.263000
 40
0.499997
 50
9.999877
 51
90.000000
  0
CIRCLE
  8
0
 10
-191.196594
 20
-61.937012
 40
2.100000
  0
ARC
  8
0
 10
-191.196594
 20
-61.937012
 40
2.500000
 50
180.000000
 51
0.000000
  0
ARC
  8
0
 10
-191.196594
 20
-61.737015
 40
3.000000
 50
180.000000
 51
0.000000
  0
ARC
  8
0
 10
-191.196594
 20
-61.937012
 40
3.999999
 50
281.537018
 51
340.000031
  0
ARC
  8
0
 10
-191.196594
 20
-61.937012
 40
4.000003
 50
199.999985
 51
258.462982
  0
ARC
  8
0
 10
-198.696594
 20
-29.737030
 40
0.500000
 50
90.000000
 51
180.000000
  0
ARC
  8
0
 10
-183.696594
 20
-29.737030
 40
0.500000
 50
0.000000
 51
90.000000
  0
ARC
  8
0
 10
-346.593903
 20
-28.037033
 40
0.199991
 50
214.418915
 51
270.000000
  0
ARC
  8
0
 10
-287.411041
 20
-56.240967
 40
0.499997
 50
284.998322
 51
338.681000
  0
ARC
  8
0
 10
-310.196564
 20
-47.237030
 40
24.999990
 50
338.433167
 51
0.000035
  0
ARC
  8
0
 10
-318.696564
 20
-29.737030
 40
0.500000
 50
90.000000
 51
180.000000
  0
CIRCLE
  8
0
 62
     2
 10
-192.196625
 20
-210.236984
 40
4.000000
  0
ARC
  8
0
 10
-197.571747
 20
-168.236984
 40
0.500000
 50
90.000000
 51
170.000122
  0
ARC
  8
0
 10
-184.821503
 20
-168.236984
 40
0.499997
 50
9.999877
 51
90.000000
  0
CIRCLE
  8
0
 62
     2
 10
-190.196625
 20
-222.236984
 40
4.000000
  0
CIRCLE
  8
0
 10
-192.196625
 20
-210.236984
 40
3.625000
  0
CIRCLE
  8
0
 10
-190.196625
 20
-222.236984
 40
3.625000
  0
CIRCLE
  8
0
 10
-192.196625
 20
-210.236984
 40
6.000000
  0
CIRCLE
  8
0
 10
-190.196625
 20
-222.236984
 40
6.000000
  0
CIRCLE
  8
0
 10
75.153381
 20
-61.528244
 40
2.100000
  0
ARC
  8
0
 10
75.153381
 20
-61.528244
 40
2.500000
 50
180.000000
 51
0.000000
  0
ARC
  8
0
 10
75.153381
 20
-61.328247
 40
3.000000
 50
180.000000
 51
0.000000
  0
ARC
  8
0
 10
75.153381
 20
-61.528244
 40
3.999999
 50
281.537018
 51
340.000031
  0
ARC
  8
0
 10
75.153381
 20
-61.528244
 40
4.000003
 50
199.999985
 51
258.462982
  0
ARC
  8
0
 10
67.653381
 20
-29.328262
 40
0.500000
 50
90.000000
 51
180.000000
  0
ARC
  8
0
 10
82.653381
 20
-29.328262
 40
0.500000
 50
0.000000
 51
90.000000
  0
ARC
  8
0
 10
-43.846558
 20
-47.237030
 40
25.000000
 50
338.433167
 51
0.000035
  0
ARC
  8
0
 10
-21.061050
 20
-56.240967
 40
0.500001
 50
285.000000
 51
338.680847
  0
ARC
  8
0
 10
-52.346558
 20
-29.737030
 40
0.500000
 50
90.000000
 51
180.000000
  0
ARC
  8
0
 10
74.153343
 20
-207.236954
 40
3.900002
 50
0.000000
 51
180.000000
  0
ARC
  8
0
 10
74.153343
 20
-209.236954
 40
3.900002
 50
180.000000
 51
0.000000
  0
CIRCLE
  8
0
 10
74.153343
 20
-208.236954
 40
2.000000
  0
CIRCLE
  8
0
 10
74.153343
 20
-208.236954
 40
5.099999
  0
ARC
  8
0
 10
76.153343
 20
-219.236954
 40
3.900002
 50
0.000000
 51
180.000000
  0
ARC
  8
0
 10
76.153343
 20
-221.236954
 40
3.900002
 50
180.000000
 51
0.000000
  0
CIRCLE
  8
0
 10
76.153343
 20
-220.236954
 40
2.000000
  0
CIRCLE
  8
0
 10
76.153343
 20
-220.236954
 40
5.099999
  0
ARC
  8
0
 10
68.778191
 20
-166.236954
 40
0.500000
 50
90.000000
 51
170.000122
  0
ARC
  8
0
 10
81.528473
 20
-166.236954
 40
0.499997
 50
9.999877
 51
90.000000
  0
CIRCLE
  8
0
 10
341.503387
 20
-61.937027
 40
2.100000
  0
ARC
  8
0
 10
341.503387
 20
-61.937027
 40
2.500000
 50
180.000000
 51
0.000000
  0
ARC
  8
0
 10
341.503387
 20
-61.737030
 40
3.000000
 50
180.000000
 51
0.000000
  0
ARC
  8
0
 10
341.503387
 20
-61.937027
 40
3.999996
 50
281.536804
 51
339.999939
  0
ARC
  8
0
 10
341.503387
 20
-61.937027
 40
3.999989
 50
200.000046
 51
258.463196
  0
ARC
  8
0
 10
334.003387
 20
-29.737045
 40
0.500000
 50
90.000000
 51
180.000000
  0
ARC
  8
0
 10
349.003387
 20
-29.737045
 40
0.500000
 50
0.000000
 51
90.000000
  0
ARC
  8
0
 10
222.503418
 20
-47.237030
 40
25.000006
 50
338.433167
 51
0.000035
  0
ARC
  8
0
 10
245.288925
 20
-56.240967
 40
0.500001
 50
285.000000
 51
338.681000
  0
ARC
  8
0
 10
213.003387
 20
-29.737030
 40
0.500000
 50
90.000000
 51
180.000000
  0
ARC
  8
0
 10
214.003418
 20
-29.737030
 40
0.500000
 50
90.000000
 51
180.000000
  0
ARC
  8
0
 10
335.128143
 20
-160.236954
 40
0.500000
 50
90.000000
 51
170.000122
  0
ARC
  8
0
 10
347.878418
 20
-160.236954
 40
0.499997
 50
9.999877
 51
90.000000
  0
CIRCLE
  8
0
 62
     2
 10
340.503296
 20
-202.236954
 40
4.000000
  0
CIRCLE
  8
0
 62
     2
 10
342.503296
 20
-214.236954
 40
4.000000
  0
CIRCLE
  8
0
 10
340.503296
 20
-202.236954
 40
3.625000
  0
CIRCLE
  8
0
 10
342.503296
 20
-214.236954
 40
3.625000
  0
CIRCLE
  8
0
 10
340.503296
 20
-202.236954
 40
6.000000
  0
CIRCLE
  8
0
 10
342.503296
 20
-214.236954
 40
6.000000
  0
TEXT
  8
0
 10
-345.785156
 20
253.500000
 40
12.500000
  1
X88M
 50
0.000000
 41
1.052632
 51
0.000000
  7
STANDARD
  0
TEXT
  8
0
 10
242.014816
 20
-274.500000
 40
12.500000
  1
KOGANEI CORP.
 50
0.000000
 41
1.052632
 51
0.000000
  7
STANDARD
  0
TEXT
  8
0
 10
251.264664
 20
256.649994
 40
9.000000
  1
DATE: SEP ,1993
 50
0.000000
 41
1.052632
 51
0.000000
  7
STANDARD
  0
TEXT
  8
0
 10
-357.825012
 20
1.950000
 40
7.000000
  1
MODEL:FMY110-4ME2-J4S(J6S)
 50
0.000000
 41
1.052632
 51
0.000000
  7
STANDARD
  0
TEXT
  8
0
 10
-73.975006
 20
1.950000
 40
7.000000
  1
MODEL:FMY110-4ME2-J4U
 50
0.000000
 41
1.052632
 51
0.000000
  7
STANDARD
  0
TEXT
  8
0
 10
192.375000
 20
1.950000
 40
7.000000
  1
MODEL:FMY110-4ME2-J6U
 50
0.000000
 41
1.052632
 51
0.000000
  7
STANDARD
  0
TEXT
  8
0
 10
-340.325012
 20
-274.549988
 40
7.000000
  1
MODEL:FMY110-4ME2-M8M
 50
0.000000
 41
1.052632
 51
0.000000
  7
STANDARD
  0
TEXT
  8
0
 10
-91.475006
 20
-274.549988
 40
7.000000
  1
MODEL:FMY113-4ME2-J4S(J6S)
 50
0.000000
 41
1.052632
 51
0.000000
  7
STANDARD
  0
TEXT
  8
0
 10
192.375000
 20
-249.550003
 40
7.000000
  1
MODEL:FMY113-4ME2-M8M
 50
0.000000
 41
1.052632
 51
0.000000
  7
STANDARD
  0
TEXT
  8
0
 10
-196.230850
 20
225.111160
 40
2.000000
  1
A
 50
0.100000
 41
1.052632
 51
0.000000
  7
STANDARD
  0
TEXT
  8
0
 10
-196.230850
 20
218.111160
 40
2.000000
  1
B
 50
0.100000
 41
1.052632
 51
0.000000
  7
STANDARD
  0
TEXT
  8
0
 10
-194.117844
 20
213.427872
 40
1.200000
  1
DC24V
 50
0.100000
 41
1.052630
 51
0.000000
  7
STANDARD
  0
TEXT
  8
0
 10
-189.980850
 20
207.811172
 40
2.000000
  1
B
 50
0.100000
 41
1.052632
 51
0.000000
  7
STANDARD
  0
TEXT
  8
0
 10
-194.480850
 20
207.811172
 40
2.000000
  1
A
 50
0.100000
 41
1.052632
 51
0.000000
  7
STANDARD
  0
TEXT
  8
0
 10
-186.815659
 20
198.959015
 40
1.599999
  1
B
 50
0.100000
 41
1.052632
 51
0.000000
  7
STANDARD
  0
TEXT
  8
0
 10
-197.133041
 20
198.959015
 40
1.599999
  1
A
 50
0.100000
 41
1.052632
 51
0.000000
  7
STANDARD
  0
TEXT
  8
0
 10
-191.974350
 20
195.371628
 40
1.599999
  1
0
 50
0.100000
 41
1.052632
 51
0.000000
  7
STANDARD
  0
TEXT
  8
0
 10
-187.232254
 20
78.462997
 40
2.000000
  1
B
 50
0.000000
 41
1.052632
 51
0.000000
  7
STANDARD
  0
TEXT
  8
0
 10
-197.232254
 20
56.463001
 40
2.000000
  1
A
 50
0.000000
 41
1.052632
 51
0.000000
  7
STANDARD
  0
TEXT
  8
0
 10
70.119125
 20
225.111160
 40
2.000000
  1
A
 50
0.100000
 41
1.052632
 51
0.000000
  7
STANDARD
  0
TEXT
  8
0
 10
70.119125
 20
218.111160
 40
2.000000
  1
B
 50
0.100000
 41
1.052632
 51
0.000000
  7
STANDARD
  0
TEXT
  8
0
 10
72.232124
 20
213.427872
 40
1.200000
  1
DC24V
 50
0.100000
 41
1.052630
 51
0.000000
  7
STANDARD
  0
TEXT
  8
0
 10
76.369125
 20
207.811172
 40
2.000000
  1
B
 50
0.100000
 41
1.052632
 51
0.000000
  7
STANDARD
  0
TEXT
  8
0
 10
71.869125
 20
207.811172
 40
2.000000
  1
A
 50
0.100000
 41
1.052632
 51
0.000000
  7
STANDARD
  0
TEXT
  8
0
 10
79.534309
 20
198.959015
 40
1.599999
  1
B
 50
0.100000
 41
1.052632
 51
0.000000
  7
STANDARD
  0
TEXT
  8
0
 10
69.216927
 20
198.959015
 40
1.599999
  1
A
 50
0.100000
 41
1.052632
 51
0.000000
  7
STANDARD
  0
TEXT
  8
0
 10
74.375618
 20
195.371628
 40
1.599999
  1
0
 50
0.100000
 41
1.052632
 51
0.000000
  7
STANDARD
  0
TEXT
  8
0
 10
79.117729
 20
58.463001
 40
2.000000
  1
B
 50
0.000000
 41
1.052632
 51
0.000000
  7
STANDARD
  0
TEXT
  8
0
 10
69.117729
 20
36.463001
 40
2.000000
  1
A
 50
0.000000
 41
1.052632
 51
0.000000
  7
STANDARD
  0
TEXT
  8
0
 10
79.117729
 20
58.463001
 40
2.000000
  1
B
 50
0.000000
 41
1.052632
 51
0.000000
  7
STANDARD
  0
TEXT
  8
0
 10
69.117729
 20
36.463001
 40
2.000000
  1
A
 50
0.000000
 41
1.052632
 51
0.000000
  7
STANDARD
  0
TEXT
  8
0
 10
336.469116
 20
225.111160
 40
2.000000
  1
A
 50
0.100000
 41
1.052632
 51
0.000000
  7
STANDARD
  0
TEXT
  8
0
 10
336.469116
 20
218.111160
 40
2.000000
  1
B
 50
0.100000
 41
1.052632
 51
0.000000
  7
STANDARD
  0
TEXT
  8
0
 10
338.582092
 20
213.427872
 40
1.200000
  1
DC24V
 50
0.100000
 41
1.052630
 51
0.000000
  7
STANDARD
  0
TEXT
  8
0
 10
342.719116
 20
207.811172
 40
2.000000
  1
B
 50
0.100000
 41
1.052632
 51
0.000000
  7
STANDARD
  0
TEXT
  8
0
 10
338.219116
 20
207.811172
 40
2.000000
  1
A
 50
0.100000
 41
1.052632
 51
0.000000
  7
STANDARD
  0
TEXT
  8
0
 10
345.884308
 20
198.959015
 40
1.599999
  1
B
 50
0.100000
 41
1.052632
 51
0.000000
  7
STANDARD
  0
TEXT
  8
0
 10
335.566925
 20
198.959015
 40
1.599999
  1
A
 50
0.100000
 41
1.052632
 51
0.000000
  7
STANDARD
  0
TEXT
  8
0
 10
340.725616
 20
195.371628
 40
1.599999
  1
0
 50
0.100000
 41
1.052632
 51
0.000000
  7
STANDARD
  0
TEXT
  8
0
 10
345.467712
 20
58.463001
 40
2.000000
  1
B
 50
0.000000
 41
1.052632
 51
0.000000
  7
STANDARD
  0
TEXT
  8
0
 10
335.467712
 20
36.463001
 40
2.000000
  1
A
 50
0.000000
 41
1.052632
 51
0.000000
  7
STANDARD
  0
TEXT
  8
0
 10
-196.230820
 20
-36.388828
 40
2.000000
  1
A
 50
0.100000
 41
1.052632
 51
0.000000
  7
STANDARD
  0
TEXT
  8
0
 10
-196.230820
 20
-43.388828
 40
2.000000
  1
B
 50
0.100000
 41
1.052632
 51
0.000000
  7
STANDARD
  0
TEXT
  8
0
 10
-194.117813
 20
-48.072113
 40
1.200000
  1
DC24V
 50
0.100000
 41
1.052630
 51
0.000000
  7
STANDARD
  0
TEXT
  8
0
 10
-189.980820
 20
-53.688816
 40
2.000000
  1
B
 50
0.100000
 41
1.052632
 51
0.000000
  7
STANDARD
  0
TEXT
  8
0
 10
-194.480820
 20
-53.688816
 40
2.000000
  1
A
 50
0.100000
 41
1.052632
 51
0.000000
  7
STANDARD
  0
TEXT
  8
0
 10
-186.815628
 20
-62.540981
 40
1.599999
  1
B
 50
0.100000
 41
1.052632
 51
0.000000
  7
STANDARD
  0
TEXT
  8
0
 10
-197.133011
 20
-62.540981
 40
1.599999
  1
A
 50
0.100000
 41
1.052632
 51
0.000000
  7
STANDARD
  0
TEXT
  8
0
 10
-191.974319
 20
-66.128372
 40
1.599999
  1
0
 50
0.100000
 41
1.052632
 51
0.000000
  7
STANDARD
  0
TEXT
  8
0
 10
70.119156
 20
-35.980061
 40
2.000000
  1
A
 50
0.100000
 41
1.052632
 51
0.000000
  7
STANDARD
  0
TEXT
  8
0
 10
70.119156
 20
-42.980061
 40
2.000000
  1
B
 50
0.100000
 41
1.052632
 51
0.000000
  7
STANDARD
  0
TEXT
  8
0
 10
72.232155
 20
-47.663345
 40
1.200000
  1
DC24V
 50
0.100000
 41
1.052630
 51
0.000000
  7
STANDARD
  0
TEXT
  8
0
 10
76.369156
 20
-53.280048
 40
2.000000
  1
B
 50
0.100000
 41
1.052632
 51
0.000000
  7
STANDARD
  0
TEXT
  8
0
 10
71.869156
 20
-53.280048
 40
2.000000
  1
A
 50
0.100000
 41
1.052632
 51
0.000000
  7
STANDARD
  0
TEXT
  8
0
 10
79.534370
 20
-62.132214
 40
1.599999
  1
B
 50
0.100000
 41
1.052632
 51
0.000000
  7
STANDARD
  0
TEXT
  8
0
 10
69.216927
 20
-62.132214
 40
1.599999
  1
A
 50
0.100000
 41
1.052632
 51
0.000000
  7
STANDARD
  0
TEXT
  8
0
 10
74.375648
 20
-65.719604
 40
1.599999
  1
0
 50
0.100000
 41
1.052632
 51
0.000000
  7
STANDARD
  0
TEXT
  8
0
 10
79.117722
 20
-204.036957
 40
2.000000
  1
B
 50
0.000000
 41
1.052632
 51
0.000000
  7
STANDARD
  0
TEXT
  8
0
 10
69.117722
 20
-226.036957
 40
2.000000
  1
A
 50
0.000000
 41
1.052632
 51
0.000000
  7
STANDARD
  0
TEXT
  8
0
 10
336.469177
 20
-36.388844
 40
2.000000
  1
A
 50
0.100000
 41
1.052632
 51
0.000000
  7
STANDARD
  0
TEXT
  8
0
 10
336.469177
 20
-43.388844
 40
2.000000
  1
B
 50
0.100000
 41
1.052632
 51
0.000000
  7
STANDARD
  0
TEXT
  8
0
 10
338.582153
 20
-48.072128
 40
1.200000
  1
DC24V
 50
0.100000
 41
1.052630
 51
0.000000
  7
STANDARD
  0
TEXT
  8
0
 10
342.719177
 20
-53.688831
 40
2.000000
  1
B
 50
0.100000
 41
1.052632
 51
0.000000
  7
STANDARD
  0
TEXT
  8
0
 10
338.219177
 20
-53.688831
 40
2.000000
  1
A
 50
0.100000
 41
1.052632
 51
0.000000
  7
STANDARD
  0
TEXT
  8
0
 10
345.884399
 20
-62.540997
 40
1.599999
  1
B
 50
0.100000
 41
1.052632
 51
0.000000
  7
STANDARD
  0
TEXT
  8
0
 10
335.566956
 20
-62.540997
 40
1.599999
  1
A
 50
0.100000
 41
1.052632
 51
0.000000
  7
STANDARD
  0
TEXT
  8
0
 10
340.725677
 20
-66.128387
 40
1.599999
  1
0
 50
0.100000
 41
1.052632
 51
0.000000
  7
STANDARD
  0
ENDSEC
  0
EOF
