  0
SECTION
  2
HEADER
  0
ENDSEC
  0
SECTION
  2
TABLES
  0
TABLE
  2
LTYPE
 70
     4
  0
LTYPE
  2
CONTINUOUS
 70
    64
  3
Solid line
 72
    65
 73
     0
 40
0.000000
  0
LTYPE
  2
DASHED
 70
    64
  3
__ __ __ __ __ __ __ __ __ __ __ __ __ __ __
 72
    65
 73
     2
 40
3.500000
 49
2.000000
 49
-1.500000
  0
LTYPE
  2
CENTER
 70
    64
  3
____ _ ____ _ ____ _ ____ _ ____ _ ____ _ ____
 72
    65
 73
     4
 40
17.500000
 49
13.000000
 49
-1.500000
 49
1.500000
 49
-1.500000
  0
LTYPE
  2
PHANTOM
 70
    64
  3
_____ _ _ _____ _ _ _____ _ _ _____ _ _ ____  
 72
    65
 73
     6
 40
15.500000
 49
8.000000
 49
-1.500000
 49
1.500000
 49
-1.500000
 49
1.500000
 49
-1.500000
  0
LTYPE
  2
DASHED1
 70
    64
  3
__ __ __ __ __ __ __ __ __ __ __ __ __ __ __
 72
    65
 73
     2
 40
1.500000
 49
1.000000
 49
-0.500000
  0
LTYPE
  2
DASHED2
 70
    64
  3
__ __ __ __ __ __ __ __ __ __ __ __ __ __ __
 72
    65
 73
     2
 40
3.500000
 49
2.500000
 49
-1.000000
  0
LTYPE
  2
DASHED3
 70
    64
  3
__ __ __ __ __ __ __ __ __ __ __ __ __ __ __
 72
    65
 73
     2
 40
6.000000
 49
4.000000
 49
-2.000000
  0
LTYPE
  2
DASHED4
 70
    64
  3
__ __ __ __ __ __ __ __ __ __ __ __ __ __ __
 72
    65
 73
     2
 40
12.000000
 49
10.000000
 49
-2.000000
  0
LTYPE
  2
DASHED5
 70
    64
  3
__ __ __ __ __ __ __ __ __ __ __ __ __ __ __
 72
    65
 73
     2
 40
17.000000
 49
15.000000
 49
-2.000000
  0
LTYPE
  2
DASHED6
 70
    64
  3
__ __ __ __ __ __ __ __ __ __ __ __ __ __ __
 72
    65
 73
     2
 40
29.000000
 49
27.000000
 49
-2.000000
  0
LTYPE
  2
PHANTOM1
 70
    64
  3
_____ _ _ _____ _ _ _____ _ _ _____ _ _ ____  
 72
    65
 73
     6
 40
31.000000
 49
25.000000
 49
-1.500000
 49
1.000000
 49
-1.000000
 49
1.000000
 49
-1.500000
  0
LTYPE
  2
PHANTOM2
 70
    64
  3
_____ _ _ _____ _ _ _____ _ _ _____ _ _ ____  
 72
    65
 73
     6
 40
36.000000
 49
27.000000
 49
-1.500000
 49
2.500000
 49
-1.000000
 49
2.500000
 49
-1.500000
  0
LTYPE
  2
PHANTOM3
 70
    64
  3
_____ _ _ _____ _ _ _____ _ _ _____ _ _ ____  
 72
    65
 73
     6
 40
78.000000
 49
64.000000
 49
-2.000000
 49
4.000000
 49
-2.000000
 49
4.000000
 49
-2.000000
  0
LTYPE
  2
CENTER1
 70
    64
  3
____ _ ____ _ ____ _ ____ _ ____ _ ____ _ ____
 72
    65
 73
     4
 40
19.000000
 49
14.000000
 49
-1.000000
 49
3.000000
 49
-1.000000
  0
LTYPE
  2
CENTER2
 70
    64
  3
____ _ ____ _ ____ _ ____ _ ____ _ ____ _ ____
 72
    65
 73
     4
 40
28.500000
 49
25.000000
 49
-1.000000
 49
1.500000
 49
-1.000000
  0
LTYPE
  2
CENTER3
 70
    64
  3
____ _ ____ _ ____ _ ____ _ ____ _ ____ _ ____
 72
    65
 73
     4
 40
31.500000
 49
27.000000
 49
-1.000000
 49
2.500000
 49
-1.000000
  0
LTYPE
  2
CENTER4
 70
    64
  3
____ _ ____ _ ____ _ ____ _ ____ _ ____ _ ____
 72
    65
 73
     4
 40
50.000000
 49
45.000000
 49
-1.000000
 49
3.000000
 49
-1.000000
  0
LTYPE
  2
CENTER5
 70
    64
  3
____ _ ____ _ ____ _ ____ _ ____ _ ____ _ ____
 72
    65
 73
     4
 40
100.000000
 49
92.000000
 49
-2.000000
 49
4.000000
 49
-2.000000
  0
LTYPE
  2
SBK1
 70
    64
  3
______ _ _ _ ______ _ _ _ ______ _ _ _ _____  
 72
    65
 73
     8
 40
60.500000
 49
45.000000
 49
-2.000000
 49
2.500000
 49
-2.000000
 49
2.500000
 49
-2.000000
 49
2.500000
 49
-2.000000
  0
LTYPE
  2
SBK2
 70
    64
  3
______ _ _ _ ______ _ _ _ ______ _ _ _ _____  
 72
    65
 73
     8
 40
84.000000
 49
64.000000
 49
-2.000000
 49
4.000000
 49
-2.000000
 49
4.000000
 49
-2.000000
 49
4.000000
 49
-2.000000
  0
LTYPE
  2
STCH
 70
    64
  3
__ __ __ __ __ __ __ __ __ __ __ __ __ __ __
 72
    65
 73
     2
 40
3.000000
 49
1.000000
 49
-2.000000
  0
LTYPE
  2
MTCH
 70
    64
  3
_____ _ _ _____ _ _ _____ _ _ _____ _ _ ____  
 72
    65
 73
     6
 40
80.000000
 49
66.000000
 49
-2.000000
 49
4.000000
 49
-2.000000
 49
4.000000
 49
-2.000000
  0
ENDTAB
  0
TABLE
  2
LAYER
 70
     1
  0
LAYER
  2
0
 70
     0
 62
     7
  6
CONTINUOUS
  0
ENDTAB
  0
TABLE
  2
STYLE
 70
     1
  0
STYLE
  2
STANDARD
 70
     0
 40
0.000000
 41
1.000000
 50
0.000000
 71
     0
 42
0.200000
  3
txt
  4
BIGFONT
  0
ENDTAB
  0
TABLE
  2
VIEW
 70
     0
  0
ENDTAB
  0
ENDSEC
  0
SECTION
  2
BLOCKS
  0
ENDSEC
  0
SECTION
  2
ENTITIES
  0
LINE
  8
0
  6
CENTER
 62
     2
 10
34.000000
 20
26.173086
 11
34.000000
 21
18.384956
  0
LINE
  8
0
 10
-68.000000
 20
62.000000
 11
-42.999996
 21
62.000000
  0
LINE
  8
0
 10
-82.000000
 20
61.000000
 11
-74.000000
 21
61.000000
  0
LINE
  8
0
 10
-82.000000
 20
-1.000000
 11
-74.000000
 21
-1.000000
  0
LINE
  8
0
 10
-68.000000
 20
-2.000000
 11
-42.999996
 21
-2.000000
  0
LINE
  8
0
 10
-74.000000
 20
61.000000
 11
-74.000000
 21
-1.000000
  0
LINE
  8
0
  6
CENTER
 62
     2
 10
-83.873642
 20
30.000000
 11
79.768951
 21
30.000000
  0
LINE
  8
0
 10
-82.000000
 20
61.000000
 11
-82.000000
 21
-1.000000
  0
LINE
  8
0
  6
CENTER
 62
     2
 10
-81.041855
 20
46.000000
 11
-74.697266
 21
46.000000
  0
LINE
  8
0
  6
CENTER
 62
     2
 10
-78.000000
 20
17.279510
 11
-78.000000
 21
10.850765
  0
LINE
  8
0
  6
CENTER
 62
     2
 10
-81.489166
 20
14.000000
 11
-74.763542
 21
14.000000
  0
LINE
  8
0
 10
-74.000000
 20
47.500000
 11
-68.000000
 21
47.500000
  0
LINE
  8
0
 10
-74.000000
 20
55.500000
 11
-68.000000
 21
55.500000
  0
LINE
  8
0
 10
-74.000000
 20
4.500000
 11
-68.000000
 21
4.500000
  0
LINE
  8
0
 10
-74.000000
 20
12.500000
 11
-68.000000
 21
12.500000
  0
LINE
  8
0
  6
CENTER
 62
     2
 10
-75.338760
 20
51.500000
 11
-65.598999
 21
51.500000
  0
LINE
  8
0
  6
CENTER
 62
     2
 10
-75.338760
 20
8.500000
 11
-65.598999
 21
8.500000
  0
LINE
  8
0
  6
CENTER
 62
     2
 10
-53.499996
 20
44.028301
 11
-53.499996
 21
34.458496
  0
LINE
  8
0
  6
CENTER
 62
     2
 10
-62.500000
 20
44.507332
 11
-62.500000
 21
34.456463
  0
LINE
  8
0
  6
CENTER
 62
     2
 10
-67.034615
 20
39.500000
 11
-48.974224
 21
39.500000
  0
LINE
  8
0
  6
CENTER
 62
     2
 10
-67.222214
 20
20.500000
 11
-48.806293
 21
20.500000
  0
LINE
  8
0
  6
CENTER
 62
     2
 10
-62.500000
 20
25.077499
 11
-62.500000
 21
15.984493
  0
LINE
  8
0
  6
CENTER
 62
     2
 10
-53.499996
 20
25.220478
 11
-53.499996
 21
15.984493
  0
LINE
  8
0
 10
-48.999996
 20
42.000000
 11
-48.999996
 21
18.000000
  0
LINE
  8
0
 10
-48.999996
 20
18.000000
 11
29.000000
 21
18.000000
  0
LINE
  8
0
 10
-48.999996
 20
42.000000
 11
29.000000
 21
42.000000
  0
LINE
  8
0
 10
-46.999996
 20
40.000000
 11
29.000000
 21
40.000000
  0
LINE
  8
0
 10
-46.999996
 20
20.000000
 11
29.000000
 21
20.000000
  0
LINE
  8
0
 10
-46.999996
 20
40.000000
 11
-46.999996
 21
20.000000
  0
LINE
  8
0
 10
-48.999996
 20
42.000011
 11
-46.999996
 21
40.000011
  0
LINE
  8
0
 10
-48.999992
 20
17.999992
 11
-46.999992
 21
19.999992
  0
LINE
  8
0
 10
18.000000
 20
62.000000
 11
39.000000
 21
62.000000
  0
LINE
  8
0
 10
18.000000
 20
-2.000000
 11
39.000000
 21
-2.000000
  0
LINE
  8
0
 10
-42.999996
 20
-1.799999
 11
18.000000
 21
-1.799999
  0
LINE
  8
0
 10
-42.999996
 20
61.800003
 11
18.000000
 21
61.800003
  0
LINE
  8
0
 10
-42.999996
 20
28.500000
 11
18.000000
 21
28.500000
  0
LINE
  8
0
 10
-42.999996
 20
31.500000
 11
18.000000
 21
31.500000
  0
LINE
  8
0
 10
-42.999996
 20
33.375000
 11
18.000000
 21
33.375000
  0
LINE
  8
0
 10
-42.999996
 20
26.625000
 11
18.000000
 21
26.625000
  0
LINE
  8
0
 10
-42.999996
 20
22.375000
 11
18.000000
 21
22.375000
  0
LINE
  8
0
 10
-42.999996
 20
37.625000
 11
18.000000
 21
37.625000
  0
LINE
  8
0
 10
-1.750000
 20
31.250000
 11
-1.000000
 21
31.250000
  0
LINE
  8
0
 10
0.000000
 20
31.250000
 11
0.750000
 21
31.250000
  0
LINE
  8
0
 10
-1.750000
 20
28.750000
 11
-1.000000
 21
28.750000
  0
LINE
  8
0
 10
0.000000
 20
28.750000
 11
0.750000
 21
28.750000
  0
LINE
  8
0
 10
-70.000000
 20
36.000000
 11
-70.000000
 21
24.000000
  0
LINE
  8
0
 10
-73.464096
 20
30.000000
 11
-70.535904
 21
30.000000
  0
LINE
  8
0
 10
-74.000000
 20
36.000000
 11
-70.000000
 21
36.000000
  0
LINE
  8
0
 10
-74.000000
 20
24.000000
 11
-70.000000
 21
24.000000
  0
LINE
  8
0
 10
-70.000000
 20
27.500000
 11
-68.000000
 21
27.500000
  0
LINE
  8
0
 10
-70.000000
 20
32.499996
 11
-68.000000
 21
32.499996
  0
LINE
  8
0
 10
70.000000
 20
61.000000
 11
70.000000
 21
-1.000000
  0
LINE
  8
0
 10
70.000000
 20
61.000000
 11
78.000000
 21
61.000000
  0
LINE
  8
0
 10
70.000000
 20
-1.000000
 11
78.000000
 21
-1.000000
  0
LINE
  8
0
  6
CENTER
 62
     2
 10
35.552994
 20
8.500000
 11
73.892700
 21
8.500000
  0
LINE
  8
0
  6
CENTER
 62
     2
 10
34.706390
 20
51.500000
 11
72.920258
 21
51.500000
  0
LINE
  8
0
 10
39.000000
 20
61.800003
 11
39.000000
 21
-2.000000
  0
LINE
  8
0
  6
CENTER
 62
     2
 10
34.000000
 20
42.078629
 11
34.000000
 21
34.018871
  0
LINE
  8
0
  6
CENTER
 62
     2
 10
29.799286
 20
22.000000
 11
37.789810
 21
22.000000
  0
LINE
  8
0
  6
CENTER
 62
     2
 10
29.727951
 20
38.000000
 11
38.099548
 21
38.000000
  0
LINE
  8
0
 10
39.000000
 20
47.500000
 11
70.000000
 21
47.500000
  0
LINE
  8
0
 10
39.000000
 20
55.500000
 11
70.000000
 21
55.500000
  0
LINE
  8
0
 10
39.000000
 20
12.500000
 11
70.000000
 21
12.500000
  0
LINE
  8
0
 10
39.000000
 20
4.500000
 11
70.000000
 21
4.500000
  0
LINE
  8
0
  6
CENTER
 62
     2
 10
74.000000
 20
49.537712
 11
74.000000
 21
42.791885
  0
LINE
  8
0
  6
CENTER
 62
     2
 10
70.665787
 20
14.000000
 11
77.181274
 21
14.000000
  0
LINE
  8
0
  6
CENTER
 62
     2
 10
70.808441
 20
46.000000
 11
77.299164
 21
46.000000
  0
LINE
  8
0
  6
CENTER
 62
     2
 10
74.000000
 20
17.542725
 11
74.000000
 21
10.695496
  0
LINE
  8
0
 10
26.250000
 20
37.250000
 11
29.000000
 21
37.250000
  0
LINE
  8
0
 10
26.250000
 20
33.750000
 11
29.000000
 21
33.750000
  0
LINE
  8
0
 10
26.250000
 20
26.250000
 11
29.000000
 21
26.250000
  0
LINE
  8
0
 10
26.250000
 20
22.750000
 11
29.000000
 21
22.750000
  0
LINE
  8
0
 62
     4
 10
-42.999996
 20
80.800003
 11
18.000000
 21
80.800003
  0
LINE
  8
0
 62
     4
 10
18.000000
 20
81.000000
 11
29.000000
 21
81.000000
  0
LINE
  8
0
 10
-68.000000
 20
-2.000000
 11
-68.000000
 21
62.000000
  0
LINE
  8
0
 10
-42.999996
 20
-2.000000
 11
-42.999996
 21
62.000000
  0
LINE
  8
0
 62
     4
 10
18.000000
 20
81.000000
 11
18.000000
 21
62.000000
  0
LINE
  8
0
 10
29.000000
 20
-2.000000
 11
29.000000
 21
62.000000
  0
LINE
  8
0
  6
CENTER
 62
     1
 10
-58.713161
 20
69.500000
 11
31.874619
 21
69.500000
  0
LINE
  8
0
 62
     4
 10
30.000000
 20
64.500000
 11
30.000000
 21
74.500000
  0
LINE
  8
0
 62
     4
 10
29.000067
 20
75.500069
 11
30.000067
 21
74.500061
  0
LINE
  8
0
 62
     4
 10
29.000023
 20
63.499992
 11
30.000017
 21
64.499985
  0
LINE
  8
0
 62
     1
 10
29.000000
 20
64.500000
 11
30.000000
 21
64.500000
  0
LINE
  8
0
 62
     1
 10
29.000000
 20
74.500000
 11
30.000000
 21
74.500000
  0
LINE
  8
0
 62
     2
 10
-70.000008
 20
32.000027
 11
-69.133987
 21
32.500027
  0
LINE
  8
0
 62
     2
 10
-69.999985
 20
27.999983
 11
-69.133965
 21
27.499985
  0
LINE
  8
0
  6
CENTER
 62
     2
 10
-78.000000
 20
49.000000
 11
-78.000000
 21
43.000000
  0
LINE
  8
0
 10
78.000000
 20
61.000000
 11
78.000000
 21
-1.000000
  0
LINE
  8
0
  6
CENTER
 62
     2
 10
23.843842
 20
35.500000
 11
29.000000
 21
35.500000
  0
LINE
  8
0
  6
CENTER
 62
     2
 10
23.505585
 20
24.500000
 11
29.000000
 21
24.500000
  0
LINE
  8
0
  6
CENTER
 62
     2
 10
26.250000
 20
38.232452
 11
26.250000
 21
22.081024
  0
LINE
  8
0
 62
     4
 10
-42.999996
 20
62.000000
 11
-42.999996
 21
81.000000
  0
LINE
  8
0
 10
18.000000
 20
62.000000
 11
18.000000
 21
-2.000000
  0
LINE
  8
0
 62
     4
 10
29.000000
 20
62.000000
 11
29.000000
 21
81.000000
  0
LINE
  8
0
 62
     4
 10
-42.999996
 20
81.000000
 11
-53.999996
 21
81.000000
  0
LINE
  8
0
 62
     4
 10
-53.999996
 20
62.000000
 11
-53.999996
 21
81.000000
  0
LINE
  8
0
 62
     4
 10
-54.999996
 20
64.500000
 11
-54.999996
 21
74.500000
  0
LINE
  8
0
 62
     4
 10
-54.000072
 20
75.500069
 11
-55.000076
 21
74.500069
  0
LINE
  8
0
 62
     4
 10
-54.000011
 20
63.499992
 11
-55.000004
 21
64.499985
  0
LINE
  8
0
 62
     1
 10
-53.999996
 20
64.500000
 11
-54.999996
 21
64.500000
  0
LINE
  8
0
 62
     1
 10
-53.999996
 20
74.500000
 11
-54.999996
 21
74.500000
  0
LINE
  8
0
  6
PHANTOM
 62
     3
 10
-12.500000
 20
-39.974445
 11
-12.500000
 21
99.821960
  0
LINE
  8
0
  6
PHANTOM
 62
     3
 10
54.500000
 20
85.985931
 11
54.500000
 21
-39.974445
  0
LINE
  8
0
  6
CENTER
 62
     2
 10
-189.054794
 20
30.000004
 11
-157.645798
 21
30.000004
  0
LINE
  8
0
 10
-186.999985
 20
-1.999996
 11
-161.999985
 21
-1.999996
  0
LINE
  8
0
 10
-186.999985
 20
62.000004
 11
-161.999985
 21
62.000004
  0
LINE
  8
0
 10
-186.999985
 20
62.000004
 11
-186.999985
 21
-1.999996
  0
LINE
  8
0
  6
CENTER
 62
     2
 10
-175.999985
 20
65.000000
 11
-175.999985
 21
-3.918549
  0
LINE
  8
0
 10
-165.999985
 20
61.000004
 11
-165.999985
 21
-0.999996
  0
LINE
  8
0
 10
-185.999985
 20
61.000004
 11
-185.999985
 21
-0.999996
  0
LINE
  8
0
 10
-185.999985
 20
-0.999996
 11
-165.999985
 21
-0.999996
  0
LINE
  8
0
 10
-185.999985
 20
61.000004
 11
-165.999985
 21
61.000004
  0
LINE
  8
0
 10
-161.999985
 20
62.000004
 11
-161.999985
 21
-1.999996
  0
LINE
  8
0
 10
-172.524918
 20
36.018909
 11
-169.049927
 21
30.000032
  0
LINE
  8
0
 10
-169.050018
 20
30.000006
 11
-172.525024
 21
23.981133
  0
LINE
  8
0
 10
-172.525009
 20
23.981041
 11
-179.474991
 21
23.981041
  0
LINE
  8
0
 10
-179.475052
 20
23.981129
 11
-182.950043
 21
30.000008
  0
LINE
  8
0
 10
-182.950012
 20
29.999985
 11
-179.475021
 21
36.018860
  0
LINE
  8
0
 10
-179.474991
 20
36.018879
 11
-172.524979
 21
36.018879
  0
LINE
  8
0
  6
CENTER
 62
     2
 10
-179.611374
 20
17.500004
 11
-172.277603
 21
17.500004
  0
LINE
  8
0
  6
CENTER
 62
     2
 10
-179.262222
 20
42.500004
 11
-172.277603
 21
42.500004
  0
LINE
  8
0
  6
CENTER
 62
     2
 10
-181.433731
 20
8.500004
 11
-171.115372
 21
8.500004
  0
LINE
  8
0
  6
CENTER
 62
     2
 10
-181.857651
 20
51.500004
 11
-171.231766
 21
51.500004
  0
LINE
  8
0
 10
-175.100067
 20
53.058853
 11
-174.200058
 21
51.500008
  0
LINE
  8
0
 10
-174.200027
 20
51.500008
 11
-175.100037
 21
49.941170
  0
LINE
  8
0
 10
-175.099991
 20
49.941158
 11
-176.899979
 21
49.941158
  0
LINE
  8
0
 10
-176.900024
 20
49.941128
 11
-177.800034
 21
51.499985
  0
LINE
  8
0
 10
-177.800079
 20
51.500065
 11
-176.900070
 21
53.058910
  0
LINE
  8
0
 10
-176.899979
 20
53.058849
 11
-175.099991
 21
53.058849
  0
LINE
  8
0
 10
-175.099899
 20
10.058891
 11
-174.199890
 21
8.500047
  0
LINE
  8
0
 10
-174.200134
 20
8.500113
 11
-175.100159
 21
6.941259
  0
LINE
  8
0
 10
-175.099991
 20
6.941158
 11
-176.899979
 21
6.941158
  0
LINE
  8
0
 10
-176.900024
 20
6.941153
 11
-177.800034
 21
8.499997
  0
LINE
  8
0
 10
-177.800079
 20
8.500022
 11
-176.900040
 21
10.058883
  0
LINE
  8
0
 10
-176.899979
 20
10.058849
 11
-175.099991
 21
10.058849
  0
LINE
  8
0
 10
-161.999985
 20
42.000008
 11
-159.999985
 21
40.000004
  0
LINE
  8
0
 10
-159.999985
 20
40.000004
 11
-159.999985
 21
20.000004
  0
LINE
  8
0
 10
-161.999985
 20
17.999977
 11
-159.999969
 21
19.999977
  0
LINE
  8
0
 62
     4
 10
-186.999985
 20
81.000000
 11
-161.999985
 21
81.000000
  0
LINE
  8
0
 62
     4
 10
-186.999985
 20
62.000004
 11
-186.999985
 21
81.000000
  0
LINE
  8
0
 62
     4
 10
-161.999985
 20
81.000000
 11
-161.999985
 21
62.000004
  0
LINE
  8
0
  6
CENTER
 62
     1
 10
-182.835434
 20
69.400009
 11
-166.313217
 21
69.400009
  0
LINE
  8
0
  6
CENTER
 62
     1
 10
-174.499985
 20
78.020355
 11
-174.499985
 21
62.690456
  0
LINE
  8
0
 10
194.000015
 20
61.999996
 11
194.000015
 21
-2.000004
  0
LINE
  8
0
 10
169.000015
 20
61.999996
 11
169.000015
 21
-2.000004
  0
LINE
  8
0
  6
CENTER
 62
     2
 10
164.860397
 20
29.999996
 11
196.607498
 21
29.999996
  0
LINE
  8
0
  6
CENTER
 62
     2
 10
183.000015
 20
63.953716
 11
183.000015
 21
-3.702549
  0
LINE
  8
0
 10
168.999969
 20
41.800041
 11
166.999969
 21
39.800037
  0
LINE
  8
0
 10
167.000015
 20
39.799999
 11
167.000015
 21
19.999998
  0
LINE
  8
0
 10
166.999969
 20
19.999956
 11
168.999969
 21
17.999952
  0
LINE
  8
0
  6
CENTER
 62
     2
 10
166.042343
 20
24.499996
 11
170.864761
 21
24.499996
  0
LINE
  8
0
  6
CENTER
 62
     2
 10
165.930038
 20
35.499996
 11
171.035110
 21
35.499996
  0
LINE
  8
0
 10
167.000015
 20
37.124805
 11
169.000015
 21
37.124805
  0
LINE
  8
0
 10
167.000015
 20
33.875187
 11
169.000015
 21
33.875187
  0
LINE
  8
0
 10
167.000015
 20
26.124805
 11
169.000015
 21
26.124805
  0
LINE
  8
0
 10
167.000015
 20
22.875187
 11
169.000015
 21
22.875187
  0
LINE
  8
0
 10
193.000015
 20
60.999996
 11
193.000015
 21
-1.000004
  0
LINE
  8
0
 10
173.000015
 20
60.999996
 11
173.000015
 21
-1.000004
  0
LINE
  8
0
 10
173.000015
 20
-1.000004
 11
193.000015
 21
-1.000004
  0
LINE
  8
0
 10
173.000015
 20
60.999996
 11
193.000015
 21
60.999996
  0
LINE
  8
0
 10
182.100021
 20
53.058834
 11
183.900009
 21
53.058834
  0
LINE
  8
0
 10
181.200043
 20
51.499981
 11
182.100037
 21
53.058819
  0
LINE
  8
0
 10
182.100250
 20
49.941246
 11
181.200256
 21
51.500076
  0
LINE
  8
0
 10
183.900009
 20
49.941177
 11
182.100021
 21
49.941177
  0
LINE
  8
0
 10
184.799988
 20
51.499966
 11
183.899994
 21
49.941132
  0
LINE
  8
0
 10
183.900177
 20
53.058903
 11
184.800171
 21
51.500069
  0
LINE
  8
0
 10
183.900040
 20
10.058868
 11
182.100021
 21
10.058868
  0
LINE
  8
0
 10
182.100052
 20
10.058833
 11
181.200043
 21
8.499971
  0
LINE
  8
0
 10
181.200165
 20
8.500060
 11
182.100174
 21
6.941198
  0
LINE
  8
0
 10
182.099991
 20
6.941147
 11
183.900009
 21
6.941147
  0
LINE
  8
0
 10
183.900055
 20
6.941099
 11
184.800064
 21
8.499961
  0
LINE
  8
0
 10
184.800232
 20
8.500040
 11
183.900223
 21
10.058902
  0
LINE
  8
0
 10
169.000015
 20
-2.000004
 11
194.000015
 21
-2.000004
  0
LINE
  8
0
 10
169.000015
 20
61.999996
 11
194.000015
 21
61.999996
  0
LINE
  8
0
 62
     4
 10
169.000015
 20
81.000000
 11
194.000015
 21
81.000000
  0
LINE
  8
0
 62
     4
 10
169.000015
 20
61.999996
 11
169.000015
 21
81.000000
  0
LINE
  8
0
 62
     4
 10
194.000015
 20
81.000000
 11
194.000015
 21
61.999996
  0
LINE
  8
0
  6
CENTER
 62
     1
 10
173.164566
 20
69.399994
 11
189.686783
 21
69.399994
  0
LINE
  8
0
  6
CENTER
 62
     1
 10
181.500015
 20
78.020340
 11
181.500015
 21
62.690449
  0
LINE
  8
0
  6
CENTER
 62
     2
 10
178.000015
 20
51.499996
 11
188.000015
 21
51.499996
  0
LINE
  8
0
  6
CENTER
 62
     2
 10
178.000015
 20
8.499996
 11
188.000015
 21
8.499996
  0
LINE
  8
0
  6
CENTER
 62
     2
 10
178.680023
 20
17.499996
 11
187.320023
 21
17.499996
  0
LINE
  8
0
  6
CENTER
 62
     2
 10
178.680023
 20
42.499996
 11
187.320023
 21
42.499996
  0
LINE
  8
0
  6
CENTER
 62
     2
 10
-86.810822
 20
-95.000000
 11
83.816238
 21
-95.000000
  0
LINE
  8
0
 10
-67.999985
 20
-106.000000
 11
-42.999989
 21
-106.000000
  0
LINE
  8
0
 10
18.000015
 20
-106.000000
 11
39.000015
 21
-106.000000
  0
LINE
  8
0
 10
-42.999989
 20
-105.800003
 11
18.000015
 21
-105.800003
  0
LINE
  8
0
 10
-67.999985
 20
-81.000000
 11
-42.999989
 21
-81.000000
  0
LINE
  8
0
 10
-46.999989
 20
-79.000000
 11
-42.999989
 21
-79.000000
  0
LINE
  8
0
 10
-49.000008
 20
-80.999992
 11
-47.000004
 21
-78.999992
  0
LINE
  8
0
 10
-67.999985
 20
-81.000000
 11
-67.999985
 21
-106.000000
  0
LINE
  8
0
 10
-42.999989
 20
-79.000000
 11
-42.999989
 21
-106.000000
  0
LINE
  8
0
 10
18.000015
 20
-79.000000
 11
18.000015
 21
-106.000000
  0
LINE
  8
0
 10
29.000015
 20
-79.000000
 11
29.000015
 21
-106.000000
  0
LINE
  8
0
 10
-81.999985
 20
-105.000000
 11
-73.999985
 21
-105.000000
  0
LINE
  8
0
 10
-81.999985
 20
-85.000000
 11
-73.999985
 21
-85.000000
  0
LINE
  8
0
 10
-73.999985
 20
-85.000000
 11
-73.999985
 21
-105.000000
  0
LINE
  8
0
 10
-81.999985
 20
-85.000000
 11
-81.999985
 21
-105.000000
  0
LINE
  8
0
  6
CENTER
 62
     2
 10
20.276474
 20
-102.000000
 11
26.921051
 21
-102.000000
  0
LINE
  8
0
  6
CENTER
 62
     2
 10
20.093597
 20
-85.000000
 11
27.103928
 21
-85.000000
  0
LINE
  8
0
  6
CENTER
 62
     2
 10
23.500015
 20
-81.528076
 11
23.500015
 21
-88.333702
  0
LINE
  8
0
  6
CENTER
 62
     2
 10
-48.499989
 20
-81.763840
 11
-48.499989
 21
-88.007248
  0
LINE
  8
0
  6
CENTER
 62
     2
 10
-62.499985
 20
-81.526550
 11
-62.499985
 21
-88.030975
  0
LINE
  8
0
  6
CENTER
 62
     2
 10
-51.794857
 20
-85.000000
 11
-45.368584
 21
-85.000000
  0
LINE
  8
0
  6
CENTER
 62
     2
 10
-62.499985
 20
-98.815063
 11
-62.499985
 21
-105.074425
  0
LINE
  8
0
  6
CENTER
 62
     2
 10
-48.499989
 20
-98.773338
 11
-48.499989
 21
-105.074425
  0
LINE
  8
0
  6
CENTER
 62
     2
 10
-51.794857
 20
-102.000000
 11
-45.201668
 21
-102.000000
  0
LINE
  8
0
  6
CENTER
 62
     2
 10
23.500015
 20
-98.574890
 11
23.500015
 21
-105.219475
  0
LINE
  8
0
  6
CENTER
 62
     2
 10
-77.999985
 20
-86.000000
 11
-77.999985
 21
-92.180145
  0
LINE
  8
0
  6
CENTER
 62
     2
 10
-77.999985
 20
-97.897034
 11
-77.999985
 21
-104.031197
  0
LINE
  8
0
 10
-73.530045
 20
-101.949997
 11
-70.469933
 21
-101.949997
  0
LINE
  8
0
 10
-73.530045
 20
-88.050003
 11
-70.469925
 21
-88.050003
  0
LINE
  8
0
 10
-69.999985
 20
-89.803848
 11
-69.999985
 21
-91.000000
  0
LINE
  8
0
 10
-70.000031
 20
-89.803886
 11
-70.469971
 21
-88.050034
  0
LINE
  8
0
 10
-69.999985
 20
-100.196136
 11
-70.469925
 21
-101.949989
  0
LINE
  8
0
 10
-69.999985
 20
-100.196152
 11
-69.999985
 21
-99.000000
  0
LINE
  8
0
 10
-74.000023
 20
-89.803848
 11
-73.530090
 21
-88.050011
  0
LINE
  8
0
 10
-73.999985
 20
-100.196175
 11
-73.530052
 21
-101.950020
  0
LINE
  8
0
 10
-73.999985
 20
-99.000000
 11
-67.999985
 21
-99.000000
  0
LINE
  8
0
 10
-73.999985
 20
-91.000000
 11
-67.999985
 21
-91.000000
  0
LINE
  8
0
 10
-42.999989
 20
-81.199997
 11
18.000015
 21
-81.199997
  0
LINE
  8
0
 10
-42.999989
 20
-79.199997
 11
18.000015
 21
-79.199997
  0
LINE
  8
0
 10
18.000015
 20
-79.000000
 11
29.000015
 21
-79.000000
  0
LINE
  8
0
 10
18.000015
 20
-81.000000
 11
39.000015
 21
-81.000000
  0
LINE
  8
0
  6
CENTER
 62
     2
 10
-81.135513
 20
-101.000000
 11
-74.578911
 21
-101.000000
  0
LINE
  8
0
  6
CENTER
 62
     2
 10
-81.371277
 20
-89.000000
 11
-74.495453
 21
-89.000000
  0
LINE
  8
0
 10
39.000015
 20
-81.000000
 11
39.000015
 21
-106.000000
  0
LINE
  8
0
 10
39.000015
 20
-99.000000
 11
70.000015
 21
-99.000000
  0
LINE
  8
0
 10
39.000015
 20
-91.000000
 11
70.000015
 21
-91.000000
  0
LINE
  8
0
 10
70.000015
 20
-85.000000
 11
70.000015
 21
-105.000000
  0
LINE
  8
0
 10
70.000015
 20
-105.000000
 11
78.000015
 21
-105.000000
  0
LINE
  8
0
 10
70.000015
 20
-85.000000
 11
78.000015
 21
-85.000000
  0
LINE
  8
0
 10
78.000015
 20
-85.000000
 11
78.000015
 21
-105.000000
  0
LINE
  8
0
  6
CENTER
 62
     2
 10
70.761734
 20
-101.000000
 11
77.205368
 21
-101.000000
  0
LINE
  8
0
  6
CENTER
 62
     2
 10
70.761734
 20
-89.000000
 11
77.350204
 21
-89.000000
  0
LINE
  8
0
  6
CENTER
 62
     2
 10
74.000015
 20
-85.706131
 11
74.000015
 21
-92.368744
  0
LINE
  8
0
  6
CENTER
 62
     2
 10
74.000015
 20
-97.679527
 11
74.000015
 21
-104.342140
  0
LINE
  8
0
  6
CENTER
 62
     2
 10
-65.803162
 20
-85.000000
 11
-58.900135
 21
-85.000000
  0
LINE
  8
0
  6
CENTER
 62
     2
 10
-65.499985
 20
-102.000000
 11
-59.499989
 21
-102.000000
  0
LINE
  8
0
  6
PHANTOM
 62
     3
 10
-12.499985
 20
-39.981041
 11
-12.499985
 21
-112.448074
  0
LINE
  8
0
  6
PHANTOM
 62
     3
 10
54.500015
 20
-39.981041
 11
54.500015
 21
-112.448074
  0
LINE
  8
0
 10
-281.250000
 20
195.500000
 11
282.099976
 21
195.500000
  0
LINE
  8
0
 10
-281.250000
 20
195.500000
 11
-281.250000
 21
-195.000000
  0
LINE
  8
0
 10
282.099976
 20
195.500000
 11
282.099976
 21
-195.000000
  0
LINE
  8
0
 10
-281.250000
 20
-195.000000
 11
282.099976
 21
-195.000000
  0
LINE
  8
0
 10
162.099976
 20
-175.000000
 11
162.099976
 21
-195.000000
  0
LINE
  8
0
 10
162.099976
 20
-175.000000
 11
282.099976
 21
-175.000000
  0
LINE
  8
0
 10
162.099976
 20
175.500000
 11
282.099976
 21
175.500000
  0
LINE
  8
0
 10
-281.250000
 20
175.500000
 11
-161.250000
 21
175.500000
  0
LINE
  8
0
 10
162.099976
 20
195.500000
 11
162.099976
 21
175.500000
  0
LINE
  8
0
 10
-161.250000
 20
195.500000
 11
-161.250000
 21
175.500000
  0
LINE
  8
0
 10
-271.250000
 20
-185.000000
 11
-89.250000
 21
-185.000000
  0
LINE
  8
0
 10
-271.250000
 20
-153.000000
 11
-89.250000
 21
-153.000000
  0
LINE
  8
0
 10
-271.250000
 20
-129.000000
 11
-271.250000
 21
-185.000000
  0
LINE
  8
0
 10
-221.250000
 20
-153.000000
 11
-221.250000
 21
-185.000000
  0
LINE
  8
0
 10
-177.250000
 20
-129.000000
 11
-177.250000
 21
-185.000000
  0
LINE
  8
0
 10
-155.250000
 20
-129.000000
 11
-155.250000
 21
-185.000000
  0
LINE
  8
0
 10
-133.250000
 20
-129.000000
 11
-133.250000
 21
-185.000000
  0
LINE
  8
0
 10
-111.250000
 20
-129.000000
 11
-111.250000
 21
-185.000000
  0
LINE
  8
0
 10
-89.250000
 20
-129.000000
 11
-89.250000
 21
-185.000000
  0
LINE
  8
0
 10
-271.250000
 20
-129.000000
 11
-89.250000
 21
-129.000000
  0
LINE
  8
0
 10
-221.250000
 20
-177.000000
 11
-89.250000
 21
-177.000000
  0
LINE
  8
0
 10
-221.250000
 20
-161.000000
 11
-89.250000
 21
-161.000000
  0
LINE
  8
0
 10
-271.250000
 20
-169.000000
 11
-89.250000
 21
-169.000000
  0
LINE
  8
0
 10
-199.250000
 20
-129.000000
 11
-199.250000
 21
-185.000000
  0
LINE
  8
0
 10
-221.250015
 20
-153.000000
 11
-271.250031
 21
-129.000000
  0
LINE
  8
0
 10
-249.250000
 20
-137.000000
 11
-208.487595
 21
-137.000000
  0
LINE
  8
0
 10
-199.250000
 20
-153.000000
 11
-208.487595
 21
-137.000000
  0
LINE
  8
0
 10
-249.250000
 20
-137.000015
 11
-271.250000
 21
-129.000000
  0
CIRCLE
  8
0
 10
34.000000
 20
38.000000
 40
2.100000
  0
CIRCLE
  8
0
 10
34.000000
 20
22.000000
 40
2.100000
  0
CIRCLE
  8
0
 10
-78.000000
 20
14.000000
 40
1.650000
  0
CIRCLE
  8
0
 10
74.000000
 20
14.000000
 40
1.650000
  0
CIRCLE
  8
0
 10
-78.000000
 20
46.000000
 40
1.650000
  0
CIRCLE
  8
0
 10
74.000000
 20
46.000000
 40
1.650000
  0
CIRCLE
  8
0
 10
-53.499996
 20
20.500000
 40
4.000000
  0
CIRCLE
  8
0
 10
-62.500000
 20
39.500000
 40
4.000000
  0
CIRCLE
  8
0
 10
-62.500000
 20
20.500000
 40
4.000000
  0
CIRCLE
  8
0
 10
-53.499996
 20
39.500000
 40
4.000000
  0
ARC
  8
0
 10
26.250000
 20
24.500000
 40
1.750000
 50
90.000000
 51
270.000000
  0
CIRCLE
  8
0
 62
     2
 10
74.000000
 20
46.000000
 40
2.000000
  0
ARC
  8
0
 10
26.250000
 20
35.500000
 40
1.750000
 50
90.000000
 51
270.000000
  0
CIRCLE
  8
0
 62
     2
 10
34.000000
 20
22.000000
 40
2.500000
  0
CIRCLE
  8
0
 62
     2
 10
74.000000
 20
14.000000
 40
2.000000
  0
CIRCLE
  8
0
 62
     2
 10
-78.000000
 20
46.000000
 40
2.000000
  0
CIRCLE
  8
0
 62
     2
 10
-78.000000
 20
14.000000
 40
2.000000
  0
CIRCLE
  8
0
 10
-62.500000
 20
39.500000
 40
2.250000
  0
CIRCLE
  8
0
 10
-53.499996
 20
39.500000
 40
2.250000
  0
CIRCLE
  8
0
 10
-62.500000
 20
20.500000
 40
2.250000
  0
CIRCLE
  8
0
 10
-53.499996
 20
20.500000
 40
2.250000
  0
ARC
  8
0
 10
-1.750000
 20
30.000000
 40
1.249999
 50
87.337410
 51
272.663452
  0
ARC
  8
0
 10
-0.500000
 20
31.250000
 40
0.500000
 50
180.000000
 51
0.000000
  0
ARC
  8
0
 10
-0.500000
 20
28.750000
 40
0.500000
 50
0.000000
 51
180.000000
  0
ARC
  8
0
 10
0.750000
 20
30.000000
 40
1.250000
 50
270.000031
 51
89.999977
  0
ARC
  8
0
 10
-65.334961
 20
33.000000
 40
8.665034
 50
159.743790
 51
200.256195
  0
ARC
  8
0
 10
-78.665039
 20
33.000000
 40
8.665035
 50
339.743774
 51
20.256163
  0
ARC
  8
0
 10
-65.334961
 20
27.000000
 40
8.665037
 50
159.743744
 51
200.256119
  0
ARC
  8
0
 10
-78.665039
 20
27.000000
 40
8.665035
 50
339.743774
 51
20.256163
  0
CIRCLE
  8
0
 62
     2
 10
34.000000
 20
38.000000
 40
2.500000
  0
CIRCLE
  8
0
 10
-175.999985
 20
17.500004
 40
2.100000
  0
CIRCLE
  8
0
 10
-175.999985
 20
42.500004
 40
2.100000
  0
CIRCLE
  8
0
 62
     2
 10
-175.999985
 20
30.000004
 40
2.100000
  0
CIRCLE
  8
0
 10
-175.999985
 20
51.500004
 40
3.500000
  0
CIRCLE
  8
0
 62
     4
 10
-174.499985
 20
69.400009
 40
6.000000
  0
CIRCLE
  8
0
 10
-175.999985
 20
8.500004
 40
3.500000
  0
CIRCLE
  8
0
 62
     1
 10
-174.499985
 20
69.400009
 40
5.000000
  0
CIRCLE
  8
0
 10
-175.999985
 20
30.000004
 40
2.500000
  0
CIRCLE
  8
0
 10
-175.999985
 20
30.000004
 40
9.000000
  0
CIRCLE
  8
0
 62
     2
 10
-175.999985
 20
42.500004
 40
2.500000
  0
CIRCLE
  8
0
 62
     2
 10
-175.999985
 20
17.500004
 40
2.500000
  0
CIRCLE
  8
0
 10
-175.999985
 20
51.500004
 40
4.000000
  0
CIRCLE
  8
0
 10
-175.999985
 20
8.500004
 40
4.000000
  0
CIRCLE
  8
0
 10
183.000015
 20
51.499996
 40
4.000000
  0
CIRCLE
  8
0
 10
183.000015
 20
17.499996
 40
2.100000
  0
CIRCLE
  8
0
 62
     2
 10
183.000015
 20
42.499996
 40
2.500000
  0
CIRCLE
  8
0
 10
183.000015
 20
42.499996
 40
2.100000
  0
CIRCLE
  8
0
 10
183.000015
 20
51.499996
 40
3.500000
  0
CIRCLE
  8
0
 10
183.000015
 20
8.499996
 40
4.000000
  0
CIRCLE
  8
0
 10
183.000015
 20
8.499996
 40
3.500000
  0
CIRCLE
  8
0
 62
     4
 10
181.500015
 20
69.399994
 40
6.000000
  0
CIRCLE
  8
0
 62
     1
 10
181.500015
 20
69.399994
 40
5.000000
  0
ARC
  8
0
 10
169.650009
 20
35.499996
 40
1.749999
 50
111.803543
 51
248.196457
  0
ARC
  8
0
 10
169.650009
 20
24.499996
 40
1.749999
 50
111.803543
 51
248.196457
  0
CIRCLE
  8
0
 62
     2
 10
183.000015
 20
17.499996
 40
2.500000
  0
CIRCLE
  8
0
 10
74.000015
 20
-89.000000
 40
1.650000
  0
CIRCLE
  8
0
 10
74.000015
 20
-101.000000
 40
1.650000
  0
CIRCLE
  8
0
 10
23.500015
 20
-102.000000
 40
1.650000
  0
CIRCLE
  8
0
 10
23.500015
 20
-85.000000
 40
1.650000
  0
CIRCLE
  8
0
 10
-48.499989
 20
-85.000000
 40
1.650000
  0
CIRCLE
  8
0
 10
-48.499989
 20
-102.000000
 40
1.650000
  0
ARC
  8
0
 10
-70.532951
 20
-89.792953
 40
3.467056
 50
180.000000
 51
200.374069
  0
ARC
  8
0
 10
-70.532951
 20
-100.207047
 40
3.467052
 50
159.625931
 51
180.000000
  0
ARC
  8
0
 10
-73.467026
 20
-100.207047
 40
3.467056
 50
0.000000
 51
20.374065
  0
ARC
  8
0
 10
-73.467026
 20
-89.792953
 40
3.467055
 50
339.625824
 51
0.000000
  0
CIRCLE
  8
0
 62
     2
 10
74.000015
 20
-101.000000
 40
2.000000
  0
CIRCLE
  8
0
 62
     2
 10
-77.999985
 20
-101.000000
 40
2.000000
  0
CIRCLE
  8
0
 62
     2
 10
74.000015
 20
-89.000000
 40
2.000000
  0
CIRCLE
  8
0
 62
     2
 10
-77.999985
 20
-89.000000
 40
2.000000
  0
CIRCLE
  8
0
 62
     2
 10
23.500015
 20
-85.000000
 40
2.000000
  0
CIRCLE
  8
0
 62
     2
 10
23.500015
 20
-102.000000
 40
2.000000
  0
CIRCLE
  8
0
 62
     2
 10
-48.499989
 20
-85.000000
 40
2.000000
  0
CIRCLE
  8
0
 62
     2
 10
-62.499985
 20
-85.000000
 40
2.000000
  0
CIRCLE
  8
0
 62
     2
 10
-62.499985
 20
-102.000000
 40
2.000000
  0
CIRCLE
  8
0
 62
     2
 10
-48.499989
 20
-102.000000
 40
2.000000
  0
CIRCLE
  8
0
 10
-77.999985
 20
-89.000000
 40
1.650000
  0
CIRCLE
  8
0
 10
-77.999985
 20
-101.000000
 40
1.650000
  0
CIRCLE
  8
0
 10
-62.499985
 20
-85.000000
 40
1.650000
  0
CIRCLE
  8
0
 10
-62.499985
 20
-102.000000
 40
1.650000
  0
TEXT
  8
0
 10
196.250259
 20
180.830002
 40
6.300000
  1
Ver. 2.0
 50
0.000000
 41
1.052632
 51
0.000000
  7
STANDARD
  0
TEXT
  8
0
 10
167.564667
 20
-192.100006
 40
9.000000
  1
KOGANEI CORP.
 50
0.000000
 41
1.052632
 51
0.000000
  7
STANDARD
  0
TEXT
  8
0
 10
-262.849731
 20
180.830002
 40
6.300000
  1
AXIS CYLINDER
 50
0.000000
 41
1.052632
 51
0.000000
  7
STANDARD
  0
TEXT
  8
0
 10
-232.550003
 20
145.830002
 40
6.300000
  1
XDAAD16*ST(25)-SSL
 50
0.000000
 41
1.052632
 51
0.000000
  7
STANDARD
  0
TEXT
  8
0
 10
-270.049988
 20
155.830002
 40
6.300000
  1
MODEL:XDAD16*ST(25)-SSL
 50
0.000000
 41
1.052632
 51
0.000000
  7
STANDARD
  0
TEXT
  8
0
 10
-109.642860
 20
-128.050003
 40
4.500000
  1
(mm)
 50
0.000000
 41
1.052632
 51
0.000000
  7
STANDARD
  0
TEXT
  8
0
 10
-193.142853
 20
-144.050003
 40
4.500000
  1
25
 50
0.000000
 41
1.052632
 51
0.000000
  7
STANDARD
  0
TEXT
  8
0
 10
-171.142853
 20
-144.050003
 40
4.500000
  1
50
 50
0.000000
 41
1.052632
 51
0.000000
  7
STANDARD
  0
TEXT
  8
0
 10
-149.142853
 20
-144.050003
 40
4.500000
  1
75
 50
0.000000
 41
1.052632
 51
0.000000
  7
STANDARD
  0
TEXT
  8
0
 10
-129.392853
 20
-144.050003
 40
4.500000
  1
100
 50
0.000000
 41
1.052632
 51
0.000000
  7
STANDARD
  0
TEXT
  8
0
 10
-107.392853
 20
-144.050003
 40
4.500000
  1
125
 50
0.000000
 41
1.052632
 51
0.000000
  7
STANDARD
  0
TEXT
  8
0
 10
-190.892853
 20
-184.050003
 40
4.500000
  1
0
 50
0.000000
 41
1.052632
 51
0.000000
  7
STANDARD
  0
TEXT
  8
0
 10
-171.142853
 20
-184.050003
 40
4.500000
  1
25
 50
0.000000
 41
1.052632
 51
0.000000
  7
STANDARD
  0
TEXT
  8
0
 10
-149.142853
 20
-184.050003
 40
4.500000
  1
50
 50
0.000000
 41
1.052632
 51
0.000000
  7
STANDARD
  0
TEXT
  8
0
 10
-127.142853
 20
-184.050003
 40
4.500000
  1
75
 50
0.000000
 41
1.052632
 51
0.000000
  7
STANDARD
  0
TEXT
  8
0
 10
-107.392853
 20
-184.050003
 40
4.500000
  1
100
 50
0.000000
 41
1.052632
 51
0.000000
  7
STANDARD
  0
TEXT
  8
0
 10
-242.761658
 20
-136.050003
 40
4.500000
  1
STROKE
 50
0.000000
 41
1.052632
 51
0.000000
  7
STANDARD
  0
TEXT
  8
0
 10
-265.408447
 20
-152.050003
 40
4.500000
  1
TYPE
 50
0.000000
 41
1.052632
 51
0.000000
  7
STANDARD
  0
TEXT
  8
0
 10
-264.000000
 20
-178.699997
 40
4.500000
  1
XDAAD16
 50
0.000000
 41
1.052632
 51
0.000000
  7
STANDARD
  0
TEXT
  8
0
 10
-196.642853
 20
-127.050003
 40
4.500000
  1
STRETCH LIST
 50
0.000000
 41
1.052632
 51
0.000000
  7
STANDARD
  0
TEXT
  8
0
 10
-264.000000
 20
-162.699997
 40
4.500000
  1
XDAD16
 50
0.000000
 41
1.052632
 51
0.000000
  7
STANDARD
  0
TEXT
  8
0
 10
-190.892853
 20
-176.050003
 40
4.500000
  1
0
 50
0.000000
 41
1.052632
 51
0.000000
  7
STANDARD
  0
TEXT
  8
0
 10
-171.142853
 20
-176.050003
 40
4.500000
  1
25
 50
0.000000
 41
1.052632
 51
0.000000
  7
STANDARD
  0
TEXT
  8
0
 10
-149.142853
 20
-176.050003
 40
4.500000
  1
50
 50
0.000000
 41
1.052632
 51
0.000000
  7
STANDARD
  0
TEXT
  8
0
 10
-127.142853
 20
-176.050003
 40
4.500000
  1
75
 50
0.000000
 41
1.052632
 51
0.000000
  7
STANDARD
  0
TEXT
  8
0
 10
-107.392853
 20
-176.050003
 40
4.500000
  1
100
 50
0.000000
 41
1.052632
 51
0.000000
  7
STANDARD
  0
TEXT
  8
0
 62
     3
 10
9.586378
 20
91.884338
 40
6.300000
  1
STRETCH LINE B
 50
0.000000
 41
1.052632
 51
0.000000
  7
STANDARD
  0
TEXT
  8
0
 62
     3
 10
-57.413624
 20
105.720367
 40
6.300000
  1
STRETCH LINE A
 50
0.000000
 41
1.052632
 51
0.000000
  7
STANDARD
  0
TEXT
  8
0
 10
-190.892853
 20
-160.050003
 40
4.500000
  1
0
 50
0.000000
 41
1.052632
 51
0.000000
  7
STANDARD
  0
TEXT
  8
0
 10
-171.142853
 20
-160.050003
 40
4.500000
  1
25
 50
0.000000
 41
1.052632
 51
0.000000
  7
STANDARD
  0
TEXT
  8
0
 10
-149.142853
 20
-160.050003
 40
4.500000
  1
50
 50
0.000000
 41
1.052632
 51
0.000000
  7
STANDARD
  0
TEXT
  8
0
 10
-127.142853
 20
-160.050003
 40
4.500000
  1
75
 50
0.000000
 41
1.052632
 51
0.000000
  7
STANDARD
  0
TEXT
  8
0
 10
-107.392853
 20
-160.050003
 40
4.500000
  1
100
 50
0.000000
 41
1.052632
 51
0.000000
  7
STANDARD
  0
TEXT
  8
0
 10
-190.892853
 20
-168.050003
 40
4.500000
  1
0
 50
0.000000
 41
1.052632
 51
0.000000
  7
STANDARD
  0
TEXT
  8
0
 10
-171.142853
 20
-168.050003
 40
4.500000
  1
25
 50
0.000000
 41
1.052632
 51
0.000000
  7
STANDARD
  0
TEXT
  8
0
 10
-149.142853
 20
-168.050003
 40
4.500000
  1
50
 50
0.000000
 41
1.052632
 51
0.000000
  7
STANDARD
  0
TEXT
  8
0
 10
-127.142853
 20
-168.050003
 40
4.500000
  1
75
 50
0.000000
 41
1.052632
 51
0.000000
  7
STANDARD
  0
TEXT
  8
0
 10
-107.392853
 20
-168.050003
 40
4.500000
  1
100
 50
0.000000
 41
1.052632
 51
0.000000
  7
STANDARD
  0
TEXT
  8
0
 10
-212.892654
 20
-184.050003
 40
4.500000
  1
B
 50
0.000000
 41
1.052632
 51
0.000000
  7
STANDARD
  0
TEXT
  8
0
 10
-212.892654
 20
-160.050003
 40
4.500000
  1
A
 50
0.000000
 41
1.052632
 51
0.000000
  7
STANDARD
  0
TEXT
  8
0
 10
-212.892654
 20
-168.050003
 40
4.500000
  1
B
 50
0.000000
 41
1.052632
 51
0.000000
  7
STANDARD
  0
TEXT
  8
0
 10
-212.892654
 20
-176.050003
 40
4.500000
  1
A
 50
0.000000
 41
1.052632
 51
0.000000
  7
STANDARD
  0
TEXT
  8
0
 10
-241.877258
 20
-141.324997
 40
4.500000
  1
STRETCH
 50
0.000000
 41
1.052632
 51
0.000000
  7
STANDARD
  0
TEXT
  8
0
 10
-241.877258
 20
-148.074997
 40
4.500000
  1
   PLACE
 50
0.000000
 41
1.052632
 51
0.000000
  7
STANDARD
  0
ENDSEC
  0
EOF
