  0
SECTION
  2
HEADER
  0
ENDSEC
  0
SECTION
  2
TABLES
  0
TABLE
  2
LTYPE
 70
     4
  0
LTYPE
  2
CONTINUOUS
 70
    64
  3
Solid line
 72
    65
 73
     0
 40
0.000000
  0
LTYPE
  2
DASHED
 70
    64
  3
__ __ __ __ __ __ __ __ __ __ __ __ __ __ __
 72
    65
 73
     2
 40
3.500000
 49
2.000000
 49
-1.500000
  0
LTYPE
  2
CENTER
 70
    64
  3
____ _ ____ _ ____ _ ____ _ ____ _ ____ _ ____
 72
    65
 73
     4
 40
17.500000
 49
13.000000
 49
-1.500000
 49
1.500000
 49
-1.500000
  0
LTYPE
  2
PHANTOM
 70
    64
  3
_____ _ _ _____ _ _ _____ _ _ _____ _ _ ____  
 72
    65
 73
     6
 40
15.500000
 49
8.000000
 49
-1.500000
 49
1.500000
 49
-1.500000
 49
1.500000
 49
-1.500000
  0
LTYPE
  2
DASHED1
 70
    64
  3
__ __ __ __ __ __ __ __ __ __ __ __ __ __ __
 72
    65
 73
     2
 40
1.500000
 49
1.000000
 49
-0.500000
  0
LTYPE
  2
DASHED2
 70
    64
  3
__ __ __ __ __ __ __ __ __ __ __ __ __ __ __
 72
    65
 73
     2
 40
3.500000
 49
2.500000
 49
-1.000000
  0
LTYPE
  2
DASHED3
 70
    64
  3
__ __ __ __ __ __ __ __ __ __ __ __ __ __ __
 72
    65
 73
     2
 40
6.000000
 49
4.000000
 49
-2.000000
  0
LTYPE
  2
DASHED4
 70
    64
  3
__ __ __ __ __ __ __ __ __ __ __ __ __ __ __
 72
    65
 73
     2
 40
12.000000
 49
10.000000
 49
-2.000000
  0
LTYPE
  2
DASHED5
 70
    64
  3
__ __ __ __ __ __ __ __ __ __ __ __ __ __ __
 72
    65
 73
     2
 40
17.000000
 49
15.000000
 49
-2.000000
  0
LTYPE
  2
DASHED6
 70
    64
  3
__ __ __ __ __ __ __ __ __ __ __ __ __ __ __
 72
    65
 73
     2
 40
29.000000
 49
27.000000
 49
-2.000000
  0
LTYPE
  2
PHANTOM1
 70
    64
  3
_____ _ _ _____ _ _ _____ _ _ _____ _ _ ____  
 72
    65
 73
     6
 40
31.000000
 49
25.000000
 49
-1.500000
 49
1.000000
 49
-1.000000
 49
1.000000
 49
-1.500000
  0
LTYPE
  2
PHANTOM2
 70
    64
  3
_____ _ _ _____ _ _ _____ _ _ _____ _ _ ____  
 72
    65
 73
     6
 40
36.000000
 49
27.000000
 49
-1.500000
 49
2.500000
 49
-1.000000
 49
2.500000
 49
-1.500000
  0
LTYPE
  2
PHANTOM3
 70
    64
  3
_____ _ _ _____ _ _ _____ _ _ _____ _ _ ____  
 72
    65
 73
     6
 40
78.000000
 49
64.000000
 49
-2.000000
 49
4.000000
 49
-2.000000
 49
4.000000
 49
-2.000000
  0
LTYPE
  2
CENTER1
 70
    64
  3
____ _ ____ _ ____ _ ____ _ ____ _ ____ _ ____
 72
    65
 73
     4
 40
19.000000
 49
14.000000
 49
-1.000000
 49
3.000000
 49
-1.000000
  0
LTYPE
  2
CENTER2
 70
    64
  3
____ _ ____ _ ____ _ ____ _ ____ _ ____ _ ____
 72
    65
 73
     4
 40
28.500000
 49
25.000000
 49
-1.000000
 49
1.500000
 49
-1.000000
  0
LTYPE
  2
CENTER3
 70
    64
  3
____ _ ____ _ ____ _ ____ _ ____ _ ____ _ ____
 72
    65
 73
     4
 40
31.500000
 49
27.000000
 49
-1.000000
 49
2.500000
 49
-1.000000
  0
LTYPE
  2
CENTER4
 70
    64
  3
____ _ ____ _ ____ _ ____ _ ____ _ ____ _ ____
 72
    65
 73
     4
 40
50.000000
 49
45.000000
 49
-1.000000
 49
3.000000
 49
-1.000000
  0
LTYPE
  2
CENTER5
 70
    64
  3
____ _ ____ _ ____ _ ____ _ ____ _ ____ _ ____
 72
    65
 73
     4
 40
100.000000
 49
92.000000
 49
-2.000000
 49
4.000000
 49
-2.000000
  0
LTYPE
  2
SBK1
 70
    64
  3
______ _ _ _ ______ _ _ _ ______ _ _ _ _____  
 72
    65
 73
     8
 40
60.500000
 49
45.000000
 49
-2.000000
 49
2.500000
 49
-2.000000
 49
2.500000
 49
-2.000000
 49
2.500000
 49
-2.000000
  0
LTYPE
  2
SBK2
 70
    64
  3
______ _ _ _ ______ _ _ _ ______ _ _ _ _____  
 72
    65
 73
     8
 40
84.000000
 49
64.000000
 49
-2.000000
 49
4.000000
 49
-2.000000
 49
4.000000
 49
-2.000000
 49
4.000000
 49
-2.000000
  0
LTYPE
  2
STCH
 70
    64
  3
__ __ __ __ __ __ __ __ __ __ __ __ __ __ __
 72
    65
 73
     2
 40
3.000000
 49
1.000000
 49
-2.000000
  0
LTYPE
  2
MTCH
 70
    64
  3
_____ _ _ _____ _ _ _____ _ _ _____ _ _ ____  
 72
    65
 73
     6
 40
80.000000
 49
66.000000
 49
-2.000000
 49
4.000000
 49
-2.000000
 49
4.000000
 49
-2.000000
  0
ENDTAB
  0
TABLE
  2
LAYER
 70
     1
  0
LAYER
  2
0
 70
     0
 62
     7
  6
CONTINUOUS
  0
ENDTAB
  0
TABLE
  2
STYLE
 70
     1
  0
STYLE
  2
STANDARD
 70
     0
 40
0.000000
 41
1.000000
 50
0.000000
 71
     0
 42
0.200000
  3
txt
  4
BIGFONT
  0
ENDTAB
  0
TABLE
  2
VIEW
 70
     0
  0
ENDTAB
  0
ENDSEC
  0
SECTION
  2
BLOCKS
  0
ENDSEC
  0
SECTION
  2
ENTITIES
  0
LINE
  8
0
 10
-94.999985
 20
71.000000
 11
-94.999985
 21
-1.000000
  0
LINE
  8
0
 10
-86.999985
 20
71.000000
 11
-86.999985
 21
-1.000000
  0
LINE
  8
0
 10
-86.999985
 20
28.500004
 11
-81.999985
 21
28.500004
  0
LINE
  8
0
 10
-81.999985
 20
28.500004
 11
-81.999985
 21
41.500000
  0
LINE
  8
0
 10
-86.999985
 20
41.500000
 11
-81.999985
 21
41.500000
  0
LINE
  8
0
  6
CENTER
 62
     2
 10
-88.745499
 20
10.500004
 11
-77.429520
 21
10.500004
  0
LINE
  8
0
  6
CENTER
 62
     2
 10
-89.122696
 20
59.500000
 11
-77.618118
 21
59.500000
  0
LINE
  8
0
 10
-86.999985
 20
54.500000
 11
-79.999985
 21
54.500000
  0
LINE
  8
0
 10
-86.999985
 20
64.500000
 11
-79.999985
 21
64.500000
  0
LINE
  8
0
 10
-86.999985
 20
5.500004
 11
-79.999985
 21
5.500004
  0
LINE
  8
0
 10
-86.999985
 20
15.500004
 11
-79.999985
 21
15.500004
  0
LINE
  8
0
 10
-79.999985
 20
72.000000
 11
-49.999985
 21
72.000000
  0
LINE
  8
0
 10
-79.999985
 20
-2.000000
 11
-49.999985
 21
-2.000000
  0
LINE
  8
0
 10
-94.999985
 20
71.000000
 11
-86.999985
 21
71.000000
  0
LINE
  8
0
 10
-94.999985
 20
-1.000000
 11
-86.999985
 21
-1.000000
  0
LINE
  8
0
 10
-49.999985
 20
71.800003
 11
15.000015
 21
71.800003
  0
LINE
  8
0
 10
-49.999985
 20
-1.799995
 11
15.000015
 21
-1.799995
  0
LINE
  8
0
 10
15.000015
 20
72.000000
 11
36.000015
 21
72.000000
  0
LINE
  8
0
 10
15.000015
 20
-2.000000
 11
36.000015
 21
-2.000000
  0
LINE
  8
0
  6
CENTER
 62
     2
 10
-87.798431
 20
17.000004
 11
-94.580124
 21
17.000004
  0
LINE
  8
0
  6
CENTER
 62
     2
 10
-87.798431
 20
53.000000
 11
-94.580124
 21
53.000000
  0
LINE
  8
0
  6
CENTER
 62
     2
 10
-90.999985
 20
57.199684
 11
-90.999985
 21
50.041306
  0
LINE
  8
0
  6
CENTER
 62
     2
 10
-90.999985
 20
20.067608
 11
-90.999985
 21
13.975395
  0
LINE
  8
0
  6
CENTER
 62
     2
 10
-73.999985
 20
52.317841
 11
-73.999985
 21
40.024834
  0
LINE
  8
0
  6
CENTER
 62
     2
 10
-60.999985
 20
51.639427
 11
-60.999985
 21
39.835709
  0
LINE
  8
0
  6
CENTER
 62
     2
 10
-79.181274
 20
45.500000
 11
-68.999985
 21
45.500000
  0
LINE
  8
0
  6
CENTER
 62
     2
 10
-79.181274
 20
24.500004
 11
-68.884064
 21
24.500004
  0
LINE
  8
0
  6
CENTER
 62
     2
 10
-66.709145
 20
45.500000
 11
-55.999985
 21
45.500000
  0
LINE
  8
0
  6
CENTER
 62
     2
 10
-66.520020
 20
24.500004
 11
-55.999985
 21
24.500004
  0
LINE
  8
0
  6
CENTER
 62
     2
 10
-60.999985
 20
30.001305
 11
-60.999985
 21
19.032158
  0
LINE
  8
0
  6
CENTER
 62
     2
 10
-73.999985
 20
30.001305
 11
-73.999985
 21
18.748474
  0
LINE
  8
0
 10
-55.999985
 20
47.000000
 11
-55.999985
 21
23.000004
  0
LINE
  8
0
 10
-53.999985
 20
45.000000
 11
-53.999985
 21
25.000004
  0
LINE
  8
0
 10
-55.999985
 20
23.000004
 11
26.000015
 21
23.000004
  0
LINE
  8
0
 10
-55.999985
 20
47.000000
 11
26.000015
 21
47.000000
  0
LINE
  8
0
 10
-53.999985
 20
45.000000
 11
26.000015
 21
45.000000
  0
LINE
  8
0
 10
-53.999985
 20
25.000004
 11
26.000015
 21
25.000004
  0
LINE
  8
0
 10
-55.999969
 20
23.000002
 11
-53.999969
 21
25.000000
  0
LINE
  8
0
 10
-49.999985
 20
33.500004
 11
15.000015
 21
33.500004
  0
LINE
  8
0
 10
-49.999985
 20
36.500000
 11
15.000015
 21
36.500000
  0
LINE
  8
0
 10
-49.999985
 20
38.375000
 11
15.000015
 21
38.375000
  0
LINE
  8
0
 10
-49.999985
 20
31.625004
 11
15.000015
 21
31.625004
  0
LINE
  8
0
 10
-49.999985
 20
42.625000
 11
15.000015
 21
42.625000
  0
LINE
  8
0
 10
-49.999985
 20
27.375004
 11
15.000015
 21
27.375004
  0
LINE
  8
0
  6
CENTER
 62
     2
 10
19.223312
 20
29.500004
 11
27.713020
 21
29.500004
  0
LINE
  8
0
  6
CENTER
 62
     2
 10
18.812332
 20
40.500000
 11
27.713020
 21
40.500000
  0
LINE
  8
0
 10
23.250015
 20
42.250000
 11
26.000015
 21
42.250000
  0
LINE
  8
0
 10
23.250015
 20
38.750000
 11
26.000015
 21
38.750000
  0
LINE
  8
0
 10
23.250015
 20
31.250004
 11
26.000015
 21
31.250004
  0
LINE
  8
0
 10
23.250015
 20
27.750004
 11
26.000015
 21
27.750004
  0
LINE
  8
0
 10
-5.249985
 20
36.250000
 11
-4.499985
 21
36.250000
  0
LINE
  8
0
 10
-5.249985
 20
33.750004
 11
-4.499985
 21
33.750004
  0
LINE
  8
0
 10
-3.499985
 20
36.250000
 11
-2.749985
 21
36.250000
  0
LINE
  8
0
 10
-3.499985
 20
33.750004
 11
-2.749985
 21
33.750004
  0
LINE
  8
0
 10
-81.999985
 20
38.000000
 11
-79.999985
 21
38.000000
  0
LINE
  8
0
 10
-81.999985
 20
32.000004
 11
-79.999985
 21
32.000004
  0
LINE
  8
0
 62
     2
 10
-81.999985
 20
37.500038
 11
-81.133965
 21
38.000034
  0
LINE
  8
0
 62
     2
 10
-81.999985
 20
32.499989
 11
-81.133972
 21
31.999989
  0
LINE
  8
0
  6
CENTER
 62
     2
 10
31.000015
 20
21.778917
 11
31.000015
 21
29.665930
  0
LINE
  8
0
  6
CENTER
 62
     2
 10
35.483871
 20
26.000004
 11
26.736465
 21
26.000004
  0
LINE
  8
0
 10
-86.709824
 20
35.000004
 11
-82.290146
 21
35.000004
  0
LINE
  8
0
  6
CENTER
 62
     2
 10
-98.436188
 20
35.000004
 11
82.382797
 21
35.000004
  0
LINE
  8
0
 62
     4
 10
-49.999985
 20
92.800003
 11
15.000015
 21
92.800003
  0
LINE
  8
0
 10
-79.999985
 20
-2.000000
 11
-79.999985
 21
72.000000
  0
LINE
  8
0
 62
     4
 10
15.000015
 20
92.800003
 11
15.000015
 21
72.000000
  0
LINE
  8
0
 62
     4
 10
26.000015
 20
92.800003
 11
26.000015
 21
72.000000
  0
LINE
  8
0
 62
     4
 10
-49.999985
 20
92.800003
 11
-49.999985
 21
72.000000
  0
LINE
  8
0
 62
     4
 10
15.000015
 20
93.000000
 11
26.000015
 21
93.000000
  0
LINE
  8
0
  6
CENTER
 62
     1
 10
-75.224983
 20
80.000000
 11
38.128357
 21
80.000000
  0
LINE
  8
0
 62
     4
 10
34.000015
 20
86.000000
 11
34.000015
 21
74.000000
  0
LINE
  8
0
 62
     4
 10
26.000015
 20
87.000000
 11
33.000015
 21
87.000000
  0
LINE
  8
0
 62
     4
 10
26.000015
 20
73.000000
 11
33.000015
 21
73.000000
  0
LINE
  8
0
 62
     1
 10
26.000015
 20
86.000000
 11
34.000015
 21
86.000000
  0
LINE
  8
0
 62
     1
 10
26.000015
 20
74.000000
 11
34.000015
 21
74.000000
  0
LINE
  8
0
 62
     4
 10
32.999985
 20
86.999969
 11
33.999989
 21
85.999969
  0
LINE
  8
0
 62
     4
 10
34.000008
 20
74.000000
 11
33.000008
 21
73.000000
  0
LINE
  8
0
 62
     4
 10
33.000015
 20
73.000000
 11
33.000015
 21
87.000000
  0
LINE
  8
0
 10
-53.999981
 20
45.000000
 11
-55.999985
 21
47.000000
  0
LINE
  8
0
 10
36.000015
 20
72.000000
 11
36.000015
 21
-2.000000
  0
LINE
  8
0
  6
CENTER
 62
     2
 10
35.197083
 20
44.000000
 11
27.023270
 21
44.000000
  0
LINE
  8
0
  6
CENTER
 62
     2
 10
31.000015
 20
40.134148
 11
31.000015
 21
47.877758
  0
LINE
  8
0
 10
76.000015
 20
71.000000
 11
76.000015
 21
-1.000000
  0
LINE
  8
0
 10
68.000015
 20
71.000000
 11
68.000015
 21
-1.000000
  0
LINE
  8
0
  6
CENTER
 62
     2
 10
69.745529
 20
10.500004
 11
31.898270
 21
10.500004
  0
LINE
  8
0
  6
CENTER
 62
     2
 10
70.122726
 20
59.500000
 11
32.231613
 21
59.500000
  0
LINE
  8
0
 10
68.000015
 20
54.500000
 11
36.000015
 21
54.500000
  0
LINE
  8
0
 10
68.000015
 20
64.500000
 11
36.000015
 21
64.500000
  0
LINE
  8
0
 10
68.000015
 20
5.500004
 11
36.000015
 21
5.500004
  0
LINE
  8
0
 10
68.000015
 20
15.500004
 11
36.000015
 21
15.500004
  0
LINE
  8
0
 10
76.000015
 20
71.000000
 11
68.000015
 21
71.000000
  0
LINE
  8
0
 10
76.000015
 20
-1.000000
 11
68.000015
 21
-1.000000
  0
LINE
  8
0
  6
CENTER
 62
     2
 10
68.798462
 20
17.000004
 11
75.277451
 21
17.000004
  0
LINE
  8
0
  6
CENTER
 62
     2
 10
68.798462
 20
53.000000
 11
75.564240
 21
53.000000
  0
LINE
  8
0
  6
CENTER
 62
     2
 10
72.000015
 20
57.199684
 11
72.000015
 21
50.041306
  0
LINE
  8
0
  6
CENTER
 62
     2
 10
72.000015
 20
20.067608
 11
72.000015
 21
13.975395
  0
LINE
  8
0
  6
CENTER
 62
     2
 10
23.250015
 20
43.891560
 11
23.250015
 21
26.729973
  0
LINE
  8
0
 10
-49.999985
 20
72.000000
 11
-49.999985
 21
-2.000000
  0
LINE
  8
0
 10
15.000015
 20
72.000000
 11
15.000015
 21
-2.000000
  0
LINE
  8
0
 10
26.000015
 20
72.000000
 11
26.000015
 21
-2.000000
  0
LINE
  8
0
 62
     4
 10
-60.999985
 20
92.800003
 11
-60.999985
 21
72.000000
  0
LINE
  8
0
 62
     4
 10
-49.999985
 20
93.000000
 11
-60.999985
 21
93.000000
  0
LINE
  8
0
 62
     4
 10
-67.999985
 20
73.000000
 11
-67.999985
 21
87.000000
  0
LINE
  8
0
 62
     4
 10
-68.999985
 20
86.000000
 11
-68.999985
 21
74.000000
  0
LINE
  8
0
 62
     4
 10
-60.999985
 20
87.000000
 11
-67.999985
 21
87.000000
  0
LINE
  8
0
 62
     4
 10
-60.999985
 20
73.000000
 11
-67.999985
 21
73.000000
  0
LINE
  8
0
 62
     1
 10
-60.999985
 20
86.000000
 11
-68.999985
 21
86.000000
  0
LINE
  8
0
 62
     1
 10
-60.999985
 20
74.000000
 11
-68.999985
 21
74.000000
  0
LINE
  8
0
 62
     4
 10
-67.999939
 20
86.999977
 11
-68.999939
 21
85.999969
  0
LINE
  8
0
 62
     4
 10
-68.999969
 20
73.999992
 11
-67.999977
 21
72.999992
  0
LINE
  8
0
  6
PHANTOM
 62
     3
 10
-17.499985
 20
109.807129
 11
-17.499985
 21
-46.912750
  0
LINE
  8
0
  6
PHANTOM
 62
     3
 10
52.000015
 20
99.807129
 11
52.000015
 21
-46.912750
  0
LINE
  8
0
 10
-210.000000
 20
72.000008
 11
-210.000000
 21
-1.999992
  0
LINE
  8
0
 10
-181.000000
 20
72.000008
 11
-181.000000
 21
-1.999992
  0
LINE
  8
0
 10
-210.000000
 20
-1.999992
 11
-181.000000
 21
-1.999992
  0
LINE
  8
0
 10
-210.000000
 20
72.000008
 11
-181.000000
 21
72.000008
  0
LINE
  8
0
 10
-193.250000
 20
41.495209
 11
-189.500000
 21
35.000015
  0
LINE
  8
0
 10
-189.499878
 20
34.999939
 11
-193.249878
 21
28.504749
  0
LINE
  8
0
 10
-193.250000
 20
28.504738
 11
-200.750000
 21
28.504738
  0
LINE
  8
0
 10
-200.750137
 20
28.504761
 11
-204.500137
 21
34.999943
  0
LINE
  8
0
 10
-204.500076
 20
35.000034
 11
-200.750076
 21
41.495228
  0
LINE
  8
0
 10
-200.750000
 20
41.495197
 11
-193.250000
 21
41.495197
  0
LINE
  8
0
 10
-209.000000
 20
71.000008
 11
-209.000000
 21
-0.999992
  0
LINE
  8
0
 10
-185.000000
 20
71.000008
 11
-185.000000
 21
-0.999992
  0
LINE
  8
0
 10
-185.000000
 20
-0.999992
 11
-209.000000
 21
-0.999992
  0
LINE
  8
0
 10
-185.000000
 20
71.000008
 11
-209.000000
 21
71.000008
  0
LINE
  8
0
  6
CENTER
 62
     2
 10
-192.600891
 20
21.000008
 11
-201.484985
 21
21.000008
  0
LINE
  8
0
  6
CENTER
 62
     2
 10
-192.893066
 20
49.000008
 11
-201.628387
 21
49.000008
  0
LINE
  8
0
  6
CENTER
 62
     2
 10
-191.602859
 20
59.500008
 11
-202.392334
 21
59.500008
  0
LINE
  8
0
  6
CENTER
 62
     2
 10
-191.143738
 20
10.500008
 11
-202.736679
 21
10.500008
  0
LINE
  8
0
 10
-196.100006
 20
12.058853
 11
-197.899994
 21
12.058853
  0
LINE
  8
0
 10
-197.900040
 20
12.058888
 11
-198.800049
 21
10.500037
  0
LINE
  8
0
 10
-198.800018
 20
10.499976
 11
-197.900009
 21
8.941132
  0
LINE
  8
0
 10
-197.899994
 20
8.941078
 11
-196.100006
 21
8.941078
  0
LINE
  8
0
 10
-196.100098
 20
8.941173
 11
-195.200073
 21
10.500025
  0
LINE
  8
0
 10
-195.200027
 20
10.500031
 11
-196.100037
 21
12.058875
  0
LINE
  8
0
 10
-196.100082
 20
61.058842
 11
-195.200058
 21
59.499973
  0
LINE
  8
0
 10
-195.200073
 20
59.500042
 11
-196.100082
 21
57.941204
  0
LINE
  8
0
 10
-196.100006
 20
57.941162
 11
-197.899994
 21
57.941162
  0
LINE
  8
0
 10
-197.900009
 20
57.941135
 11
-198.800018
 21
59.499966
  0
LINE
  8
0
 10
-198.800110
 20
59.500038
 11
-197.900101
 21
61.058887
  0
LINE
  8
0
 10
-197.899994
 20
61.058853
 11
-196.100006
 21
61.058853
  0
LINE
  8
0
 10
-181.000076
 20
46.999935
 11
-179.000076
 21
44.999931
  0
LINE
  8
0
 10
-181.000061
 20
23.000051
 11
-179.000076
 21
25.000048
  0
LINE
  8
0
  6
CENTER
 62
     2
 10
-212.593262
 20
35.000008
 11
-177.210571
 21
35.000008
  0
LINE
  8
0
 10
-179.000000
 20
45.000008
 11
-179.000000
 21
25.000004
  0
LINE
  8
0
  6
CENTER
 62
     2
 10
-197.000000
 20
75.290810
 11
-197.000000
 21
-4.786556
  0
LINE
  8
0
 62
     4
 10
-210.000000
 20
93.000008
 11
-181.000000
 21
93.000008
  0
LINE
  8
0
 62
     4
 10
-210.000000
 20
93.000008
 11
-210.000000
 21
72.000008
  0
LINE
  8
0
 62
     4
 10
-181.000000
 20
72.000008
 11
-181.000000
 21
93.000008
  0
LINE
  8
0
  6
CENTER
 62
     1
 10
-204.117798
 20
80.000008
 11
-186.830017
 21
80.000008
  0
LINE
  8
0
  6
CENTER
 62
     1
 10
-195.500000
 20
88.514320
 11
-195.500000
 21
72.353989
  0
LINE
  8
0
 10
208.000015
 20
72.000008
 11
208.000015
 21
-1.999992
  0
LINE
  8
0
 10
179.000015
 20
72.000008
 11
179.000015
 21
-1.999992
  0
LINE
  8
0
 10
179.000015
 20
72.000008
 11
208.000015
 21
72.000008
  0
LINE
  8
0
 10
179.000015
 20
-1.999992
 11
208.000015
 21
-1.999992
  0
LINE
  8
0
  6
CENTER
 62
     2
 10
195.000015
 20
75.290810
 11
195.000015
 21
-4.786556
  0
LINE
  8
0
 10
177.000092
 20
44.999947
 11
179.000076
 21
46.999943
  0
LINE
  8
0
 10
177.000076
 20
25.000069
 11
179.000092
 21
23.000067
  0
LINE
  8
0
 10
177.000015
 20
25.000004
 11
177.000015
 21
45.000008
  0
LINE
  8
0
  6
CENTER
 62
     2
 10
175.790909
 20
40.500008
 11
181.210052
 21
40.500008
  0
LINE
  8
0
  6
CENTER
 62
     2
 10
176.034592
 20
29.500008
 11
181.349503
 21
29.500008
  0
LINE
  8
0
 10
177.000015
 20
42.250008
 11
179.000015
 21
42.250008
  0
LINE
  8
0
 10
177.000015
 20
38.750008
 11
179.000015
 21
38.750008
  0
LINE
  8
0
 10
177.000015
 20
31.250008
 11
179.000015
 21
31.250008
  0
LINE
  8
0
 10
177.000015
 20
27.750008
 11
179.000015
 21
27.750008
  0
LINE
  8
0
 62
     4
 10
179.000015
 20
93.000008
 11
208.000015
 21
93.000008
  0
LINE
  8
0
 62
     4
 10
179.000015
 20
93.000008
 11
179.000015
 21
72.000008
  0
LINE
  8
0
 62
     4
 10
208.000015
 20
72.000008
 11
208.000015
 21
93.000008
  0
LINE
  8
0
  6
CENTER
 62
     1
 10
184.882217
 20
80.000008
 11
202.169998
 21
80.000008
  0
LINE
  8
0
  6
CENTER
 62
     1
 10
193.500015
 20
88.514320
 11
193.500015
 21
72.353989
  0
LINE
  8
0
  6
CENTER
 62
     2
 10
189.208923
 20
10.500013
 11
201.119064
 21
10.500013
  0
LINE
  8
0
  6
CENTER
 62
     2
 10
190.600906
 20
21.000015
 11
199.677155
 21
21.000015
  0
LINE
  8
0
  6
CENTER
 62
     2
 10
190.893082
 20
49.000015
 11
199.246948
 21
49.000015
  0
LINE
  8
0
  6
CENTER
 62
     2
 10
188.922134
 20
59.500015
 11
200.972977
 21
59.500015
  0
LINE
  8
0
 10
194.100021
 20
12.058859
 11
195.900009
 21
12.058859
  0
LINE
  8
0
 10
195.900116
 20
12.058939
 11
196.800125
 21
10.500095
  0
LINE
  8
0
 10
196.800095
 20
10.499955
 11
195.900085
 21
8.941112
  0
LINE
  8
0
 10
195.900009
 20
8.941084
 11
194.100021
 21
8.941084
  0
LINE
  8
0
 10
194.100067
 20
8.941178
 11
193.200058
 21
10.500022
  0
LINE
  8
0
 10
193.200058
 20
10.500027
 11
194.100067
 21
12.058870
  0
LINE
  8
0
 10
194.100128
 20
61.058819
 11
193.200134
 21
59.499973
  0
LINE
  8
0
 10
193.200165
 20
59.500107
 11
194.100174
 21
57.941265
  0
LINE
  8
0
 10
194.100021
 20
57.941170
 11
195.900009
 21
57.941170
  0
LINE
  8
0
 10
195.900101
 20
57.941139
 11
196.800095
 21
59.499973
  0
LINE
  8
0
 10
196.800049
 20
59.500034
 11
195.900040
 21
61.058884
  0
LINE
  8
0
 10
195.900009
 20
61.058861
 11
194.100021
 21
61.058861
  0
LINE
  8
0
 10
207.000015
 20
71.000015
 11
207.000015
 21
-0.999985
  0
LINE
  8
0
 10
183.000015
 20
71.000015
 11
207.000015
 21
71.000015
  0
LINE
  8
0
 10
183.000015
 20
71.000015
 11
183.000015
 21
-0.999985
  0
LINE
  8
0
 10
183.000015
 20
-0.999985
 11
207.000015
 21
-0.999985
  0
LINE
  8
0
  6
CENTER
 62
     2
 10
174.887100
 20
35.000008
 11
210.553482
 21
35.000008
  0
LINE
  8
0
 10
-94.999977
 20
-84.999992
 11
-94.999977
 21
-109.000000
  0
LINE
  8
0
 10
-86.999977
 20
-84.999992
 11
-86.999977
 21
-109.000000
  0
LINE
  8
0
 10
-79.999977
 20
-81.000000
 11
-79.999977
 21
-110.000000
  0
LINE
  8
0
 10
-49.999977
 20
-79.000000
 11
-49.999977
 21
-110.000000
  0
LINE
  8
0
 10
15.000023
 20
-79.000000
 11
15.000023
 21
-110.000000
  0
LINE
  8
0
 10
26.000023
 20
-79.000000
 11
26.000023
 21
-110.000000
  0
LINE
  8
0
  6
CENTER
 62
     2
 10
-97.901199
 20
-97.000000
 11
81.064949
 21
-97.000000
  0
LINE
  8
0
 10
-79.999977
 20
-81.000000
 11
-49.999977
 21
-81.000000
  0
LINE
  8
0
 10
-79.999977
 20
-110.000000
 11
-49.999977
 21
-110.000000
  0
LINE
  8
0
  6
CENTER
 62
     2
 10
-90.999977
 20
-107.994171
 11
-90.999977
 21
-101.679321
  0
LINE
  8
0
  6
CENTER
 62
     2
 10
-93.499977
 20
-105.000000
 11
-88.287811
 21
-105.000000
  0
LINE
  8
0
  6
CENTER
 62
     2
 10
-93.499977
 20
-89.000000
 11
-88.212563
 21
-89.000000
  0
LINE
  8
0
  6
CENTER
 62
     2
 10
-90.999977
 20
-92.178604
 11
-90.999977
 21
-86.500000
  0
LINE
  8
0
  6
CENTER
 62
     2
 10
-74.499977
 20
-81.431000
 11
-74.499977
 21
-88.708282
  0
LINE
  8
0
  6
CENTER
 62
     2
 10
-55.499977
 20
-81.364609
 11
-55.499977
 21
-88.651390
  0
LINE
  8
0
  6
CENTER
 62
     2
 10
-78.008881
 20
-85.500000
 11
-71.234848
 21
-85.500000
  0
LINE
  8
0
  6
CENTER
 62
     2
 10
-78.008881
 20
-105.500000
 11
-71.121071
 21
-105.500000
  0
LINE
  8
0
  6
CENTER
 62
     2
 10
-74.499977
 20
-102.305115
 11
-74.499977
 21
-108.676849
  0
LINE
  8
0
  6
CENTER
 62
     2
 10
-58.775822
 20
-85.500000
 11
-52.062740
 21
-85.500000
  0
LINE
  8
0
  6
CENTER
 62
     2
 10
-55.499977
 20
-102.248230
 11
-55.499977
 21
-108.619965
  0
LINE
  8
0
  6
CENTER
 62
     2
 10
-58.775822
 20
-105.500000
 11
-52.062740
 21
-105.500000
  0
LINE
  8
0
  6
CENTER
 62
     2
 10
20.500023
 20
-81.427086
 11
20.500023
 21
-88.790276
  0
LINE
  8
0
  6
CENTER
 62
     2
 10
16.946968
 20
-85.500000
 11
23.000023
 21
-85.500000
  0
LINE
  8
0
  6
CENTER
 62
     2
 10
17.232361
 20
-105.500000
 11
24.652626
 21
-105.500000
  0
LINE
  8
0
  6
CENTER
 62
     2
 10
20.500023
 20
-102.317993
 11
20.500023
 21
-108.767914
  0
LINE
  8
0
 10
-53.999977
 20
-79.000000
 11
-49.999977
 21
-79.000000
  0
LINE
  8
0
 10
-55.999950
 20
-81.000031
 11
-53.999947
 21
-79.000031
  0
LINE
  8
0
 10
-49.999977
 20
-81.200005
 11
15.000023
 21
-81.200005
  0
LINE
  8
0
 10
-50.004108
 20
-109.800018
 11
15.000023
 21
-109.800018
  0
LINE
  8
0
 10
15.000023
 20
-110.000000
 11
36.000023
 21
-110.000000
  0
LINE
  8
0
 10
-49.999977
 20
-79.200005
 11
15.000023
 21
-79.200005
  0
LINE
  8
0
 10
15.000023
 20
-79.000000
 11
26.000023
 21
-79.000000
  0
LINE
  8
0
 10
-79.999977
 20
-102.000000
 11
-86.999977
 21
-102.000000
  0
LINE
  8
0
 10
-79.999977
 20
-92.000000
 11
-86.999977
 21
-92.000000
  0
LINE
  8
0
 10
-94.999977
 20
-109.000000
 11
-86.999977
 21
-109.000000
  0
LINE
  8
0
 10
76.000023
 20
-109.000000
 11
68.000023
 21
-109.000000
  0
LINE
  8
0
 10
76.000023
 20
-84.999992
 11
76.000023
 21
-109.000000
  0
LINE
  8
0
 10
68.000023
 20
-84.999992
 11
68.000023
 21
-109.000000
  0
LINE
  8
0
  6
CENTER
 62
     2
 10
72.000023
 20
-107.994171
 11
72.000023
 21
-101.679321
  0
LINE
  8
0
  6
CENTER
 62
     2
 10
74.500023
 20
-105.000000
 11
68.652229
 21
-105.000000
  0
LINE
  8
0
  6
CENTER
 62
     2
 10
74.500023
 20
-89.000000
 11
68.709129
 21
-89.000000
  0
LINE
  8
0
  6
CENTER
 62
     2
 10
72.000023
 20
-92.178604
 11
72.000023
 21
-86.500000
  0
LINE
  8
0
 10
36.000023
 20
-102.000000
 11
68.000023
 21
-102.000000
  0
LINE
  8
0
 10
36.000023
 20
-92.000000
 11
68.000023
 21
-92.000000
  0
LINE
  8
0
 10
15.000023
 20
-81.000000
 11
36.000023
 21
-81.000000
  0
LINE
  8
0
 10
36.000023
 20
-81.000000
 11
36.000023
 21
-110.000000
  0
LINE
  8
0
 10
-82.721664
 20
-89.500000
 11
-86.278290
 21
-89.500000
  0
LINE
  8
0
 10
-81.999977
 20
-91.375000
 11
-81.999977
 21
-92.000000
  0
LINE
  8
0
 10
-81.999977
 20
-102.000000
 11
-81.999977
 21
-102.625000
  0
LINE
  8
0
 10
-86.273254
 20
-104.505554
 11
-82.726700
 21
-104.505554
  0
LINE
  8
0
 10
-94.999977
 20
-84.999992
 11
-86.999977
 21
-84.999992
  0
LINE
  8
0
 10
76.000023
 20
-84.999992
 11
68.000023
 21
-84.999992
  0
LINE
  8
0
  6
PHANTOM
 62
     3
 10
-17.499977
 20
-46.912170
 11
-17.499977
 21
-118.810089
  0
LINE
  8
0
  6
PHANTOM
 62
     3
 10
52.000023
 20
-46.912170
 11
52.000023
 21
-118.810089
  0
LINE
  8
0
 10
-281.250000
 20
195.500000
 11
282.099976
 21
195.500000
  0
LINE
  8
0
 10
-281.250000
 20
195.500000
 11
-281.250000
 21
-195.000000
  0
LINE
  8
0
 10
282.099976
 20
195.500000
 11
282.099976
 21
-195.000000
  0
LINE
  8
0
 10
-281.250000
 20
-195.000000
 11
282.099976
 21
-195.000000
  0
LINE
  8
0
 10
162.099976
 20
-175.000000
 11
162.099976
 21
-195.000000
  0
LINE
  8
0
 10
162.099976
 20
-175.000000
 11
282.099976
 21
-175.000000
  0
LINE
  8
0
 10
162.099976
 20
175.500000
 11
282.099976
 21
175.500000
  0
LINE
  8
0
 10
-281.250000
 20
175.500000
 11
-161.250000
 21
175.500000
  0
LINE
  8
0
 10
162.099976
 20
195.500000
 11
162.099976
 21
175.500000
  0
LINE
  8
0
 10
-161.250000
 20
195.500000
 11
-161.250000
 21
175.500000
  0
LINE
  8
0
 10
-271.250000
 20
-185.000000
 11
-67.250000
 21
-185.000000
  0
LINE
  8
0
 10
-271.250000
 20
-153.000000
 11
-67.250000
 21
-153.000000
  0
LINE
  8
0
 10
-271.250000
 20
-129.000000
 11
-271.250000
 21
-185.000000
  0
LINE
  8
0
 10
-221.250000
 20
-153.000000
 11
-221.250000
 21
-185.000000
  0
LINE
  8
0
 10
-177.250000
 20
-129.000000
 11
-177.250000
 21
-185.000000
  0
LINE
  8
0
 10
-155.250000
 20
-129.000000
 11
-155.250000
 21
-185.000000
  0
LINE
  8
0
 10
-133.250000
 20
-129.000000
 11
-133.250000
 21
-185.000000
  0
LINE
  8
0
 10
-111.250000
 20
-129.000000
 11
-111.250000
 21
-185.000000
  0
LINE
  8
0
 10
-67.250000
 20
-129.000000
 11
-67.250000
 21
-185.000000
  0
LINE
  8
0
 10
-271.250000
 20
-129.000000
 11
-67.250000
 21
-129.000000
  0
LINE
  8
0
 10
-221.250000
 20
-177.000000
 11
-67.250000
 21
-177.000000
  0
LINE
  8
0
 10
-221.250000
 20
-161.000000
 11
-67.250000
 21
-161.000000
  0
LINE
  8
0
 10
-271.250000
 20
-169.000000
 11
-67.250000
 21
-169.000000
  0
LINE
  8
0
 10
-199.250000
 20
-129.000000
 11
-199.250000
 21
-185.000000
  0
LINE
  8
0
 10
-221.250015
 20
-153.000000
 11
-271.250000
 21
-129.000000
  0
LINE
  8
0
 10
-249.250000
 20
-137.000000
 11
-208.487595
 21
-137.000000
  0
LINE
  8
0
 10
-199.249969
 20
-152.999985
 11
-208.487564
 21
-136.999985
  0
LINE
  8
0
 10
-249.250015
 20
-137.000061
 11
-271.250031
 21
-129.000061
  0
LINE
  8
0
 10
-89.250000
 20
-129.000000
 11
-89.250000
 21
-185.000000
  0
CIRCLE
  8
0
 10
31.000015
 20
44.000000
 40
2.100000
  0
CIRCLE
  8
0
 10
31.000015
 20
26.000004
 40
2.100000
  0
CIRCLE
  8
0
 10
-90.999985
 20
53.000000
 40
1.650000
  0
CIRCLE
  8
0
 10
72.000015
 20
53.000000
 40
1.650000
  0
CIRCLE
  8
0
 10
72.000015
 20
17.000004
 40
1.650000
  0
ARC
  8
0
 10
-2.749985
 20
35.000004
 40
1.250000
 50
270.000031
 51
89.999977
  0
CIRCLE
  8
0
 10
-90.999985
 20
17.000004
 40
1.650000
  0
ARC
  8
0
 10
-5.249985
 20
35.000004
 40
1.250000
 50
89.999977
 51
270.000000
  0
ARC
  8
0
 10
-3.999985
 20
36.250000
 40
0.500000
 50
180.000000
 51
0.000000
  0
ARC
  8
0
 10
-3.999985
 20
33.750004
 40
0.500000
 50
0.000000
 51
180.000000
  0
CIRCLE
  8
0
 62
     2
 10
31.000015
 20
26.000004
 40
2.500000
  0
CIRCLE
  8
0
 62
     2
 10
31.000015
 20
44.000000
 40
2.500000
  0
CIRCLE
  8
0
 62
     2
 10
72.000015
 20
53.000000
 40
2.000000
  0
CIRCLE
  8
0
 62
     2
 10
72.000015
 20
17.000004
 40
2.000000
  0
ARC
  8
0
 10
-103.254028
 20
32.000004
 40
21.254040
 50
350.521606
 51
359.999939
  0
ARC
  8
0
 10
-103.254028
 20
31.500004
 40
21.254044
 50
359.999939
 51
9.478278
  0
ARC
  8
0
 10
-103.254028
 20
38.000000
 40
21.254044
 50
0.000000
 51
9.478329
  0
ARC
  8
0
 10
-103.254028
 20
38.500000
 40
21.254044
 50
350.521667
 51
0.000000
  0
ARC
  8
0
 10
-65.745941
 20
32.000004
 40
21.254044
 50
180.000092
 51
189.478424
  0
ARC
  8
0
 10
-65.745941
 20
31.500004
 40
21.254040
 50
170.521729
 51
180.000076
  0
ARC
  8
0
 10
-65.745941
 20
38.000000
 40
21.254044
 50
170.521683
 51
180.000015
  0
ARC
  8
0
 10
-65.745941
 20
38.500000
 40
21.254044
 50
180.000031
 51
189.478378
  0
CIRCLE
  8
0
 62
     2
 10
-90.999985
 20
53.000000
 40
2.000000
  0
CIRCLE
  8
0
 62
     2
 10
-90.999985
 20
17.000004
 40
2.000000
  0
CIRCLE
  8
0
 10
-60.999985
 20
45.500000
 40
4.000000
  0
CIRCLE
  8
0
 10
-73.999985
 20
45.500000
 40
4.000000
  0
CIRCLE
  8
0
 10
-73.999985
 20
24.500004
 40
4.000000
  0
CIRCLE
  8
0
 10
-60.999985
 20
24.500004
 40
4.000000
  0
CIRCLE
  8
0
 10
-60.999985
 20
24.500004
 40
2.250000
  0
CIRCLE
  8
0
 10
-73.999985
 20
24.500004
 40
2.250000
  0
CIRCLE
  8
0
 10
-73.999985
 20
45.500000
 40
2.250000
  0
CIRCLE
  8
0
 10
-60.999985
 20
45.500000
 40
2.250000
  0
ARC
  8
0
 10
23.250015
 20
40.500000
 40
1.750000
 50
90.000000
 51
270.000000
  0
ARC
  8
0
 10
23.250015
 20
29.500004
 40
1.750000
 50
90.000000
 51
270.000000
  0
CIRCLE
  8
0
 10
-197.000000
 20
49.000008
 40
2.100000
  0
CIRCLE
  8
0
 10
-197.000000
 20
21.000008
 40
2.100000
  0
CIRCLE
  8
0
 62
     2
 10
-197.000000
 20
35.000008
 40
2.500000
  0
CIRCLE
  8
0
 10
-197.000000
 20
59.500008
 40
3.500000
  0
CIRCLE
  8
0
 62
     4
 10
-195.500000
 20
80.000008
 40
7.000000
  0
CIRCLE
  8
0
 10
-197.000000
 20
10.500008
 40
3.500000
  0
CIRCLE
  8
0
 62
     1
 10
-195.500000
 20
80.000008
 40
6.000000
  0
CIRCLE
  8
0
 10
-197.000000
 20
35.000008
 40
3.000000
  0
CIRCLE
  8
0
 10
-197.000000
 20
10.500008
 40
4.000000
  0
CIRCLE
  8
0
 10
-197.000000
 20
35.000008
 40
10.000000
  0
CIRCLE
  8
0
 62
     2
 10
-197.000000
 20
21.000008
 40
2.500000
  0
CIRCLE
  8
0
 62
     2
 10
-197.000000
 20
49.000008
 40
2.500000
  0
CIRCLE
  8
0
 10
-197.000000
 20
59.500008
 40
4.000000
  0
CIRCLE
  8
0
 10
195.000015
 20
49.000015
 40
2.100000
  0
CIRCLE
  8
0
 10
195.000015
 20
21.000015
 40
2.100000
  0
CIRCLE
  8
0
 62
     4
 10
193.500015
 20
80.000008
 40
7.000000
  0
CIRCLE
  8
0
 62
     1
 10
193.500015
 20
80.000008
 40
6.000000
  0
CIRCLE
  8
0
 62
     2
 10
195.000015
 20
21.000015
 40
2.500000
  0
CIRCLE
  8
0
 10
195.000015
 20
10.500013
 40
3.500000
  0
CIRCLE
  8
0
 10
195.000015
 20
59.500015
 40
4.000000
  0
CIRCLE
  8
0
 10
195.000015
 20
59.500015
 40
3.500000
  0
CIRCLE
  8
0
 62
     2
 10
195.000015
 20
49.000015
 40
2.500000
  0
CIRCLE
  8
0
 10
195.000015
 20
10.500013
 40
4.000000
  0
ARC
  8
0
 10
179.650009
 20
40.500008
 40
1.749999
 50
111.803543
 51
248.196457
  0
ARC
  8
0
 10
179.650009
 20
29.500008
 40
1.749999
 50
111.803543
 51
248.196457
  0
CIRCLE
  8
0
 10
72.000023
 20
-89.000000
 40
1.650000
  0
CIRCLE
  8
0
 10
-74.499977
 20
-105.500000
 40
1.650000
  0
CIRCLE
  8
0
 10
72.000023
 20
-105.000000
 40
1.650000
  0
CIRCLE
  8
0
 10
-55.499977
 20
-85.500000
 40
1.650000
  0
CIRCLE
  8
0
 10
20.500023
 20
-85.500000
 40
1.650000
  0
CIRCLE
  8
0
 10
20.500023
 20
-105.500000
 40
1.650000
  0
CIRCLE
  8
0
 10
-55.499977
 20
-105.500000
 40
1.650000
  0
ARC
  8
0
 10
-84.796516
 20
-102.625000
 40
2.796540
 50
317.896545
 51
12.914116
  0
ARC
  8
0
 10
-84.203438
 20
-91.375000
 40
2.796539
 50
137.896317
 51
192.914108
  0
ARC
  8
0
 10
-84.796516
 20
-91.375000
 40
2.796542
 50
347.085876
 51
42.103455
  0
ARC
  8
0
 10
-84.203438
 20
-102.625000
 40
2.796542
 50
167.085892
 51
222.103455
  0
CIRCLE
  8
0
 62
     2
 10
72.000023
 20
-89.000000
 40
2.000000
  0
CIRCLE
  8
0
 62
     2
 10
72.000023
 20
-105.000000
 40
2.000000
  0
CIRCLE
  8
0
 62
     2
 10
20.500023
 20
-105.500000
 40
2.000000
  0
CIRCLE
  8
0
 62
     2
 10
20.500023
 20
-85.500000
 40
2.000000
  0
CIRCLE
  8
0
 62
     2
 10
-90.999977
 20
-89.000000
 40
2.000000
  0
CIRCLE
  8
0
 62
     2
 10
-90.999977
 20
-105.000000
 40
2.000000
  0
CIRCLE
  8
0
 62
     2
 10
-74.499977
 20
-85.500000
 40
2.000000
  0
CIRCLE
  8
0
 62
     2
 10
-55.499977
 20
-85.500000
 40
2.000000
  0
CIRCLE
  8
0
 62
     2
 10
-55.499977
 20
-105.500000
 40
2.000000
  0
CIRCLE
  8
0
 62
     2
 10
-74.499977
 20
-105.500000
 40
2.000000
  0
CIRCLE
  8
0
 10
-90.999977
 20
-89.000000
 40
1.650000
  0
CIRCLE
  8
0
 10
-90.999977
 20
-105.000000
 40
1.650000
  0
CIRCLE
  8
0
 10
-74.499977
 20
-85.500000
 40
1.650000
  0
TEXT
  8
0
 10
196.250259
 20
180.830002
 40
6.300000
  1
Ver. 2.0
 50
0.000000
 41
1.052632
 51
0.000000
  7
STANDARD
  0
TEXT
  8
0
 10
167.564667
 20
-192.100006
 40
9.000000
  1
KOGANEI CORP.
 50
0.000000
 41
1.052632
 51
0.000000
  7
STANDARD
  0
TEXT
  8
0
 10
-262.849731
 20
180.830002
 40
6.300000
  1
AXIS CYLINDER
 50
0.000000
 41
1.052632
 51
0.000000
  7
STANDARD
  0
TEXT
  8
0
 10
-270.049988
 20
145.830002
 40
6.300000
  1
        XDAAD20*ST(25)-SSL
 50
0.000000
 41
1.052632
 51
0.000000
  7
STANDARD
  0
TEXT
  8
0
 10
-270.049988
 20
155.830002
 40
6.300000
  1
MODEL : XDAD20*ST(25)-SSL
 50
0.000000
 41
1.052632
 51
0.000000
  7
STANDARD
  0
TEXT
  8
0
 62
     3
 10
26.869749
 20
103.979111
 40
6.300000
  1
STRETCH LINE B
 50
0.000000
 41
1.052632
 51
0.000000
  7
STANDARD
  0
TEXT
  8
0
 10
-87.642860
 20
-128.050003
 40
4.500000
  1
(mm)
 50
0.000000
 41
1.052632
 51
0.000000
  7
STANDARD
  0
TEXT
  8
0
 10
-193.142853
 20
-144.050003
 40
4.500000
  1
25
 50
0.000000
 41
1.052632
 51
0.000000
  7
STANDARD
  0
TEXT
  8
0
 10
-171.142853
 20
-144.050003
 40
4.500000
  1
50
 50
0.000000
 41
1.052632
 51
0.000000
  7
STANDARD
  0
TEXT
  8
0
 10
-149.142853
 20
-144.050003
 40
4.500000
  1
75
 50
0.000000
 41
1.052632
 51
0.000000
  7
STANDARD
  0
TEXT
  8
0
 10
-129.392853
 20
-144.050003
 40
4.500000
  1
100
 50
0.000000
 41
1.052632
 51
0.000000
  7
STANDARD
  0
TEXT
  8
0
 10
-107.392853
 20
-144.050003
 40
4.500000
  1
125
 50
0.000000
 41
1.052632
 51
0.000000
  7
STANDARD
  0
TEXT
  8
0
 10
-190.892853
 20
-184.050003
 40
4.500000
  1
0
 50
0.000000
 41
1.052632
 51
0.000000
  7
STANDARD
  0
TEXT
  8
0
 10
-171.142853
 20
-184.050003
 40
4.500000
  1
25
 50
0.000000
 41
1.052632
 51
0.000000
  7
STANDARD
  0
TEXT
  8
0
 10
-149.142853
 20
-184.050003
 40
4.500000
  1
50
 50
0.000000
 41
1.052632
 51
0.000000
  7
STANDARD
  0
TEXT
  8
0
 10
-127.142853
 20
-184.050003
 40
4.500000
  1
75
 50
0.000000
 41
1.052632
 51
0.000000
  7
STANDARD
  0
TEXT
  8
0
 10
-85.392853
 20
-184.050003
 40
4.500000
  1
125
 50
0.000000
 41
1.052632
 51
0.000000
  7
STANDARD
  0
TEXT
  8
0
 10
-242.761658
 20
-136.050003
 40
4.500000
  1
STROKE
 50
0.000000
 41
1.052632
 51
0.000000
  7
STANDARD
  0
TEXT
  8
0
 10
-265.408447
 20
-152.050003
 40
4.500000
  1
TYPE
 50
0.000000
 41
1.052632
 51
0.000000
  7
STANDARD
  0
TEXT
  8
0
 10
-264.000000
 20
-178.699997
 40
4.500000
  1
XDAAD20
 50
0.000000
 41
1.052632
 51
0.000000
  7
STANDARD
  0
TEXT
  8
0
 10
-196.642853
 20
-127.050003
 40
4.500000
  1
STRETCH LIST
 50
0.000000
 41
1.052632
 51
0.000000
  7
STANDARD
  0
TEXT
  8
0
 10
-264.000000
 20
-162.699997
 40
4.500000
  1
XDAD20
 50
0.000000
 41
1.052632
 51
0.000000
  7
STANDARD
  0
TEXT
  8
0
 10
-190.892853
 20
-176.050003
 40
4.500000
  1
0
 50
0.000000
 41
1.052632
 51
0.000000
  7
STANDARD
  0
TEXT
  8
0
 10
-171.142853
 20
-176.050003
 40
4.500000
  1
25
 50
0.000000
 41
1.052632
 51
0.000000
  7
STANDARD
  0
TEXT
  8
0
 10
-149.142853
 20
-176.050003
 40
4.500000
  1
50
 50
0.000000
 41
1.052632
 51
0.000000
  7
STANDARD
  0
TEXT
  8
0
 10
-127.142853
 20
-176.050003
 40
4.500000
  1
75
 50
0.000000
 41
1.052632
 51
0.000000
  7
STANDARD
  0
TEXT
  8
0
 10
-85.392853
 20
-176.050003
 40
4.500000
  1
125
 50
0.000000
 41
1.052632
 51
0.000000
  7
STANDARD
  0
TEXT
  8
0
 10
-190.892853
 20
-160.050003
 40
4.500000
  1
0
 50
0.000000
 41
1.052632
 51
0.000000
  7
STANDARD
  0
TEXT
  8
0
 10
-171.142853
 20
-160.050003
 40
4.500000
  1
25
 50
0.000000
 41
1.052632
 51
0.000000
  7
STANDARD
  0
TEXT
  8
0
 10
-149.142853
 20
-160.050003
 40
4.500000
  1
50
 50
0.000000
 41
1.052632
 51
0.000000
  7
STANDARD
  0
TEXT
  8
0
 10
-127.142853
 20
-160.050003
 40
4.500000
  1
75
 50
0.000000
 41
1.052632
 51
0.000000
  7
STANDARD
  0
TEXT
  8
0
 10
-85.392853
 20
-160.050003
 40
4.500000
  1
125
 50
0.000000
 41
1.052632
 51
0.000000
  7
STANDARD
  0
TEXT
  8
0
 10
-190.892853
 20
-168.050003
 40
4.500000
  1
0
 50
0.000000
 41
1.052632
 51
0.000000
  7
STANDARD
  0
TEXT
  8
0
 10
-171.142853
 20
-168.050003
 40
4.500000
  1
25
 50
0.000000
 41
1.052632
 51
0.000000
  7
STANDARD
  0
TEXT
  8
0
 10
-149.142853
 20
-168.050003
 40
4.500000
  1
50
 50
0.000000
 41
1.052632
 51
0.000000
  7
STANDARD
  0
TEXT
  8
0
 10
-127.142853
 20
-168.050003
 40
4.500000
  1
75
 50
0.000000
 41
1.052632
 51
0.000000
  7
STANDARD
  0
TEXT
  8
0
 10
-85.392853
 20
-168.050003
 40
4.500000
  1
125
 50
0.000000
 41
1.052632
 51
0.000000
  7
STANDARD
  0
TEXT
  8
0
 10
-212.892654
 20
-184.050003
 40
4.500000
  1
B
 50
0.000000
 41
1.052632
 51
0.000000
  7
STANDARD
  0
TEXT
  8
0
 10
-212.892654
 20
-160.050003
 40
4.500000
  1
A
 50
0.000000
 41
1.052632
 51
0.000000
  7
STANDARD
  0
TEXT
  8
0
 10
-212.892654
 20
-168.050003
 40
4.500000
  1
B
 50
0.000000
 41
1.052632
 51
0.000000
  7
STANDARD
  0
TEXT
  8
0
 10
-212.892654
 20
-176.050003
 40
4.500000
  1
A
 50
0.000000
 41
1.052632
 51
0.000000
  7
STANDARD
  0
TEXT
  8
0
 10
-241.877258
 20
-141.324997
 40
4.500000
  1
STRETCH
 50
0.000000
 41
1.052632
 51
0.000000
  7
STANDARD
  0
TEXT
  8
0
 10
-241.877258
 20
-148.074997
 40
4.500000
  1
   PLACE
 50
0.000000
 41
1.052632
 51
0.000000
  7
STANDARD
  0
TEXT
  8
0
 10
-85.392654
 20
-144.050003
 40
4.500000
  1
150
 50
0.000000
 41
1.052632
 51
0.000000
  7
STANDARD
  0
TEXT
  8
0
 10
-107.392853
 20
-160.050003
 40
4.500000
  1
100
 50
0.000000
 41
1.052632
 51
0.000000
  7
STANDARD
  0
TEXT
  8
0
 10
-107.392853
 20
-168.050003
 40
4.500000
  1
100
 50
0.000000
 41
1.052632
 51
0.000000
  7
STANDARD
  0
TEXT
  8
0
 10
-107.392853
 20
-176.050003
 40
4.500000
  1
100
 50
0.000000
 41
1.052632
 51
0.000000
  7
STANDARD
  0
TEXT
  8
0
 10
-107.392853
 20
-184.050003
 40
4.500000
  1
100
 50
0.000000
 41
1.052632
 51
0.000000
  7
STANDARD
  0
TEXT
  8
0
 62
     3
 10
-62.630253
 20
113.979111
 40
6.300000
  1
STRETCH LINE A
 50
0.000000
 41
1.052632
 51
0.000000
  7
STANDARD
  0
ENDSEC
  0
EOF
