  0
SECTION
  2
HEADER
  0
ENDSEC
  0
SECTION
  2
TABLES
  0
TABLE
  2
LTYPE
 70
     4
  0
LTYPE
  2
CONTINUOUS
 70
    64
  3
Solid line
 72
    65
 73
     0
 40
0.000000
  0
LTYPE
  2
DASHED
 70
    64
  3
__ __ __ __ __ __ __ __ __ __ __ __ __ __ __
 72
    65
 73
     2
 40
3.500000
 49
2.000000
 49
-1.500000
  0
LTYPE
  2
CENTER
 70
    64
  3
____ _ ____ _ ____ _ ____ _ ____ _ ____ _ ____
 72
    65
 73
     4
 40
17.500000
 49
13.000000
 49
-1.500000
 49
1.500000
 49
-1.500000
  0
LTYPE
  2
PHANTOM
 70
    64
  3
_____ _ _ _____ _ _ _____ _ _ _____ _ _ ____  
 72
    65
 73
     6
 40
15.500000
 49
8.000000
 49
-1.500000
 49
1.500000
 49
-1.500000
 49
1.500000
 49
-1.500000
  0
LTYPE
  2
DASHED1
 70
    64
  3
__ __ __ __ __ __ __ __ __ __ __ __ __ __ __
 72
    65
 73
     2
 40
1.500000
 49
1.000000
 49
-0.500000
  0
LTYPE
  2
DASHED2
 70
    64
  3
__ __ __ __ __ __ __ __ __ __ __ __ __ __ __
 72
    65
 73
     2
 40
3.500000
 49
2.500000
 49
-1.000000
  0
LTYPE
  2
DASHED3
 70
    64
  3
__ __ __ __ __ __ __ __ __ __ __ __ __ __ __
 72
    65
 73
     2
 40
6.000000
 49
4.000000
 49
-2.000000
  0
LTYPE
  2
DASHED4
 70
    64
  3
__ __ __ __ __ __ __ __ __ __ __ __ __ __ __
 72
    65
 73
     2
 40
12.000000
 49
10.000000
 49
-2.000000
  0
LTYPE
  2
DASHED5
 70
    64
  3
__ __ __ __ __ __ __ __ __ __ __ __ __ __ __
 72
    65
 73
     2
 40
17.000000
 49
15.000000
 49
-2.000000
  0
LTYPE
  2
DASHED6
 70
    64
  3
__ __ __ __ __ __ __ __ __ __ __ __ __ __ __
 72
    65
 73
     2
 40
29.000000
 49
27.000000
 49
-2.000000
  0
LTYPE
  2
PHANTOM1
 70
    64
  3
_____ _ _ _____ _ _ _____ _ _ _____ _ _ ____  
 72
    65
 73
     6
 40
31.000000
 49
25.000000
 49
-1.500000
 49
1.000000
 49
-1.000000
 49
1.000000
 49
-1.500000
  0
LTYPE
  2
PHANTOM2
 70
    64
  3
_____ _ _ _____ _ _ _____ _ _ _____ _ _ ____  
 72
    65
 73
     6
 40
36.000000
 49
27.000000
 49
-1.500000
 49
2.500000
 49
-1.000000
 49
2.500000
 49
-1.500000
  0
LTYPE
  2
PHANTOM3
 70
    64
  3
_____ _ _ _____ _ _ _____ _ _ _____ _ _ ____  
 72
    65
 73
     6
 40
78.000000
 49
64.000000
 49
-2.000000
 49
4.000000
 49
-2.000000
 49
4.000000
 49
-2.000000
  0
LTYPE
  2
CENTER1
 70
    64
  3
____ _ ____ _ ____ _ ____ _ ____ _ ____ _ ____
 72
    65
 73
     4
 40
19.000000
 49
14.000000
 49
-1.000000
 49
3.000000
 49
-1.000000
  0
LTYPE
  2
CENTER2
 70
    64
  3
____ _ ____ _ ____ _ ____ _ ____ _ ____ _ ____
 72
    65
 73
     4
 40
28.500000
 49
25.000000
 49
-1.000000
 49
1.500000
 49
-1.000000
  0
LTYPE
  2
CENTER3
 70
    64
  3
____ _ ____ _ ____ _ ____ _ ____ _ ____ _ ____
 72
    65
 73
     4
 40
31.500000
 49
27.000000
 49
-1.000000
 49
2.500000
 49
-1.000000
  0
LTYPE
  2
CENTER4
 70
    64
  3
____ _ ____ _ ____ _ ____ _ ____ _ ____ _ ____
 72
    65
 73
     4
 40
50.000000
 49
45.000000
 49
-1.000000
 49
3.000000
 49
-1.000000
  0
LTYPE
  2
CENTER5
 70
    64
  3
____ _ ____ _ ____ _ ____ _ ____ _ ____ _ ____
 72
    65
 73
     4
 40
100.000000
 49
92.000000
 49
-2.000000
 49
4.000000
 49
-2.000000
  0
LTYPE
  2
SBK1
 70
    64
  3
______ _ _ _ ______ _ _ _ ______ _ _ _ _____  
 72
    65
 73
     8
 40
60.500000
 49
45.000000
 49
-2.000000
 49
2.500000
 49
-2.000000
 49
2.500000
 49
-2.000000
 49
2.500000
 49
-2.000000
  0
LTYPE
  2
SBK2
 70
    64
  3
______ _ _ _ ______ _ _ _ ______ _ _ _ _____  
 72
    65
 73
     8
 40
84.000000
 49
64.000000
 49
-2.000000
 49
4.000000
 49
-2.000000
 49
4.000000
 49
-2.000000
 49
4.000000
 49
-2.000000
  0
LTYPE
  2
STCH
 70
    64
  3
__ __ __ __ __ __ __ __ __ __ __ __ __ __ __
 72
    65
 73
     2
 40
3.000000
 49
1.000000
 49
-2.000000
  0
LTYPE
  2
MTCH
 70
    64
  3
_____ _ _ _____ _ _ _____ _ _ _____ _ _ ____  
 72
    65
 73
     6
 40
80.000000
 49
66.000000
 49
-2.000000
 49
4.000000
 49
-2.000000
 49
4.000000
 49
-2.000000
  0
ENDTAB
  0
TABLE
  2
LAYER
 70
     1
  0
LAYER
  2
0
 70
     0
 62
     7
  6
CONTINUOUS
  0
ENDTAB
  0
TABLE
  2
STYLE
 70
     1
  0
STYLE
  2
STANDARD
 70
     0
 40
0.000000
 41
1.000000
 50
0.000000
 71
     0
 42
0.200000
  3
txt
  4
BIGFONT
  0
ENDTAB
  0
TABLE
  2
VIEW
 70
     0
  0
ENDTAB
  0
ENDSEC
  0
SECTION
  2
BLOCKS
  0
ENDSEC
  0
SECTION
  2
ENTITIES
  0
LINE
  8
0
 10
-82.999985
 20
8.500008
 11
-74.999985
 21
8.500008
  0
LINE
  8
0
 10
-82.999985
 20
-7.499996
 11
-74.999985
 21
-7.499996
  0
LINE
  8
0
  6
CENTER
 62
     2
 10
-84.962769
 20
0.500004
 11
-71.760956
 21
0.500004
  0
LINE
  8
0
 62
     4
 10
57.000008
 20
89.000008
 11
57.000008
 21
109.000000
  0
LINE
  8
0
 62
     4
 10
57.999996
 20
90.000008
 11
56.999996
 21
89.000015
  0
LINE
  8
0
 62
     4
 10
56.999947
 20
108.999939
 11
57.999943
 21
107.999939
  0
LINE
  8
0
 62
     4
 10
58.000008
 20
90.000008
 11
58.000008
 21
108.000000
  0
LINE
  8
0
 62
     1
 10
44.000008
 20
108.000000
 11
58.000008
 21
108.000000
  0
LINE
  8
0
 62
     1
 10
44.000008
 20
90.000008
 11
58.000008
 21
90.000008
  0
LINE
  8
0
 62
     4
 10
44.000008
 20
109.000000
 11
57.000008
 21
109.000000
  0
LINE
  8
0
 62
     4
 10
44.000008
 20
89.000008
 11
57.000008
 21
89.000008
  0
LINE
  8
0
 10
44.000008
 20
-16.999996
 11
44.000008
 21
87.000008
  0
LINE
  8
0
 10
-36.999992
 20
-16.999996
 11
-36.999992
 21
87.000008
  0
LINE
  8
0
 10
-74.999985
 20
-16.999996
 11
-74.999985
 21
87.000008
  0
LINE
  8
0
 62
     4
 10
28.000008
 20
116.000000
 11
44.000008
 21
116.000000
  0
LINE
  8
0
 10
-74.999985
 20
87.000008
 11
-36.999992
 21
87.000008
  0
LINE
  8
0
 10
28.000008
 20
87.000008
 11
58.000008
 21
87.000008
  0
LINE
  8
0
 10
-36.999992
 20
86.800011
 11
28.000008
 21
86.800011
  0
LINE
  8
0
 10
-74.999985
 20
-16.999996
 11
-36.999992
 21
-16.999996
  0
LINE
  8
0
 10
28.000008
 20
-16.999996
 11
58.000008
 21
-16.999996
  0
LINE
  8
0
 10
-36.999992
 20
-16.799995
 11
28.000008
 21
-16.799995
  0
LINE
  8
0
 10
-82.999985
 20
25.500008
 11
-76.999985
 21
25.500008
  0
LINE
  8
0
  6
CENTER
 62
     2
 10
51.000008
 20
16.610954
 11
51.000008
 21
29.873909
  0
LINE
  8
0
  6
CENTER
 62
     2
 10
-52.499989
 20
13.175385
 11
-52.499989
 21
27.737869
  0
LINE
  8
0
  6
CENTER
 62
     2
 10
-67.499985
 20
13.002022
 11
-67.499985
 21
27.911232
  0
LINE
  8
0
 10
-82.598061
 20
35.000008
 11
-77.401917
 21
35.000008
  0
LINE
  8
0
 62
     4
 10
-36.999992
 20
115.800003
 11
28.000008
 21
115.800003
  0
LINE
  8
0
  6
CENTER
 62
     2
 10
-88.999992
 20
5.533695
 11
-88.999992
 21
14.795696
  0
LINE
  8
0
 10
58.000008
 20
-16.999996
 11
58.000008
 21
87.000008
  0
LINE
  8
0
  6
CENTER
 62
     2
 10
45.172050
 20
47.000008
 11
57.058662
 21
47.000008
  0
LINE
  8
0
  6
CENTER
 62
     2
 10
51.000008
 20
40.509293
 11
51.000008
 21
54.397858
  0
LINE
  8
0
 10
91.000008
 20
86.000008
 11
91.000008
 21
-15.999996
  0
LINE
  8
0
 10
103.000008
 20
86.000008
 11
103.000008
 21
-15.999996
  0
LINE
  8
0
  6
CENTER
 62
     2
 10
45.172050
 20
23.000008
 11
56.933540
 21
23.000008
  0
LINE
  8
0
 10
103.000008
 20
86.000008
 11
91.000008
 21
86.000008
  0
LINE
  8
0
  6
CENTER
 62
     2
 10
92.962776
 20
69.500008
 11
52.525124
 21
69.500008
  0
LINE
  8
0
 10
91.000008
 20
77.500008
 11
58.000008
 21
77.500008
  0
LINE
  8
0
 10
91.000008
 20
61.500008
 11
58.000008
 21
61.500008
  0
LINE
  8
0
  6
CENTER
 62
     2
 10
101.417412
 20
60.000008
 11
92.722115
 21
60.000008
  0
LINE
  8
0
  6
CENTER
 62
     2
 10
-95.502472
 20
10.000008
 11
-84.570267
 21
10.000008
  0
LINE
  8
0
  6
CENTER
 62
     2
 10
97.000008
 20
64.050156
 11
97.000008
 21
55.335922
  0
LINE
  8
0
 10
103.000008
 20
-15.999996
 11
91.000008
 21
-15.999996
  0
LINE
  8
0
  6
CENTER
 62
     2
 10
92.962776
 20
0.500004
 11
54.314705
 21
0.500004
  0
LINE
  8
0
 10
91.000008
 20
-7.499996
 11
58.000008
 21
-7.499996
  0
LINE
  8
0
 10
-42.999992
 20
23.000008
 11
44.000008
 21
23.000008
  0
LINE
  8
0
  6
CENTER
 62
     2
 10
-75.920891
 20
20.500008
 11
-45.409019
 21
20.500008
  0
LINE
  8
0
 10
-40.999992
 20
25.000008
 11
44.000008
 21
25.000008
  0
LINE
  8
0
 62
     2
 10
-76.999992
 20
30.749975
 11
-75.700943
 21
29.999966
  0
LINE
  8
0
 10
-76.999985
 20
30.000008
 11
-74.999985
 21
30.000008
  0
LINE
  8
0
 10
91.000008
 20
8.500008
 11
58.000008
 21
8.500008
  0
LINE
  8
0
  6
CENTER
 62
     2
 10
101.116524
 20
10.000008
 11
92.570290
 21
10.000008
  0
LINE
  8
0
  6
CENTER
 62
     2
 10
97.000008
 20
5.533695
 11
97.000008
 21
14.795696
  0
LINE
  8
0
 62
     4
 10
28.000008
 20
116.000000
 11
28.000008
 21
87.000008
  0
LINE
  8
0
 10
-94.999992
 20
86.000008
 11
-94.999992
 21
-15.999996
  0
LINE
  8
0
 10
-82.999985
 20
86.000008
 11
-82.999985
 21
-15.999996
  0
LINE
  8
0
  6
CENTER
 62
     2
 10
-99.124855
 20
35.000008
 11
108.666664
 21
35.000008
  0
LINE
  8
0
 10
8.500008
 20
36.250008
 11
9.250008
 21
36.250008
  0
LINE
  8
0
 10
6.750008
 20
36.250008
 11
7.500008
 21
36.250008
  0
LINE
  8
0
 10
41.250008
 20
42.250008
 11
44.000008
 21
42.250008
  0
LINE
  8
0
 10
41.250008
 20
38.750008
 11
44.000008
 21
38.750008
  0
LINE
  8
0
  6
CENTER
 62
     2
 10
37.275185
 20
40.500008
 11
47.759605
 21
40.500008
  0
LINE
  8
0
  6
CENTER
 62
     2
 10
41.250008
 20
44.220924
 11
41.250008
 21
37.265556
  0
LINE
  8
0
 10
-36.999992
 20
42.625008
 11
28.000008
 21
42.625008
  0
LINE
  8
0
 10
-36.999992
 20
38.375008
 11
28.000008
 21
38.375008
  0
LINE
  8
0
 10
-36.999992
 20
36.500008
 11
28.000008
 21
36.500008
  0
LINE
  8
0
 10
-43.000011
 20
46.999996
 11
-41.000011
 21
44.999992
  0
LINE
  8
0
 10
-40.999992
 20
45.000008
 11
-40.999992
 21
25.000008
  0
LINE
  8
0
 10
-40.999992
 20
45.000008
 11
44.000008
 21
45.000008
  0
LINE
  8
0
 10
-42.999992
 20
47.000008
 11
44.000008
 21
47.000008
  0
LINE
  8
0
 10
-42.999992
 20
47.000008
 11
-42.999992
 21
23.000008
  0
LINE
  8
0
  6
CENTER
 62
     2
 10
-76.267616
 20
49.500008
 11
-45.409019
 21
49.500008
  0
LINE
  8
0
  6
CENTER
 62
     2
 10
-52.499989
 20
59.116554
 11
-52.499989
 21
42.473717
  0
LINE
  8
0
  6
CENTER
 62
     2
 10
-67.499985
 20
58.040787
 11
-67.499985
 21
42.126991
  0
LINE
  8
0
 62
     2
 10
-77.000031
 20
39.250057
 11
-75.700989
 21
40.000057
  0
LINE
  8
0
 10
-76.999985
 20
40.000008
 11
-74.999985
 21
40.000008
  0
LINE
  8
0
  6
CENTER
 62
     2
 10
-88.999992
 20
67.126671
 11
-88.999992
 21
55.335922
  0
LINE
  8
0
  6
CENTER
 62
     2
 10
-95.317848
 20
60.000008
 11
-84.722107
 21
60.000008
  0
LINE
  8
0
 10
-82.999985
 20
61.500008
 11
-74.999985
 21
61.500008
  0
LINE
  8
0
 10
-82.999985
 20
77.500008
 11
-74.999985
 21
77.500008
  0
LINE
  8
0
  6
CENTER
 62
     2
 10
-84.962769
 20
69.500008
 11
-71.760956
 21
69.500008
  0
LINE
  8
0
 10
-76.999985
 20
44.500008
 11
-82.999985
 21
44.500008
  0
LINE
  8
0
 10
-76.999985
 20
44.500008
 11
-76.999985
 21
25.500008
  0
LINE
  8
0
 10
8.500008
 20
33.750008
 11
9.250008
 21
33.750008
  0
LINE
  8
0
 10
6.750008
 20
33.750008
 11
7.500008
 21
33.750008
  0
LINE
  8
0
 10
41.250008
 20
27.750008
 11
44.000008
 21
27.750008
  0
LINE
  8
0
 10
41.250008
 20
31.250008
 11
44.000008
 21
31.250008
  0
LINE
  8
0
  6
CENTER
 62
     2
 10
37.275185
 20
29.500008
 11
47.057533
 21
29.500008
  0
LINE
  8
0
  6
CENTER
 62
     2
 10
41.250008
 20
25.779083
 11
41.250008
 21
34.781761
  0
LINE
  8
0
 10
-36.999992
 20
27.375008
 11
28.000008
 21
27.375008
  0
LINE
  8
0
 10
-36.999992
 20
31.625008
 11
28.000008
 21
31.625008
  0
LINE
  8
0
 10
-36.999992
 20
33.500008
 11
28.000008
 21
33.500008
  0
LINE
  8
0
 10
-42.999981
 20
22.999981
 11
-40.999981
 21
24.999977
  0
LINE
  8
0
 10
-94.999992
 20
86.000008
 11
-82.999985
 21
86.000008
  0
LINE
  8
0
 10
-94.999992
 20
-15.999996
 11
-82.999985
 21
-15.999996
  0
LINE
  8
0
 62
     4
 10
-36.999992
 20
87.000008
 11
-36.999992
 21
115.800003
  0
LINE
  8
0
 10
28.000008
 20
87.000008
 11
28.000008
 21
-16.999996
  0
LINE
  8
0
 62
     4
 10
44.000008
 20
87.000008
 11
44.000008
 21
116.000000
  0
LINE
  8
0
 62
     4
 10
-65.999992
 20
89.000008
 11
-65.999992
 21
109.000000
  0
LINE
  8
0
 62
     4
 10
-66.999977
 20
90.000008
 11
-65.999977
 21
89.000008
  0
LINE
  8
0
 62
     4
 10
-65.999931
 20
108.999931
 11
-66.999924
 21
107.999939
  0
LINE
  8
0
 62
     4
 10
-66.999992
 20
90.000008
 11
-66.999992
 21
108.000000
  0
LINE
  8
0
 62
     1
 10
-52.999992
 20
108.000000
 11
-66.999992
 21
108.000000
  0
LINE
  8
0
 62
     1
 10
-52.999992
 20
90.000008
 11
-66.999992
 21
90.000008
  0
LINE
  8
0
 62
     4
 10
-52.999992
 20
109.000000
 11
-65.999992
 21
109.000000
  0
LINE
  8
0
 62
     4
 10
-52.999992
 20
89.000008
 11
-65.999992
 21
89.000008
  0
LINE
  8
0
  6
CENTER
 62
     1
 10
65.338280
 20
99.000000
 11
-75.247276
 21
99.000000
  0
LINE
  8
0
 62
     4
 10
-36.999992
 20
116.000000
 11
-52.999992
 21
116.000000
  0
LINE
  8
0
 62
     4
 10
-52.999992
 20
87.000008
 11
-52.999992
 21
116.000000
  0
LINE
  8
0
  6
PHANTOM
 62
     3
 10
-4.499992
 20
-33.145115
 11
-4.499992
 21
137.225510
  0
LINE
  8
0
  6
PHANTOM
 62
     3
 10
74.500008
 20
-33.145115
 11
74.500008
 21
127.225510
  0
LINE
  8
0
  6
CENTER
 62
     2
 10
-201.333359
 20
34.999989
 11
-149.666702
 21
34.999989
  0
LINE
  8
0
 10
-195.999985
 20
86.999985
 11
-155.000015
 21
86.999985
  0
LINE
  8
0
 10
-155.000015
 20
86.999985
 11
-155.000015
 21
-17.000015
  0
LINE
  8
0
 10
-195.999985
 20
86.999985
 11
-195.999985
 21
-17.000015
  0
LINE
  8
0
 10
-194.999985
 20
85.999985
 11
-159.000015
 21
85.999985
  0
LINE
  8
0
  6
CENTER
 62
     2
 10
-183.191330
 20
54.999989
 11
-171.123367
 21
54.999989
  0
LINE
  8
0
  6
CENTER
 62
     2
 10
-176.999985
 20
93.982147
 11
-176.999985
 21
-19.435669
  0
LINE
  8
0
 10
-159.000015
 20
85.999985
 11
-159.000015
 21
-16.000015
  0
LINE
  8
0
 10
-194.999985
 20
85.999985
 11
-194.999985
 21
-16.000015
  0
LINE
  8
0
 10
-174.113342
 20
69.500031
 11
-175.556732
 21
67.000015
  0
LINE
  8
0
 10
-175.556763
 20
71.999908
 11
-174.113388
 21
69.499916
  0
LINE
  8
0
 10
-178.443405
 20
71.999985
 11
-175.556625
 21
71.999985
  0
LINE
  8
0
 10
-179.886765
 20
69.499985
 11
-178.443390
 21
71.999992
  0
LINE
  8
0
 10
-178.443741
 20
66.999786
 11
-179.887131
 21
69.499809
  0
LINE
  8
0
 10
-175.556625
 20
66.999954
 11
-178.443405
 21
66.999954
  0
LINE
  8
0
 10
-153.000015
 20
44.999989
 11
-153.000015
 21
24.999989
  0
LINE
  8
0
 10
-155.000137
 20
46.999866
 11
-153.000137
 21
44.999863
  0
LINE
  8
0
 10
-195.999985
 20
-17.000015
 11
-155.000015
 21
-17.000015
  0
LINE
  8
0
 10
-194.999985
 20
-16.000015
 11
-159.000015
 21
-16.000015
  0
LINE
  8
0
  6
CENTER
 62
     2
 10
-183.191330
 20
14.999989
 11
-170.720871
 21
14.999989
  0
LINE
  8
0
 10
-174.113434
 20
0.499932
 11
-175.556808
 21
2.999948
  0
LINE
  8
0
 10
-175.556946
 20
-1.999834
 11
-174.113571
 21
0.500165
  0
LINE
  8
0
 10
-178.443405
 20
-2.000015
 11
-175.556625
 21
-2.000015
  0
LINE
  8
0
 10
-179.886993
 20
0.499870
 11
-178.443619
 21
-2.000129
  0
LINE
  8
0
 10
-178.443344
 20
2.999950
 11
-179.886749
 21
0.499927
  0
LINE
  8
0
 10
-175.556625
 20
3.000008
 11
-178.443405
 21
3.000008
  0
LINE
  8
0
 10
-154.999939
 20
22.999895
 11
-152.999939
 21
24.999897
  0
LINE
  8
0
  6
CENTER
 62
     2
 10
-185.067764
 20
0.499985
 11
-169.305740
 21
0.499985
  0
LINE
  8
0
  6
CENTER
 62
     2
 10
-184.317184
 20
69.499985
 11
-169.868668
 21
69.499985
  0
LINE
  8
0
 10
-182.484818
 20
44.499989
 11
-171.515152
 21
44.499989
  0
LINE
  8
0
 10
-187.969681
 20
34.999996
 11
-182.484848
 21
44.499996
  0
LINE
  8
0
 10
-166.030365
 20
34.999981
 11
-171.515198
 21
44.499973
  0
LINE
  8
0
 10
-187.969711
 20
34.999966
 11
-182.484879
 21
25.499973
  0
LINE
  8
0
 10
-182.484818
 20
25.499989
 11
-171.515152
 21
25.499989
  0
LINE
  8
0
 10
-166.030334
 20
34.999985
 11
-171.515152
 21
25.499996
  0
LINE
  8
0
 62
     4
 10
-195.999985
 20
115.999985
 11
-154.999985
 21
115.999985
  0
LINE
  8
0
 62
     4
 10
-154.999985
 20
115.999985
 11
-154.999985
 21
86.999985
  0
LINE
  8
0
 62
     4
 10
-195.999985
 20
115.999985
 11
-195.999985
 21
86.999985
  0
LINE
  8
0
  6
CENTER
 62
     1
 10
-188.096603
 20
98.999985
 11
-163.146439
 21
98.999985
  0
LINE
  8
0
  6
CENTER
 62
     1
 10
-175.499985
 20
110.684647
 11
-175.499985
 21
87.421524
  0
LINE
  8
0
 10
173.000015
 20
87.000031
 11
173.000015
 21
-16.999973
  0
LINE
  8
0
 10
214.000015
 20
87.000031
 11
214.000015
 21
-16.999973
  0
LINE
  8
0
  6
CENTER
 62
     2
 10
167.213150
 20
35.000031
 11
217.584976
 21
35.000031
  0
LINE
  8
0
 10
173.000015
 20
87.000031
 11
214.000015
 21
87.000031
  0
LINE
  8
0
  6
CENTER
 62
     2
 10
195.000015
 20
90.744843
 11
195.000015
 21
-18.924152
  0
LINE
  8
0
 10
171.000015
 20
45.000031
 11
171.000015
 21
25.000023
  0
LINE
  8
0
 10
171.000107
 20
44.999908
 11
173.000107
 21
46.999912
  0
LINE
  8
0
  6
CENTER
 62
     2
 10
169.664658
 20
40.500031
 11
176.379105
 21
40.500031
  0
LINE
  8
0
 10
171.000015
 20
42.250031
 11
173.000015
 21
42.250031
  0
LINE
  8
0
 10
171.000015
 20
38.750031
 11
173.000015
 21
38.750031
  0
LINE
  8
0
 10
173.000015
 20
-16.999973
 11
214.000015
 21
-16.999973
  0
LINE
  8
0
 10
170.999695
 20
24.999741
 11
172.999695
 21
22.999739
  0
LINE
  8
0
  6
CENTER
 62
     2
 10
169.664658
 20
29.500031
 11
176.379105
 21
29.500031
  0
LINE
  8
0
 10
171.000015
 20
27.750031
 11
173.000015
 21
27.750031
  0
LINE
  8
0
 10
171.000015
 20
31.250031
 11
173.000015
 21
31.250031
  0
LINE
  8
0
 62
     4
 10
173.000015
 20
116.000031
 11
214.000015
 21
116.000031
  0
LINE
  8
0
 62
     4
 10
214.000015
 20
116.000031
 11
214.000015
 21
87.000031
  0
LINE
  8
0
 62
     4
 10
173.000015
 20
116.000031
 11
173.000015
 21
87.000031
  0
LINE
  8
0
  6
CENTER
 62
     1
 10
180.903397
 20
99.000031
 11
205.853561
 21
99.000031
  0
LINE
  8
0
  6
CENTER
 62
     1
 10
193.500015
 20
110.684692
 11
193.500015
 21
87.421562
  0
LINE
  8
0
  6
CENTER
 62
     2
 10
202.444290
 20
55.000031
 11
187.623367
 21
55.000031
  0
LINE
  8
0
 10
192.113449
 20
69.500130
 11
193.556870
 21
67.000114
  0
LINE
  8
0
 10
193.556580
 20
72.000031
 11
192.113220
 21
69.500023
  0
LINE
  8
0
 10
196.443436
 20
72.000031
 11
193.556656
 21
72.000031
  0
LINE
  8
0
 10
197.886719
 20
69.499954
 11
196.443359
 21
71.999977
  0
LINE
  8
0
 10
196.443588
 20
66.999924
 11
197.886948
 21
69.499947
  0
LINE
  8
0
 10
193.556656
 20
67.000000
 11
196.443436
 21
67.000000
  0
LINE
  8
0
  6
CENTER
 62
     2
 10
201.431290
 20
15.000031
 11
187.720901
 21
15.000031
  0
LINE
  8
0
 10
192.113266
 20
0.500041
 11
193.556625
 21
3.000066
  0
LINE
  8
0
 10
193.556686
 20
-1.999930
 11
192.113327
 21
0.500077
  0
LINE
  8
0
 10
196.443436
 20
-1.999973
 11
193.556656
 21
-1.999973
  0
LINE
  8
0
 10
197.886826
 20
0.500041
 11
196.443451
 21
-1.999966
  0
LINE
  8
0
 10
196.443329
 20
2.999966
 11
197.886703
 21
0.499925
  0
LINE
  8
0
 10
193.556656
 20
3.000050
 11
196.443436
 21
3.000050
  0
LINE
  8
0
  6
CENTER
 62
     2
 10
187.500015
 20
0.500027
 11
202.500015
 21
0.500027
  0
LINE
  8
0
  6
CENTER
 62
     2
 10
187.500015
 20
69.500031
 11
202.500015
 21
69.500031
  0
LINE
  8
0
 10
177.000015
 20
-15.999973
 11
213.000015
 21
-15.999973
  0
LINE
  8
0
 10
177.000015
 20
86.000031
 11
177.000015
 21
-15.999973
  0
LINE
  8
0
 10
213.000015
 20
86.000031
 11
213.000015
 21
-15.999973
  0
LINE
  8
0
 10
177.000015
 20
86.000031
 11
213.000015
 21
86.000031
  0
LINE
  8
0
  6
CENTER
 62
     2
 10
97.000046
 20
-64.140503
 11
97.000046
 21
-54.763519
  0
LINE
  8
0
 10
-82.999954
 20
-90.000000
 11
-82.999954
 21
-54.000000
  0
LINE
  8
0
 10
-94.999954
 20
-90.000000
 11
-94.999954
 21
-54.000000
  0
LINE
  8
0
 10
44.000046
 20
-91.000000
 11
44.000046
 21
-48.000000
  0
LINE
  8
0
 10
-74.999954
 20
-50.000000
 11
-74.999954
 21
-91.000000
  0
LINE
  8
0
 10
-36.999954
 20
-48.000000
 11
-36.999954
 21
-91.000000
  0
LINE
  8
0
 10
28.000046
 20
-48.000000
 11
28.000046
 21
-91.000000
  0
LINE
  8
0
 10
-74.999954
 20
-50.000000
 11
-36.999954
 21
-50.000000
  0
LINE
  8
0
  6
CENTER
 62
     2
 10
-101.019928
 20
-72.000000
 11
111.700333
 21
-72.000000
  0
LINE
  8
0
 10
-94.999954
 20
-54.000000
 11
-82.999954
 21
-54.000000
  0
LINE
  8
0
 10
-94.999954
 20
-90.000000
 11
-82.999954
 21
-90.000000
  0
LINE
  8
0
 10
-36.999954
 20
-50.199997
 11
28.000046
 21
-50.199997
  0
LINE
  8
0
 10
28.000046
 20
-50.000000
 11
58.000046
 21
-50.000000
  0
LINE
  8
0
 10
-74.999954
 20
-91.000000
 11
-36.999954
 21
-91.000000
  0
LINE
  8
0
 10
-36.999954
 20
-90.799988
 11
28.000046
 21
-90.799988
  0
LINE
  8
0
 10
-36.999954
 20
-48.199997
 11
28.000046
 21
-48.199997
  0
LINE
  8
0
 10
-40.999954
 20
-48.000000
 11
-36.999954
 21
-48.000000
  0
LINE
  8
0
 10
-42.999878
 20
-50.000088
 11
-40.999889
 21
-48.000099
  0
LINE
  8
0
 10
28.000046
 20
-48.000000
 11
44.000046
 21
-48.000000
  0
LINE
  8
0
 10
-82.999954
 20
-80.000000
 11
-74.999954
 21
-80.000000
  0
LINE
  8
0
 10
-82.999954
 20
-64.000000
 11
-74.999954
 21
-64.000000
  0
LINE
  8
0
  6
CENTER
 62
     2
 10
-93.210716
 20
-60.000000
 11
-84.680801
 21
-60.000000
  0
LINE
  8
0
  6
CENTER
 62
     2
 10
-93.779579
 20
-84.000000
 11
-84.489578
 21
-84.000000
  0
LINE
  8
0
  6
CENTER
 62
     2
 10
-88.999954
 20
-88.235229
 11
-88.999954
 21
-79.247498
  0
LINE
  8
0
  6
CENTER
 62
     2
 10
-88.999954
 20
-64.140503
 11
-88.999954
 21
-54.763519
  0
LINE
  8
0
  6
CENTER
 62
     2
 10
36.000046
 20
-89.573822
 11
36.000046
 21
-80.586121
  0
LINE
  8
0
 10
28.000046
 20
-91.000000
 11
58.000046
 21
-91.000000
  0
LINE
  8
0
  6
CENTER
 62
     2
 10
-72.162796
 20
-84.500000
 11
-62.499950
 21
-84.500000
  0
LINE
  8
0
  6
CENTER
 62
     2
 10
-71.973175
 20
-56.500000
 11
-62.499950
 21
-56.500000
  0
LINE
  8
0
  6
CENTER
 62
     2
 10
-66.999954
 20
-50.968384
 11
-66.999954
 21
-61.000000
  0
LINE
  8
0
  6
CENTER
 62
     2
 10
-44.999950
 20
-50.968384
 11
-44.999950
 21
-61.000000
  0
LINE
  8
0
  6
CENTER
 62
     2
 10
-66.999954
 20
-80.000000
 11
-66.999954
 21
-89.000000
  0
LINE
  8
0
  6
CENTER
 62
     2
 10
-49.499950
 20
-56.500000
 11
-40.499950
 21
-56.500000
  0
LINE
  8
0
  6
CENTER
 62
     2
 10
-44.999950
 20
-80.000000
 11
-44.999950
 21
-89.000000
  0
LINE
  8
0
  6
CENTER
 62
     2
 10
-49.499950
 20
-84.500000
 11
-40.499950
 21
-84.500000
  0
LINE
  8
0
  6
CENTER
 62
     2
 10
31.500046
 20
-56.500000
 11
40.282410
 21
-56.500000
  0
LINE
  8
0
  6
CENTER
 62
     2
 10
31.500046
 20
-84.500000
 11
40.472031
 21
-84.500000
  0
LINE
  8
0
  6
CENTER
 62
     2
 10
36.000046
 20
-61.000000
 11
36.000046
 21
-51.537247
  0
LINE
  8
0
 10
58.000046
 20
-91.000000
 11
58.000046
 21
-50.000000
  0
LINE
  8
0
 10
91.000046
 20
-90.000000
 11
91.000046
 21
-54.000000
  0
LINE
  8
0
 10
103.000046
 20
-90.000000
 11
103.000046
 21
-54.000000
  0
LINE
  8
0
 10
103.000061
 20
-54.000000
 11
91.000046
 21
-54.000000
  0
LINE
  8
0
 10
103.000061
 20
-90.000000
 11
91.000046
 21
-90.000000
  0
LINE
  8
0
 10
91.000046
 20
-80.000000
 11
58.000046
 21
-80.000000
  0
LINE
  8
0
 10
91.000046
 20
-64.000000
 11
58.000046
 21
-64.000000
  0
LINE
  8
0
  6
CENTER
 62
     2
 10
101.210800
 20
-60.000000
 11
92.680893
 21
-60.000000
  0
LINE
  8
0
  6
CENTER
 62
     2
 10
101.779678
 20
-84.000000
 11
92.489670
 21
-84.000000
  0
LINE
  8
0
  6
CENTER
 62
     2
 10
97.000046
 20
-88.235229
 11
97.000046
 21
-79.247498
  0
LINE
  8
0
 10
-78.125793
 20
-61.050003
 11
-81.874123
 21
-61.050003
  0
LINE
  8
0
 10
-78.125786
 20
-82.949997
 11
-81.874123
 21
-82.949997
  0
LINE
  8
0
  6
PHANTOM
 62
     3
 10
-4.499954
 20
-33.142731
 11
-4.499954
 21
-100.041542
  0
LINE
  8
0
  6
PHANTOM
 62
     3
 10
74.500046
 20
-33.142731
 11
74.500046
 21
-100.041542
  0
LINE
  8
0
 10
-281.250000
 20
195.500000
 11
282.099976
 21
195.500000
  0
LINE
  8
0
 10
-281.250000
 20
195.500000
 11
-281.250000
 21
-195.000000
  0
LINE
  8
0
 10
282.099976
 20
195.500000
 11
282.099976
 21
-195.000000
  0
LINE
  8
0
 10
-281.250000
 20
-195.000000
 11
282.099976
 21
-195.000000
  0
LINE
  8
0
 10
162.099976
 20
-175.000000
 11
162.099976
 21
-195.000000
  0
LINE
  8
0
 10
162.099976
 20
-175.000000
 11
282.099976
 21
-175.000000
  0
LINE
  8
0
 10
162.099976
 20
175.500000
 11
282.099976
 21
175.500000
  0
LINE
  8
0
 10
-281.250000
 20
175.500000
 11
-161.250000
 21
175.500000
  0
LINE
  8
0
 10
162.099976
 20
195.500000
 11
162.099976
 21
175.500000
  0
LINE
  8
0
 10
-161.250000
 20
195.500000
 11
-161.250000
 21
175.500000
  0
LINE
  8
0
 10
-271.250000
 20
-129.000000
 11
-271.250000
 21
-185.000000
  0
LINE
  8
0
 10
-221.250000
 20
-153.000000
 11
-221.250000
 21
-185.000000
  0
LINE
  8
0
 10
-177.250000
 20
-129.000000
 11
-177.250000
 21
-185.000000
  0
LINE
  8
0
 10
-155.250000
 20
-129.000000
 11
-155.250000
 21
-185.000000
  0
LINE
  8
0
 10
-133.250000
 20
-129.000000
 11
-133.250000
 21
-185.000000
  0
LINE
  8
0
 10
-111.250000
 20
-129.000000
 11
-111.250000
 21
-185.000000
  0
LINE
  8
0
 10
-45.250000
 20
-129.000000
 11
-45.250000
 21
-185.000000
  0
LINE
  8
0
 10
-199.250000
 20
-129.000000
 11
-199.250000
 21
-185.000000
  0
LINE
  8
0
 10
-221.250015
 20
-153.000000
 11
-271.250000
 21
-129.000000
  0
LINE
  8
0
 10
-249.250000
 20
-137.000000
 11
-208.487595
 21
-137.000000
  0
LINE
  8
0
 10
-199.249985
 20
-152.999969
 11
-208.487579
 21
-136.999969
  0
LINE
  8
0
 10
-249.250046
 20
-137.000137
 11
-271.250061
 21
-129.000137
  0
LINE
  8
0
 10
-89.250000
 20
-129.000000
 11
-89.250000
 21
-185.000000
  0
LINE
  8
0
 10
-67.250000
 20
-129.000000
 11
-67.250000
 21
-185.000000
  0
LINE
  8
0
 10
-271.250000
 20
-185.000000
 11
-1.250000
 21
-185.000000
  0
LINE
  8
0
 10
-271.250000
 20
-153.000000
 11
-1.250000
 21
-153.000000
  0
LINE
  8
0
 10
-271.250000
 20
-129.000000
 11
-1.250000
 21
-129.000000
  0
LINE
  8
0
 10
-221.250000
 20
-177.000000
 11
-1.250000
 21
-177.000000
  0
LINE
  8
0
 10
-221.250000
 20
-161.000000
 11
-1.250000
 21
-161.000000
  0
LINE
  8
0
 10
-271.250000
 20
-169.000000
 11
-1.250000
 21
-169.000000
  0
LINE
  8
0
 10
-1.250000
 20
-129.000000
 11
-1.250000
 21
-185.000000
  0
LINE
  8
0
 10
-23.250000
 20
-129.000000
 11
-23.250000
 21
-185.000000
  0
CIRCLE
  8
0
 10
51.000008
 20
47.000008
 40
4.283000
  0
CIRCLE
  8
0
 10
51.000008
 20
23.000008
 40
4.283000
  0
CIRCLE
  8
0
 10
-88.999992
 20
60.000008
 40
2.500000
  0
CIRCLE
  8
0
 10
97.000008
 20
10.000008
 40
2.500000
  0
CIRCLE
  8
0
 10
97.000008
 20
60.000008
 40
2.500000
  0
CIRCLE
  8
0
 10
-88.999992
 20
10.000008
 40
2.500000
  0
CIRCLE
  8
0
 62
     2
 10
51.000008
 20
47.000008
 40
4.864000
  0
CIRCLE
  8
0
 62
     2
 10
51.000008
 20
23.000008
 40
4.864000
  0
CIRCLE
  8
0
 62
     2
 10
97.000008
 20
60.000008
 40
3.000000
  0
CIRCLE
  8
0
 62
     2
 10
97.000008
 20
10.000008
 40
3.000000
  0
ARC
  8
0
 10
-105.269066
 20
39.750008
 40
28.269073
 50
350.326813
 51
9.673183
  0
ARC
  8
0
 10
-54.730915
 20
39.750008
 40
28.269072
 50
170.326782
 51
189.673157
  0
CIRCLE
  8
0
 62
     2
 10
-88.999992
 20
60.000008
 40
3.000000
  0
CIRCLE
  8
0
 10
-67.499985
 20
49.500008
 40
3.300000
  0
CIRCLE
  8
0
 10
-52.499989
 20
49.500008
 40
3.300000
  0
ARC
  8
0
 10
-105.269066
 20
30.250008
 40
28.269070
 50
350.326752
 51
9.673130
  0
ARC
  8
0
 10
-54.730915
 20
30.250008
 40
28.269072
 50
170.326782
 51
189.673157
  0
CIRCLE
  8
0
 62
     2
 10
-88.999992
 20
10.000008
 40
3.000000
  0
CIRCLE
  8
0
 10
-67.499985
 20
20.500008
 40
3.300000
  0
CIRCLE
  8
0
 10
-52.499989
 20
20.500008
 40
3.300000
  0
CIRCLE
  8
0
 10
-52.499989
 20
20.500008
 40
5.500000
  0
CIRCLE
  8
0
 10
-67.499985
 20
20.500008
 40
5.500000
  0
ARC
  8
0
 10
41.250008
 20
29.500008
 40
1.750000
 50
89.999878
 51
270.000000
  0
ARC
  8
0
 10
8.000008
 20
33.750008
 40
0.500000
 50
0.000000
 51
180.000000
  0
CIRCLE
  8
0
 10
-52.499989
 20
49.500008
 40
5.500000
  0
CIRCLE
  8
0
 10
-67.499985
 20
49.500008
 40
5.500000
  0
ARC
  8
0
 10
41.250008
 20
40.500008
 40
1.750000
 50
90.000000
 51
270.000000
  0
ARC
  8
0
 10
9.250008
 20
35.000008
 40
1.250000
 50
270.000000
 51
90.000000
  0
ARC
  8
0
 10
6.750008
 20
35.000008
 40
1.250000
 50
89.999977
 51
270.000000
  0
ARC
  8
0
 10
8.000008
 20
36.250008
 40
0.500000
 50
180.000000
 51
0.000000
  0
CIRCLE
  8
0
 10
-176.999985
 20
14.999989
 40
3.375000
  0
CIRCLE
  8
0
 10
-176.999985
 20
54.999989
 40
3.375000
  0
CIRCLE
  8
0
 62
     2
 10
-176.999985
 20
14.999989
 40
4.000000
  0
CIRCLE
  8
0
 62
     2
 10
-176.999985
 20
34.999989
 40
4.250000
  0
CIRCLE
  8
0
 62
     4
 10
-175.499985
 20
98.999985
 40
10.000000
  0
CIRCLE
  8
0
 10
-176.999985
 20
0.499985
 40
5.500000
  0
CIRCLE
  8
0
 62
     1
 10
-175.499985
 20
98.999985
 40
9.000000
  0
CIRCLE
  8
0
 10
-176.999985
 20
0.499985
 40
5.000000
  0
CIRCLE
  8
0
 10
-176.999985
 20
34.999989
 40
14.000000
  0
CIRCLE
  8
0
 62
     2
 10
-176.999985
 20
54.999989
 40
4.000000
  0
CIRCLE
  8
0
 10
-176.999985
 20
69.499985
 40
5.500000
  0
CIRCLE
  8
0
 10
-176.999985
 20
69.499985
 40
5.000000
  0
CIRCLE
  8
0
 10
-176.999985
 20
34.999989
 40
5.000000
  0
CIRCLE
  8
0
 10
195.000015
 20
15.000031
 40
3.375000
  0
CIRCLE
  8
0
 10
195.000015
 20
55.000031
 40
3.375000
  0
ARC
  8
0
 10
173.650009
 20
29.500031
 40
1.749999
 50
111.803543
 51
248.196457
  0
CIRCLE
  8
0
 62
     4
 10
193.500015
 20
99.000031
 40
10.000000
  0
CIRCLE
  8
0
 62
     1
 10
193.500015
 20
99.000031
 40
9.000000
  0
CIRCLE
  8
0
 62
     2
 10
195.000015
 20
55.000031
 40
4.000000
  0
CIRCLE
  8
0
 10
195.000015
 20
69.500031
 40
5.500000
  0
CIRCLE
  8
0
 10
195.000015
 20
69.500031
 40
5.000000
  0
CIRCLE
  8
0
 62
     2
 10
195.000015
 20
15.000031
 40
4.000000
  0
CIRCLE
  8
0
 10
195.000015
 20
0.500027
 40
5.500000
  0
CIRCLE
  8
0
 10
195.000015
 20
0.500027
 40
5.000000
  0
ARC
  8
0
 10
173.650009
 20
40.500031
 40
1.749999
 50
111.803543
 51
248.196457
  0
CIRCLE
  8
0
 10
97.000046
 20
-60.000000
 40
2.500000
  0
CIRCLE
  8
0
 10
-66.999954
 20
-84.500000
 40
2.500000
  0
CIRCLE
  8
0
 10
97.000046
 20
-84.000000
 40
2.500000
  0
CIRCLE
  8
0
 10
36.000046
 20
-84.500000
 40
2.500000
  0
CIRCLE
  8
0
 10
-44.999950
 20
-56.500000
 40
2.500000
  0
CIRCLE
  8
0
 10
36.000046
 20
-56.500000
 40
2.500000
  0
CIRCLE
  8
0
 10
-44.999950
 20
-84.500000
 40
2.500000
  0
ARC
  8
0
 10
-79.108879
 20
-80.212494
 40
3.891076
 50
176.869370
 51
224.711090
  0
ARC
  8
0
 10
-79.108879
 20
-63.787498
 40
3.891076
 50
135.288712
 51
183.130569
  0
ARC
  8
0
 10
-80.891029
 20
-63.787498
 40
3.891076
 50
356.869385
 51
44.711163
  0
ARC
  8
0
 10
-80.891029
 20
-80.212494
 40
3.891079
 50
315.288849
 51
3.130625
  0
CIRCLE
  8
0
 62
     2
 10
-66.999954
 20
-56.500000
 40
3.000000
  0
CIRCLE
  8
0
 62
     2
 10
-44.999950
 20
-84.500000
 40
3.000000
  0
CIRCLE
  8
0
 62
     2
 10
-66.999954
 20
-84.500000
 40
3.000000
  0
CIRCLE
  8
0
 62
     2
 10
36.000046
 20
-56.500000
 40
3.000000
  0
CIRCLE
  8
0
 62
     2
 10
-88.999954
 20
-84.000000
 40
3.000000
  0
CIRCLE
  8
0
 62
     2
 10
-88.999954
 20
-60.000000
 40
3.000000
  0
CIRCLE
  8
0
 62
     2
 10
97.000046
 20
-84.000000
 40
3.000000
  0
CIRCLE
  8
0
 62
     2
 10
-44.999950
 20
-56.500000
 40
3.000000
  0
CIRCLE
  8
0
 62
     2
 10
36.000046
 20
-84.500000
 40
3.000000
  0
CIRCLE
  8
0
 62
     2
 10
97.000046
 20
-60.000000
 40
3.000000
  0
CIRCLE
  8
0
 10
-88.999954
 20
-60.000000
 40
2.500000
  0
CIRCLE
  8
0
 10
-88.999954
 20
-84.000000
 40
2.500000
  0
CIRCLE
  8
0
 10
-66.999954
 20
-56.500000
 40
2.500000
  0
TEXT
  8
0
 10
196.250259
 20
180.830002
 40
6.300000
  1
Ver. 2.0
 50
0.000000
 41
1.052632
 51
0.000000
  7
STANDARD
  0
TEXT
  8
0
 10
167.564667
 20
-192.100006
 40
9.000000
  1
KOGANEI CORP.
 50
0.000000
 41
1.052632
 51
0.000000
  7
STANDARD
  0
TEXT
  8
0
 10
-262.849731
 20
180.830002
 40
6.300000
  1
AXIS CYLINDER
 50
0.000000
 41
1.052632
 51
0.000000
  7
STANDARD
  0
TEXT
  8
0
 10
-232.550003
 20
145.830002
 40
6.300000
  1
XDAAD32*ST(25)-SSL
 50
0.000000
 41
1.052632
 51
0.000000
  7
STANDARD
  0
TEXT
  8
0
 10
-270.049988
 20
155.830002
 40
6.300000
  1
MODEL:XDAD32*ST(25)-SSL
 50
0.000000
 41
1.052632
 51
0.000000
  7
STANDARD
  0
TEXT
  8
0
 62
     3
 10
54.525234
 20
130.402008
 40
6.300000
  1
STRETCH LINE B
 50
0.000000
 41
1.052632
 51
0.000000
  7
STANDARD
  0
TEXT
  8
0
 10
-21.642857
 20
-128.050003
 40
4.500000
  1
(mm)
 50
0.000000
 41
1.052632
 51
0.000000
  7
STANDARD
  0
TEXT
  8
0
 10
-193.142853
 20
-144.050003
 40
4.500000
  1
25
 50
0.000000
 41
1.052632
 51
0.000000
  7
STANDARD
  0
TEXT
  8
0
 10
-171.142853
 20
-144.050003
 40
4.500000
  1
50
 50
0.000000
 41
1.052632
 51
0.000000
  7
STANDARD
  0
TEXT
  8
0
 10
-149.142853
 20
-144.050003
 40
4.500000
  1
75
 50
0.000000
 41
1.052632
 51
0.000000
  7
STANDARD
  0
TEXT
  8
0
 10
-129.392853
 20
-144.050003
 40
4.500000
  1
100
 50
0.000000
 41
1.052632
 51
0.000000
  7
STANDARD
  0
TEXT
  8
0
 10
-107.392853
 20
-144.050003
 40
4.500000
  1
125
 50
0.000000
 41
1.052632
 51
0.000000
  7
STANDARD
  0
TEXT
  8
0
 10
-190.892853
 20
-184.050003
 40
4.500000
  1
0
 50
0.000000
 41
1.052632
 51
0.000000
  7
STANDARD
  0
TEXT
  8
0
 10
-171.142853
 20
-184.050003
 40
4.500000
  1
25
 50
0.000000
 41
1.052632
 51
0.000000
  7
STANDARD
  0
TEXT
  8
0
 10
-149.142853
 20
-184.050003
 40
4.500000
  1
50
 50
0.000000
 41
1.052632
 51
0.000000
  7
STANDARD
  0
TEXT
  8
0
 10
-127.142853
 20
-184.050003
 40
4.500000
  1
75
 50
0.000000
 41
1.052632
 51
0.000000
  7
STANDARD
  0
TEXT
  8
0
 10
-19.392857
 20
-184.050003
 40
4.500000
  1
200
 50
0.000000
 41
1.052632
 51
0.000000
  7
STANDARD
  0
TEXT
  8
0
 10
-242.761658
 20
-136.050003
 40
4.500000
  1
STROKE
 50
0.000000
 41
1.052632
 51
0.000000
  7
STANDARD
  0
TEXT
  8
0
 10
-265.408447
 20
-152.050003
 40
4.500000
  1
TYPE
 50
0.000000
 41
1.052632
 51
0.000000
  7
STANDARD
  0
TEXT
  8
0
 10
-264.000000
 20
-178.699997
 40
4.500000
  1
XDAAD32
 50
0.000000
 41
1.052632
 51
0.000000
  7
STANDARD
  0
TEXT
  8
0
 10
-163.642853
 20
-127.050003
 40
4.500000
  1
STRETCH LIST
 50
0.000000
 41
1.052632
 51
0.000000
  7
STANDARD
  0
TEXT
  8
0
 10
-264.000000
 20
-162.699997
 40
4.500000
  1
XDAD32
 50
0.000000
 41
1.052632
 51
0.000000
  7
STANDARD
  0
TEXT
  8
0
 10
-190.892853
 20
-176.050003
 40
4.500000
  1
0
 50
0.000000
 41
1.052632
 51
0.000000
  7
STANDARD
  0
TEXT
  8
0
 10
-171.142853
 20
-176.050003
 40
4.500000
  1
25
 50
0.000000
 41
1.052632
 51
0.000000
  7
STANDARD
  0
TEXT
  8
0
 10
-149.142853
 20
-176.050003
 40
4.500000
  1
50
 50
0.000000
 41
1.052632
 51
0.000000
  7
STANDARD
  0
TEXT
  8
0
 10
-127.142853
 20
-176.050003
 40
4.500000
  1
75
 50
0.000000
 41
1.052632
 51
0.000000
  7
STANDARD
  0
TEXT
  8
0
 10
-19.392857
 20
-176.050003
 40
4.500000
  1
200
 50
0.000000
 41
1.052632
 51
0.000000
  7
STANDARD
  0
TEXT
  8
0
 10
-190.892853
 20
-160.050003
 40
4.500000
  1
0
 50
0.000000
 41
1.052632
 51
0.000000
  7
STANDARD
  0
TEXT
  8
0
 10
-171.142853
 20
-160.050003
 40
4.500000
  1
25
 50
0.000000
 41
1.052632
 51
0.000000
  7
STANDARD
  0
TEXT
  8
0
 10
-149.142853
 20
-160.050003
 40
4.500000
  1
50
 50
0.000000
 41
1.052632
 51
0.000000
  7
STANDARD
  0
TEXT
  8
0
 10
-127.142853
 20
-160.050003
 40
4.500000
  1
75
 50
0.000000
 41
1.052632
 51
0.000000
  7
STANDARD
  0
TEXT
  8
0
 10
-19.392857
 20
-160.050003
 40
4.500000
  1
200
 50
0.000000
 41
1.052632
 51
0.000000
  7
STANDARD
  0
TEXT
  8
0
 10
-190.892853
 20
-168.050003
 40
4.500000
  1
0
 50
0.000000
 41
1.052632
 51
0.000000
  7
STANDARD
  0
TEXT
  8
0
 10
-171.142853
 20
-168.050003
 40
4.500000
  1
25
 50
0.000000
 41
1.052632
 51
0.000000
  7
STANDARD
  0
TEXT
  8
0
 10
-149.142853
 20
-168.050003
 40
4.500000
  1
50
 50
0.000000
 41
1.052632
 51
0.000000
  7
STANDARD
  0
TEXT
  8
0
 10
-127.142853
 20
-168.050003
 40
4.500000
  1
75
 50
0.000000
 41
1.052632
 51
0.000000
  7
STANDARD
  0
TEXT
  8
0
 10
-19.392857
 20
-168.050003
 40
4.500000
  1
200
 50
0.000000
 41
1.052632
 51
0.000000
  7
STANDARD
  0
TEXT
  8
0
 10
-212.892654
 20
-184.050003
 40
4.500000
  1
B
 50
0.000000
 41
1.052632
 51
0.000000
  7
STANDARD
  0
TEXT
  8
0
 10
-212.892654
 20
-160.050003
 40
4.500000
  1
A
 50
0.000000
 41
1.052632
 51
0.000000
  7
STANDARD
  0
TEXT
  8
0
 10
-212.892654
 20
-168.050003
 40
4.500000
  1
B
 50
0.000000
 41
1.052632
 51
0.000000
  7
STANDARD
  0
TEXT
  8
0
 10
-212.892654
 20
-176.050003
 40
4.500000
  1
A
 50
0.000000
 41
1.052632
 51
0.000000
  7
STANDARD
  0
TEXT
  8
0
 10
-241.877258
 20
-141.324997
 40
4.500000
  1
STRETCH
 50
0.000000
 41
1.052632
 51
0.000000
  7
STANDARD
  0
TEXT
  8
0
 10
-241.877258
 20
-148.074997
 40
4.500000
  1
   PLACE
 50
0.000000
 41
1.052632
 51
0.000000
  7
STANDARD
  0
TEXT
  8
0
 10
-19.392656
 20
-144.050003
 40
4.500000
  1
225
 50
0.000000
 41
1.052632
 51
0.000000
  7
STANDARD
  0
TEXT
  8
0
 10
-107.392853
 20
-160.050003
 40
4.500000
  1
100
 50
0.000000
 41
1.052632
 51
0.000000
  7
STANDARD
  0
TEXT
  8
0
 10
-107.392853
 20
-168.050003
 40
4.500000
  1
100
 50
0.000000
 41
1.052632
 51
0.000000
  7
STANDARD
  0
TEXT
  8
0
 10
-107.392853
 20
-176.050003
 40
4.500000
  1
100
 50
0.000000
 41
1.052632
 51
0.000000
  7
STANDARD
  0
TEXT
  8
0
 10
-107.392853
 20
-184.050003
 40
4.500000
  1
100
 50
0.000000
 41
1.052632
 51
0.000000
  7
STANDARD
  0
TEXT
  8
0
 10
-85.392853
 20
-184.050003
 40
4.500000
  1
125
 50
0.000000
 41
1.052632
 51
0.000000
  7
STANDARD
  0
TEXT
  8
0
 10
-85.392853
 20
-176.050003
 40
4.500000
  1
125
 50
0.000000
 41
1.052632
 51
0.000000
  7
STANDARD
  0
TEXT
  8
0
 10
-85.392853
 20
-160.050003
 40
4.500000
  1
125
 50
0.000000
 41
1.052632
 51
0.000000
  7
STANDARD
  0
TEXT
  8
0
 10
-85.392853
 20
-168.050003
 40
4.500000
  1
125
 50
0.000000
 41
1.052632
 51
0.000000
  7
STANDARD
  0
TEXT
  8
0
 10
-85.392654
 20
-144.050003
 40
4.500000
  1
150
 50
0.000000
 41
1.052632
 51
0.000000
  7
STANDARD
  0
TEXT
  8
0
 10
-63.392658
 20
-144.050003
 40
4.500000
  1
175
 50
0.000000
 41
1.052632
 51
0.000000
  7
STANDARD
  0
TEXT
  8
0
 10
-63.392857
 20
-168.050003
 40
4.500000
  1
150
 50
0.000000
 41
1.052632
 51
0.000000
  7
STANDARD
  0
TEXT
  8
0
 10
-63.392857
 20
-160.050003
 40
4.500000
  1
150
 50
0.000000
 41
1.052632
 51
0.000000
  7
STANDARD
  0
TEXT
  8
0
 10
-63.392857
 20
-176.050003
 40
4.500000
  1
150
 50
0.000000
 41
1.052632
 51
0.000000
  7
STANDARD
  0
TEXT
  8
0
 10
-63.392857
 20
-184.050003
 40
4.500000
  1
150
 50
0.000000
 41
1.052632
 51
0.000000
  7
STANDARD
  0
TEXT
  8
0
 10
-41.392658
 20
-144.050003
 40
4.500000
  1
200
 50
0.000000
 41
1.052632
 51
0.000000
  7
STANDARD
  0
TEXT
  8
0
 10
-41.392857
 20
-168.050003
 40
4.500000
  1
150
 50
0.000000
 41
1.052632
 51
0.000000
  7
STANDARD
  0
TEXT
  8
0
 10
-41.392857
 20
-160.050003
 40
4.500000
  1
150
 50
0.000000
 41
1.052632
 51
0.000000
  7
STANDARD
  0
TEXT
  8
0
 10
-41.392857
 20
-176.050003
 40
4.500000
  1
150
 50
0.000000
 41
1.052632
 51
0.000000
  7
STANDARD
  0
TEXT
  8
0
 10
-41.392857
 20
-184.050003
 40
4.500000
  1
150
 50
0.000000
 41
1.052632
 51
0.000000
  7
STANDARD
  0
TEXT
  8
0
 62
     3
 10
-49.474762
 20
140.402008
 40
6.300000
  1
STRETCH LINE A
 50
0.000000
 41
1.052632
 51
0.000000
  7
STANDARD
  0
ENDSEC
  0
EOF
