  0
SECTION
  2
HEADER
  0
ENDSEC
  0
SECTION
  2
TABLES
  0
TABLE
  2
LTYPE
 70
     4
  0
LTYPE
  2
CONTINUOUS
 70
    64
  3
Solid line
 72
    65
 73
     0
 40
0.000000
  0
LTYPE
  2
DASHED
 70
    64
  3
__ __ __ __ __ __ __ __ __ __ __ __ __ __ __
 72
    65
 73
     2
 40
3.500000
 49
2.000000
 49
-1.500000
  0
LTYPE
  2
CENTER
 70
    64
  3
____ _ ____ _ ____ _ ____ _ ____ _ ____ _ ____
 72
    65
 73
     4
 40
17.500000
 49
13.000000
 49
-1.500000
 49
1.500000
 49
-1.500000
  0
LTYPE
  2
PHANTOM
 70
    64
  3
_____ _ _ _____ _ _ _____ _ _ _____ _ _ ____  
 72
    65
 73
     6
 40
15.500000
 49
8.000000
 49
-1.500000
 49
1.500000
 49
-1.500000
 49
1.500000
 49
-1.500000
  0
LTYPE
  2
DASHED1
 70
    64
  3
__ __ __ __ __ __ __ __ __ __ __ __ __ __ __
 72
    65
 73
     2
 40
1.500000
 49
1.000000
 49
-0.500000
  0
LTYPE
  2
DASHED2
 70
    64
  3
__ __ __ __ __ __ __ __ __ __ __ __ __ __ __
 72
    65
 73
     2
 40
3.500000
 49
2.500000
 49
-1.000000
  0
LTYPE
  2
DASHED3
 70
    64
  3
__ __ __ __ __ __ __ __ __ __ __ __ __ __ __
 72
    65
 73
     2
 40
6.000000
 49
4.000000
 49
-2.000000
  0
LTYPE
  2
DASHED4
 70
    64
  3
__ __ __ __ __ __ __ __ __ __ __ __ __ __ __
 72
    65
 73
     2
 40
12.000000
 49
10.000000
 49
-2.000000
  0
LTYPE
  2
DASHED5
 70
    64
  3
__ __ __ __ __ __ __ __ __ __ __ __ __ __ __
 72
    65
 73
     2
 40
17.000000
 49
15.000000
 49
-2.000000
  0
LTYPE
  2
DASHED6
 70
    64
  3
__ __ __ __ __ __ __ __ __ __ __ __ __ __ __
 72
    65
 73
     2
 40
29.000000
 49
27.000000
 49
-2.000000
  0
LTYPE
  2
PHANTOM1
 70
    64
  3
_____ _ _ _____ _ _ _____ _ _ _____ _ _ ____  
 72
    65
 73
     6
 40
31.000000
 49
25.000000
 49
-1.500000
 49
1.000000
 49
-1.000000
 49
1.000000
 49
-1.500000
  0
LTYPE
  2
PHANTOM2
 70
    64
  3
_____ _ _ _____ _ _ _____ _ _ _____ _ _ ____  
 72
    65
 73
     6
 40
36.000000
 49
27.000000
 49
-1.500000
 49
2.500000
 49
-1.000000
 49
2.500000
 49
-1.500000
  0
LTYPE
  2
PHANTOM3
 70
    64
  3
_____ _ _ _____ _ _ _____ _ _ _____ _ _ ____  
 72
    65
 73
     6
 40
78.000000
 49
64.000000
 49
-2.000000
 49
4.000000
 49
-2.000000
 49
4.000000
 49
-2.000000
  0
LTYPE
  2
CENTER1
 70
    64
  3
____ _ ____ _ ____ _ ____ _ ____ _ ____ _ ____
 72
    65
 73
     4
 40
19.000000
 49
14.000000
 49
-1.000000
 49
3.000000
 49
-1.000000
  0
LTYPE
  2
CENTER2
 70
    64
  3
____ _ ____ _ ____ _ ____ _ ____ _ ____ _ ____
 72
    65
 73
     4
 40
28.500000
 49
25.000000
 49
-1.000000
 49
1.500000
 49
-1.000000
  0
LTYPE
  2
CENTER3
 70
    64
  3
____ _ ____ _ ____ _ ____ _ ____ _ ____ _ ____
 72
    65
 73
     4
 40
31.500000
 49
27.000000
 49
-1.000000
 49
2.500000
 49
-1.000000
  0
LTYPE
  2
CENTER4
 70
    64
  3
____ _ ____ _ ____ _ ____ _ ____ _ ____ _ ____
 72
    65
 73
     4
 40
50.000000
 49
45.000000
 49
-1.000000
 49
3.000000
 49
-1.000000
  0
LTYPE
  2
CENTER5
 70
    64
  3
____ _ ____ _ ____ _ ____ _ ____ _ ____ _ ____
 72
    65
 73
     4
 40
100.000000
 49
92.000000
 49
-2.000000
 49
4.000000
 49
-2.000000
  0
LTYPE
  2
SBK1
 70
    64
  3
______ _ _ _ ______ _ _ _ ______ _ _ _ _____  
 72
    65
 73
     8
 40
60.500000
 49
45.000000
 49
-2.000000
 49
2.500000
 49
-2.000000
 49
2.500000
 49
-2.000000
 49
2.500000
 49
-2.000000
  0
LTYPE
  2
SBK2
 70
    64
  3
______ _ _ _ ______ _ _ _ ______ _ _ _ _____  
 72
    65
 73
     8
 40
84.000000
 49
64.000000
 49
-2.000000
 49
4.000000
 49
-2.000000
 49
4.000000
 49
-2.000000
 49
4.000000
 49
-2.000000
  0
LTYPE
  2
STCH
 70
    64
  3
__ __ __ __ __ __ __ __ __ __ __ __ __ __ __
 72
    65
 73
     2
 40
3.000000
 49
1.000000
 49
-2.000000
  0
LTYPE
  2
MTCH
 70
    64
  3
_____ _ _ _____ _ _ _____ _ _ _____ _ _ ____  
 72
    65
 73
     6
 40
80.000000
 49
66.000000
 49
-2.000000
 49
4.000000
 49
-2.000000
 49
4.000000
 49
-2.000000
  0
ENDTAB
  0
TABLE
  2
LAYER
 70
     1
  0
LAYER
  2
0
 70
     0
 62
     7
  6
CONTINUOUS
  0
ENDTAB
  0
TABLE
  2
STYLE
 70
     1
  0
STYLE
  2
STANDARD
 70
     0
 40
0.000000
 41
1.000000
 50
0.000000
 71
     0
 42
0.200000
  3
txt
  4
BIGFONT
  0
ENDTAB
  0
TABLE
  2
VIEW
 70
     0
  0
ENDTAB
  0
ENDSEC
  0
SECTION
  2
BLOCKS
  0
ENDSEC
  0
SECTION
  2
ENTITIES
  0
LINE
  8
0
 10
-99.999985
 20
71.000000
 11
-99.999985
 21
-0.999996
  0
LINE
  8
0
 10
-91.999985
 20
71.000000
 11
-91.999985
 21
-0.999996
  0
LINE
  8
0
 10
-84.999985
 20
72.000000
 11
-84.999985
 21
-1.999996
  0
LINE
  8
0
 10
-91.999985
 20
28.500004
 11
-86.999985
 21
28.500004
  0
LINE
  8
0
 10
-86.999985
 20
28.500004
 11
-86.999985
 21
41.500004
  0
LINE
  8
0
 10
-91.999985
 20
41.500004
 11
-86.999985
 21
41.500004
  0
LINE
  8
0
  6
CENTER
 62
     2
 10
-93.745499
 20
10.500004
 11
-82.429520
 21
10.500004
  0
LINE
  8
0
  6
CENTER
 62
     2
 10
-94.122696
 20
59.500004
 11
-82.618118
 21
59.500004
  0
LINE
  8
0
 10
-91.999985
 20
54.500004
 11
-84.999985
 21
54.500004
  0
LINE
  8
0
 10
-91.999985
 20
64.500000
 11
-84.999985
 21
64.500000
  0
LINE
  8
0
 10
-91.999985
 20
5.500004
 11
-84.999985
 21
5.500004
  0
LINE
  8
0
 10
-91.999985
 20
15.500004
 11
-84.999985
 21
15.500004
  0
LINE
  8
0
 10
-84.999985
 20
72.000000
 11
-28.999985
 21
72.000000
  0
LINE
  8
0
 10
-84.999985
 20
-1.999996
 11
-28.999985
 21
-1.999996
  0
LINE
  8
0
 10
-99.999985
 20
71.000000
 11
-91.999985
 21
71.000000
  0
LINE
  8
0
 10
-99.999985
 20
-0.999996
 11
-91.999985
 21
-0.999996
  0
LINE
  8
0
 10
-28.999985
 20
71.800003
 11
36.000015
 21
71.800003
  0
LINE
  8
0
 10
-28.999985
 20
-1.799995
 11
36.000015
 21
-1.799995
  0
LINE
  8
0
 10
36.000015
 20
72.000000
 11
57.000015
 21
72.000000
  0
LINE
  8
0
 10
36.000015
 20
-1.999996
 11
57.000015
 21
-1.999996
  0
LINE
  8
0
  6
CENTER
 62
     2
 10
-92.506577
 20
17.000004
 11
-100.129219
 21
17.000004
  0
LINE
  8
0
  6
CENTER
 62
     2
 10
-92.593300
 20
53.000004
 11
-100.267426
 21
53.000004
  0
LINE
  8
0
  6
CENTER
 62
     2
 10
-95.999985
 20
57.265842
 11
-95.999985
 21
49.507538
  0
LINE
  8
0
  6
CENTER
 62
     2
 10
-95.999985
 20
20.800776
 11
-95.999985
 21
13.689131
  0
LINE
  8
0
  6
CENTER
 62
     2
 10
-78.999985
 20
52.976635
 11
-78.999985
 21
39.447163
  0
LINE
  8
0
  6
CENTER
 62
     2
 10
-39.999985
 20
51.737629
 11
-39.999985
 21
39.358051
  0
LINE
  8
0
  6
CENTER
 62
     2
 10
-84.617653
 20
45.500004
 11
-72.773460
 21
45.500004
  0
LINE
  8
0
  6
CENTER
 62
     2
 10
-84.203041
 20
24.500004
 11
-72.860184
 21
24.500004
  0
LINE
  8
0
  6
CENTER
 62
     2
 10
-46.584469
 20
45.500004
 11
-35.383804
 21
45.500004
  0
LINE
  8
0
  6
CENTER
 62
     2
 10
-46.826450
 20
24.500004
 11
-35.499985
 21
24.500004
  0
LINE
  8
0
  6
CENTER
 62
     2
 10
-39.999985
 20
30.839739
 11
-39.999985
 21
18.256775
  0
LINE
  8
0
  6
CENTER
 62
     2
 10
-78.999985
 20
30.600969
 11
-78.999985
 21
18.285683
  0
LINE
  8
0
 10
-34.999985
 20
47.000004
 11
-34.999985
 21
23.000004
  0
LINE
  8
0
 10
-32.999985
 20
45.000004
 11
-32.999985
 21
25.000004
  0
LINE
  8
0
 10
-34.999985
 20
23.000004
 11
47.000015
 21
23.000004
  0
LINE
  8
0
 10
-34.999985
 20
47.000004
 11
47.000015
 21
47.000004
  0
LINE
  8
0
 10
-32.999985
 20
45.000004
 11
47.000015
 21
45.000004
  0
LINE
  8
0
 10
-32.999985
 20
25.000004
 11
47.000015
 21
25.000004
  0
LINE
  8
0
 10
-34.999981
 20
23.000006
 11
-32.999981
 21
25.000004
  0
LINE
  8
0
 10
-28.999985
 20
33.500004
 11
36.000015
 21
33.500004
  0
LINE
  8
0
 10
-28.999985
 20
36.500004
 11
36.000015
 21
36.500004
  0
LINE
  8
0
 10
-28.999985
 20
38.375004
 11
36.000015
 21
38.375004
  0
LINE
  8
0
 10
-28.999985
 20
31.625004
 11
36.000015
 21
31.625004
  0
LINE
  8
0
 10
-28.999985
 20
42.625004
 11
36.000015
 21
42.625004
  0
LINE
  8
0
 10
-28.999985
 20
27.375004
 11
36.000015
 21
27.375004
  0
LINE
  8
0
  6
CENTER
 62
     2
 10
40.644791
 20
29.500004
 11
50.497787
 21
29.500004
  0
LINE
  8
0
  6
CENTER
 62
     2
 10
40.160812
 20
40.500004
 11
50.497787
 21
40.500004
  0
LINE
  8
0
 10
44.250015
 20
42.250004
 11
47.000015
 21
42.250004
  0
LINE
  8
0
 10
44.250015
 20
38.750004
 11
47.000015
 21
38.750004
  0
LINE
  8
0
 10
44.250015
 20
31.250004
 11
47.000015
 21
31.250004
  0
LINE
  8
0
 10
44.250015
 20
27.750004
 11
47.000015
 21
27.750004
  0
LINE
  8
0
 10
15.750015
 20
36.250004
 11
16.500015
 21
36.250004
  0
LINE
  8
0
 10
15.750015
 20
33.750004
 11
16.500015
 21
33.750004
  0
LINE
  8
0
 10
17.500015
 20
36.250004
 11
18.250015
 21
36.250004
  0
LINE
  8
0
 10
17.500015
 20
33.750004
 11
18.250015
 21
33.750004
  0
LINE
  8
0
 10
-86.999985
 20
38.000004
 11
-84.999985
 21
38.000004
  0
LINE
  8
0
 10
-86.999985
 20
32.000004
 11
-84.999985
 21
32.000004
  0
LINE
  8
0
 62
     2
 10
-87.000000
 20
37.500015
 11
-86.133972
 21
38.000015
  0
LINE
  8
0
 62
     2
 10
-87.000000
 20
32.499996
 11
-86.133972
 21
32.000000
  0
LINE
  8
0
 10
-91.709824
 20
35.000004
 11
-87.290146
 21
35.000004
  0
LINE
  8
0
  6
CENTER
 62
     2
 10
-106.899094
 20
35.000004
 11
103.088303
 21
35.000004
  0
LINE
  8
0
 62
     4
 10
-28.999985
 20
92.800003
 11
36.000015
 21
92.800003
  0
LINE
  8
0
 62
     4
 10
36.000015
 20
93.000000
 11
47.000015
 21
93.000000
  0
LINE
  8
0
 62
     4
 10
-28.999985
 20
93.000000
 11
-28.999985
 21
72.000000
  0
LINE
  8
0
 62
     4
 10
36.000015
 20
93.000000
 11
36.000015
 21
72.000000
  0
LINE
  8
0
 62
     4
 10
47.000015
 20
93.000000
 11
47.000015
 21
72.000000
  0
LINE
  8
0
  6
CENTER
 62
     1
 10
-55.063812
 20
80.000000
 11
61.491684
 21
80.000000
  0
LINE
  8
0
 62
     4
 10
47.000015
 20
73.000000
 11
54.000015
 21
73.000000
  0
LINE
  8
0
 62
     4
 10
47.000015
 20
87.000000
 11
54.000015
 21
87.000000
  0
LINE
  8
0
 62
     1
 10
47.000015
 20
86.000000
 11
55.000015
 21
86.000000
  0
LINE
  8
0
 62
     1
 10
47.000015
 20
74.000000
 11
55.000015
 21
74.000000
  0
LINE
  8
0
 62
     4
 10
55.000015
 20
86.000000
 11
55.000015
 21
74.000000
  0
LINE
  8
0
 62
     4
 10
54.000088
 20
87.000069
 11
55.000088
 21
86.000061
  0
LINE
  8
0
 62
     4
 10
55.000015
 20
74.000015
 11
54.000008
 21
73.000008
  0
LINE
  8
0
 62
     4
 10
54.000015
 20
73.000000
 11
54.000015
 21
87.000000
  0
LINE
  8
0
 10
-34.999992
 20
46.999996
 11
-32.999989
 21
44.999996
  0
LINE
  8
0
 10
57.000015
 20
72.000000
 11
57.000015
 21
-1.999996
  0
LINE
  8
0
 10
97.000015
 20
71.000000
 11
97.000015
 21
-0.999996
  0
LINE
  8
0
 10
89.000015
 20
71.000000
 11
89.000015
 21
-0.999996
  0
LINE
  8
0
  6
CENTER
 62
     2
 10
90.745529
 20
10.500004
 11
54.076004
 21
10.500004
  0
LINE
  8
0
  6
CENTER
 62
     2
 10
91.122726
 20
59.500004
 11
54.076004
 21
59.500004
  0
LINE
  8
0
 10
89.000015
 20
54.500004
 11
57.000015
 21
54.500004
  0
LINE
  8
0
 10
89.000015
 20
64.500000
 11
57.000015
 21
64.500000
  0
LINE
  8
0
 10
89.000015
 20
5.500004
 11
57.000015
 21
5.500004
  0
LINE
  8
0
 10
89.000015
 20
15.500004
 11
57.000015
 21
15.500004
  0
LINE
  8
0
 10
97.000015
 20
71.000000
 11
89.000015
 21
71.000000
  0
LINE
  8
0
 10
97.000015
 20
-0.999996
 11
89.000015
 21
-0.999996
  0
LINE
  8
0
  6
CENTER
 62
     2
 10
89.506607
 20
17.000004
 11
96.151443
 21
17.000004
  0
LINE
  8
0
  6
CENTER
 62
     2
 10
89.593338
 20
53.000004
 11
96.252716
 21
53.000004
  0
LINE
  8
0
  6
CENTER
 62
     2
 10
93.000015
 20
57.265842
 11
93.000015
 21
49.507538
  0
LINE
  8
0
  6
CENTER
 62
     2
 10
93.000015
 20
20.800776
 11
93.000015
 21
13.689131
  0
LINE
  8
0
  6
CENTER
 62
     2
 10
47.500015
 20
26.000004
 11
56.500015
 21
26.000004
  0
LINE
  8
0
  6
CENTER
 62
     2
 10
47.500015
 20
44.000004
 11
56.500015
 21
44.000004
  0
LINE
  8
0
  6
CENTER
 62
     2
 10
52.000015
 20
30.500002
 11
52.000015
 21
21.500002
  0
LINE
  8
0
  6
CENTER
 62
     2
 10
52.000015
 20
48.500000
 11
52.000015
 21
39.500000
  0
LINE
  8
0
  6
CENTER
 62
     2
 10
44.250015
 20
43.022617
 11
44.250015
 21
26.615540
  0
LINE
  8
0
 10
-28.999985
 20
72.000000
 11
-28.999985
 21
-1.999996
  0
LINE
  8
0
 10
36.000015
 20
72.000000
 11
36.000015
 21
-1.999996
  0
LINE
  8
0
 10
47.000015
 20
72.000000
 11
47.000015
 21
-1.999996
  0
LINE
  8
0
 62
     4
 10
-28.999985
 20
93.000000
 11
-39.999985
 21
93.000000
  0
LINE
  8
0
 62
     4
 10
-39.999985
 20
93.000000
 11
-39.999985
 21
72.000000
  0
LINE
  8
0
 62
     4
 10
-46.999985
 20
73.000000
 11
-46.999985
 21
87.000000
  0
LINE
  8
0
 62
     4
 10
-39.999985
 20
73.000000
 11
-46.999985
 21
73.000000
  0
LINE
  8
0
 62
     4
 10
-39.999985
 20
87.000000
 11
-46.999985
 21
87.000000
  0
LINE
  8
0
 62
     1
 10
-39.999985
 20
86.000000
 11
-47.999985
 21
86.000000
  0
LINE
  8
0
 62
     1
 10
-39.999985
 20
74.000000
 11
-47.999985
 21
74.000000
  0
LINE
  8
0
 62
     4
 10
-47.999985
 20
86.000000
 11
-47.999985
 21
74.000000
  0
LINE
  8
0
 62
     4
 10
-47.000050
 20
87.000061
 11
-48.000050
 21
86.000053
  0
LINE
  8
0
 62
     4
 10
-47.999977
 20
73.999992
 11
-46.999977
 21
72.999992
  0
LINE
  8
0
  6
PHANTOM
 62
     3
 10
3.500015
 20
102.299667
 11
3.500015
 21
-16.721100
  0
LINE
  8
0
  6
PHANTOM
 62
     3
 10
73.000015
 20
102.299667
 11
73.000015
 21
-45.028095
  0
LINE
  8
0
  6
PHANTOM
 62
     3
 10
3.500015
 20
112.299667
 11
3.500015
 21
-45.028095
  0
LINE
  8
0
  6
CENTER
 62
     2
 10
-214.460724
 20
34.999966
 11
-175.828674
 21
34.999966
  0
LINE
  8
0
 10
-210.000031
 20
71.999969
 11
-210.000031
 21
-2.000034
  0
LINE
  8
0
 10
-181.000031
 20
71.999969
 11
-181.000031
 21
-2.000034
  0
LINE
  8
0
 10
-210.000031
 20
-2.000034
 11
-181.000031
 21
-2.000034
  0
LINE
  8
0
 10
-210.000031
 20
71.999969
 11
-181.000031
 21
71.999969
  0
LINE
  8
0
  6
CENTER
 62
     2
 10
-197.000031
 20
73.498077
 11
-197.000031
 21
-3.723881
  0
LINE
  8
0
 10
-193.250031
 20
41.495152
 11
-189.500031
 21
34.999943
  0
LINE
  8
0
 10
-189.499985
 20
34.999912
 11
-193.249985
 21
28.504740
  0
LINE
  8
0
 10
-193.250076
 20
28.504740
 11
-193.255432
 21
28.501656
  0
LINE
  8
0
 10
-193.250076
 20
28.504740
 11
-193.255432
 21
28.501656
  0
LINE
  8
0
 10
-193.250076
 20
28.504740
 11
-193.255432
 21
28.501656
  0
LINE
  8
0
 10
-193.250076
 20
28.504740
 11
-193.255432
 21
28.501656
  0
LINE
  8
0
 10
-193.250031
 20
28.504696
 11
-200.750031
 21
28.504696
  0
LINE
  8
0
 10
-200.750076
 20
28.504763
 11
-204.500061
 21
34.999928
  0
LINE
  8
0
 10
-204.500061
 20
34.999989
 11
-200.750061
 21
41.495178
  0
LINE
  8
0
 10
-200.750031
 20
41.495155
 11
-193.250031
 21
41.495155
  0
LINE
  8
0
 10
-209.000031
 20
70.999969
 11
-209.000031
 21
-1.000034
  0
LINE
  8
0
 10
-185.000031
 20
70.999969
 11
-185.000031
 21
-1.000034
  0
LINE
  8
0
 10
-185.000031
 20
-1.000034
 11
-209.000031
 21
-1.000034
  0
LINE
  8
0
 10
-185.000031
 20
70.999969
 11
-209.000031
 21
70.999969
  0
LINE
  8
0
  6
CENTER
 62
     2
 10
-191.970657
 20
20.999966
 11
-201.500015
 21
20.999966
  0
LINE
  8
0
  6
CENTER
 62
     2
 10
-192.154312
 20
48.999966
 11
-201.500015
 21
48.999966
  0
LINE
  8
0
  6
CENTER
 62
     2
 10
-192.500031
 20
59.499966
 11
-202.218262
 21
59.499966
  0
LINE
  8
0
  6
CENTER
 62
     2
 10
-192.108826
 20
10.499966
 11
-202.340729
 21
10.499966
  0
LINE
  8
0
 10
-196.100037
 20
12.058811
 11
-197.900024
 21
12.058811
  0
LINE
  8
0
 10
-197.900055
 20
12.058827
 11
-198.800064
 21
10.499984
  0
LINE
  8
0
 10
-198.800079
 20
10.499918
 11
-197.900070
 21
8.941073
  0
LINE
  8
0
 10
-197.900024
 20
8.941036
 11
-196.100037
 21
8.941036
  0
LINE
  8
0
 10
-196.100143
 20
8.941165
 11
-195.200119
 21
10.500017
  0
LINE
  8
0
 10
-195.200012
 20
10.499966
 11
-195.200012
 21
10.503304
  0
LINE
  8
0
 10
-195.200012
 20
10.499966
 11
-195.200012
 21
10.503304
  0
LINE
  8
0
 10
-195.200104
 20
10.499951
 11
-196.100113
 21
12.058795
  0
LINE
  8
0
 10
-196.100052
 20
61.058819
 11
-195.200027
 21
59.499950
  0
LINE
  8
0
 10
-195.200073
 20
59.499992
 11
-196.100082
 21
57.941143
  0
LINE
  8
0
 10
-196.100037
 20
57.941120
 11
-197.900024
 21
57.941120
  0
LINE
  8
0
 10
-197.900070
 20
57.941082
 11
-198.800079
 21
59.499928
  0
LINE
  8
0
 10
-198.800095
 20
59.500023
 11
-197.900085
 21
61.058865
  0
LINE
  8
0
 10
-197.900024
 20
61.058811
 11
-196.100037
 21
61.058811
  0
LINE
  8
0
 10
-179.000031
 20
44.999966
 11
-179.000031
 21
24.999962
  0
LINE
  8
0
 10
-181.000061
 20
46.999935
 11
-179.000076
 21
44.999947
  0
LINE
  8
0
 10
-181.000092
 20
23.000023
 11
-179.000092
 21
25.000027
  0
LINE
  8
0
 62
     4
 10
-210.000046
 20
92.999969
 11
-181.000046
 21
92.999969
  0
LINE
  8
0
 62
     4
 10
-210.000031
 20
92.999962
 11
-210.000031
 21
71.999962
  0
LINE
  8
0
 62
     4
 10
-181.000031
 20
92.999969
 11
-181.000031
 21
71.999969
  0
LINE
  8
0
  6
CENTER
 62
     1
 10
-204.351028
 20
79.999969
 11
-186.851028
 21
79.999969
  0
LINE
  8
0
  6
CENTER
 62
     1
 10
-195.500031
 20
88.528915
 11
-195.500031
 21
72.267853
  0
LINE
  8
0
 10
182.000168
 20
25.000065
 11
182.000168
 21
45.000069
  0
LINE
  8
0
  6
CENTER
 62
     2
 10
180.915817
 20
40.500072
 11
186.804489
 21
40.500072
  0
LINE
  8
0
 10
213.000168
 20
72.000076
 11
213.000168
 21
-1.999924
  0
LINE
  8
0
 10
184.000168
 20
72.000069
 11
184.000168
 21
-1.999931
  0
LINE
  8
0
 10
184.000153
 20
72.000076
 11
213.000153
 21
72.000076
  0
LINE
  8
0
 10
184.000183
 20
-1.999928
 11
213.000183
 21
-1.999928
  0
LINE
  8
0
  6
CENTER
 62
     2
 10
179.887253
 20
35.000072
 11
215.472641
 21
35.000072
  0
LINE
  8
0
  6
CENTER
 62
     2
 10
200.000168
 20
74.187012
 11
200.000168
 21
-4.786491
  0
LINE
  8
0
 10
182.000198
 20
45.000027
 11
184.000198
 21
47.000027
  0
LINE
  8
0
 10
182.000214
 20
25.000137
 11
184.000214
 21
23.000134
  0
LINE
  8
0
  6
CENTER
 62
     2
 10
180.915817
 20
29.500072
 11
185.923477
 21
29.500072
  0
LINE
  8
0
 10
182.000168
 20
42.250072
 11
184.000168
 21
42.250072
  0
LINE
  8
0
 10
182.000168
 20
38.750072
 11
184.000168
 21
38.750072
  0
LINE
  8
0
 10
182.000168
 20
31.250072
 11
184.000168
 21
31.250072
  0
LINE
  8
0
 10
182.000168
 20
27.750072
 11
184.000168
 21
27.750072
  0
LINE
  8
0
 62
     4
 10
184.000153
 20
93.000076
 11
213.000153
 21
93.000076
  0
LINE
  8
0
 62
     4
 10
184.000168
 20
93.000069
 11
184.000168
 21
72.000069
  0
LINE
  8
0
 62
     4
 10
213.000168
 20
93.000076
 11
213.000168
 21
72.000076
  0
LINE
  8
0
  6
CENTER
 62
     1
 10
189.649170
 20
80.000076
 11
207.149170
 21
80.000076
  0
LINE
  8
0
  6
CENTER
 62
     1
 10
198.500168
 20
88.529022
 11
198.500168
 21
72.267960
  0
LINE
  8
0
  6
CENTER
 62
     2
 10
194.970764
 20
21.000072
 11
204.500183
 21
21.000072
  0
LINE
  8
0
  6
CENTER
 62
     2
 10
195.154419
 20
49.000072
 11
204.500183
 21
49.000072
  0
LINE
  8
0
  6
CENTER
 62
     2
 10
193.992554
 20
10.500072
 11
206.155396
 21
10.500072
  0
LINE
  8
0
 10
199.100174
 20
12.058918
 11
200.900162
 21
12.058918
  0
LINE
  8
0
 10
200.900131
 20
12.058905
 11
201.800140
 21
10.500060
  0
LINE
  8
0
 10
201.800293
 20
10.500010
 11
200.900284
 21
8.941175
  0
LINE
  8
0
 10
200.900177
 20
8.941143
 11
199.100189
 21
8.941143
  0
LINE
  8
0
 10
199.100220
 20
8.941235
 11
198.200195
 21
10.500095
  0
LINE
  8
0
 10
198.200150
 20
10.500069
 11
198.200150
 21
10.503407
  0
LINE
  8
0
 10
198.200150
 20
10.500069
 11
198.200150
 21
10.503407
  0
LINE
  8
0
 10
198.200287
 20
10.500028
 11
199.100311
 21
12.058873
  0
LINE
  8
0
 10
199.100189
 20
61.058887
 11
198.200180
 21
59.500031
  0
LINE
  8
0
 10
198.200165
 20
59.500103
 11
199.100174
 21
57.941250
  0
LINE
  8
0
 10
199.100174
 20
57.941227
 11
200.900162
 21
57.941227
  0
LINE
  8
0
 10
200.900146
 20
57.941208
 11
201.800156
 21
59.500034
  0
LINE
  8
0
 10
201.800201
 20
59.500103
 11
200.900192
 21
61.058941
  0
LINE
  8
0
 10
200.900146
 20
61.058918
 11
199.100159
 21
61.058918
  0
LINE
  8
0
 10
188.000168
 20
71.000069
 11
188.000168
 21
-0.999931
  0
LINE
  8
0
 10
188.000153
 20
71.000076
 11
212.000153
 21
71.000076
  0
LINE
  8
0
 10
212.000168
 20
71.000076
 11
212.000168
 21
-0.999924
  0
LINE
  8
0
 10
188.000183
 20
-0.999928
 11
212.000183
 21
-0.999928
  0
LINE
  8
0
  6
CENTER
 62
     2
 10
193.992554
 20
59.500072
 11
206.155396
 21
59.500072
  0
LINE
  8
0
 10
-84.999969
 20
-86.000000
 11
-84.999969
 21
-115.000000
  0
LINE
  8
0
 10
-28.999969
 20
-84.000000
 11
-28.999969
 21
-115.000000
  0
LINE
  8
0
 10
36.000031
 20
-84.000000
 11
36.000031
 21
-115.000000
  0
LINE
  8
0
 10
47.000031
 20
-84.000000
 11
47.000031
 21
-115.000000
  0
LINE
  8
0
 10
-99.999969
 20
-114.000000
 11
-99.999969
 21
-90.000000
  0
LINE
  8
0
  6
CENTER
 62
     2
 10
-102.916969
 20
-102.000000
 11
101.855377
 21
-102.000000
  0
LINE
  8
0
 10
-84.999969
 20
-86.000000
 11
-28.999969
 21
-86.000000
  0
LINE
  8
0
 10
-84.999969
 20
-115.000000
 11
-28.999969
 21
-115.000000
  0
LINE
  8
0
  6
CENTER
 62
     2
 10
-95.999969
 20
-113.122803
 11
-95.999969
 21
-106.408752
  0
LINE
  8
0
  6
CENTER
 62
     2
 10
-98.999969
 20
-110.000000
 11
-93.215683
 21
-110.000000
  0
LINE
  8
0
  6
CENTER
 62
     2
 10
-98.999969
 20
-94.000000
 11
-93.095795
 21
-94.000000
  0
LINE
  8
0
  6
CENTER
 62
     2
 10
-95.999969
 20
-96.796844
 11
-95.999969
 21
-91.000000
  0
LINE
  8
0
  6
CENTER
 62
     2
 10
-79.499969
 20
-87.472610
 11
-79.499969
 21
-93.819923
  0
LINE
  8
0
  6
CENTER
 62
     2
 10
-34.499969
 20
-87.214828
 11
-34.499969
 21
-93.580139
  0
LINE
  8
0
  6
CENTER
 62
     2
 10
-82.499969
 20
-90.500000
 11
-76.509613
 21
-90.500000
  0
LINE
  8
0
  6
CENTER
 62
     2
 10
-82.499969
 20
-110.500000
 11
-76.389725
 21
-110.500000
  0
LINE
  8
0
  6
CENTER
 62
     2
 10
-79.499969
 20
-107.128113
 11
-79.499969
 21
-113.962067
  0
LINE
  8
0
  6
CENTER
 62
     2
 10
-37.883430
 20
-90.500000
 11
-31.289276
 21
-90.500000
  0
LINE
  8
0
  6
CENTER
 62
     2
 10
-34.499969
 20
-107.367920
 11
-34.499969
 21
-113.842163
  0
LINE
  8
0
  6
CENTER
 62
     2
 10
-37.763535
 20
-110.500000
 11
-31.289276
 21
-110.500000
  0
LINE
  8
0
  6
CENTER
 62
     2
 10
41.500031
 20
-87.303658
 11
41.500031
 21
-93.962852
  0
LINE
  8
0
  6
CENTER
 62
     2
 10
38.603394
 20
-90.500000
 11
44.500031
 21
-90.500000
  0
LINE
  8
0
  6
CENTER
 62
     2
 10
38.392181
 20
-110.500000
 11
44.815292
 21
-110.500000
  0
LINE
  8
0
  6
CENTER
 62
     2
 10
41.500031
 20
-107.057465
 11
41.500031
 21
-113.815979
  0
LINE
  8
0
 10
-32.999969
 20
-84.000000
 11
-28.999969
 21
-84.000000
  0
LINE
  8
0
 10
-34.999973
 20
-86.000008
 11
-32.999969
 21
-84.000008
  0
LINE
  8
0
 10
-28.999969
 20
-86.200005
 11
36.000031
 21
-86.200005
  0
LINE
  8
0
 10
-29.004105
 20
-114.800003
 11
36.000031
 21
-114.800003
  0
LINE
  8
0
 10
36.000031
 20
-115.000000
 11
57.000031
 21
-115.000000
  0
LINE
  8
0
 10
36.000031
 20
-86.000000
 11
57.000031
 21
-86.000000
  0
LINE
  8
0
 10
-28.999969
 20
-84.200005
 11
36.000031
 21
-84.200005
  0
LINE
  8
0
 10
36.000031
 20
-84.000000
 11
47.000031
 21
-84.000000
  0
LINE
  8
0
 10
-91.999969
 20
-114.000000
 11
-91.999969
 21
-90.000000
  0
LINE
  8
0
 10
-84.999969
 20
-107.000000
 11
-91.999969
 21
-107.000000
  0
LINE
  8
0
 10
-84.999969
 20
-97.000000
 11
-91.999969
 21
-97.000000
  0
LINE
  8
0
 10
-99.999969
 20
-114.000000
 11
-91.999969
 21
-114.000000
  0
LINE
  8
0
 10
97.000031
 20
-90.000000
 11
97.000031
 21
-114.000000
  0
LINE
  8
0
 10
89.000031
 20
-90.000000
 11
89.000031
 21
-114.000000
  0
LINE
  8
0
  6
CENTER
 62
     2
 10
93.000031
 20
-113.122803
 11
93.000031
 21
-106.408752
  0
LINE
  8
0
  6
CENTER
 62
     2
 10
96.000031
 20
-110.000000
 11
90.215744
 21
-110.000000
  0
LINE
  8
0
  6
CENTER
 62
     2
 10
96.000031
 20
-94.000000
 11
90.095856
 21
-94.000000
  0
LINE
  8
0
  6
CENTER
 62
     2
 10
93.000031
 20
-96.796844
 11
93.000031
 21
-91.000000
  0
LINE
  8
0
 10
57.000031
 20
-107.000000
 11
89.000031
 21
-107.000000
  0
LINE
  8
0
 10
57.000031
 20
-97.000000
 11
89.000031
 21
-97.000000
  0
LINE
  8
0
 10
97.000031
 20
-114.000000
 11
89.000031
 21
-114.000000
  0
LINE
  8
0
 10
57.000031
 20
-86.000000
 11
57.000031
 21
-115.000000
  0
LINE
  8
0
 10
-99.999969
 20
-90.000000
 11
-91.999969
 21
-90.000000
  0
LINE
  8
0
 10
97.000031
 20
-90.000000
 11
89.000031
 21
-90.000000
  0
LINE
  8
0
 10
-87.721657
 20
-94.500000
 11
-91.278282
 21
-94.500000
  0
LINE
  8
0
 10
-86.999969
 20
-96.375000
 11
-86.999969
 21
-97.000000
  0
LINE
  8
0
 10
-86.999969
 20
-107.000000
 11
-86.999969
 21
-107.625000
  0
LINE
  8
0
 10
-91.273247
 20
-109.505554
 11
-87.726692
 21
-109.505554
  0
LINE
  8
0
  6
PHANTOM
 62
     3
 10
3.500031
 20
-45.028313
 11
3.500031
 21
-123.186943
  0
LINE
  8
0
  6
PHANTOM
 62
     3
 10
73.000031
 20
-45.028313
 11
73.000031
 21
-123.186943
  0
LINE
  8
0
 10
-281.250000
 20
195.500000
 11
282.099976
 21
195.500000
  0
LINE
  8
0
 10
-281.250000
 20
195.500000
 11
-281.250000
 21
-195.000000
  0
LINE
  8
0
 10
282.099976
 20
195.500000
 11
282.099976
 21
-195.000000
  0
LINE
  8
0
 10
-281.250000
 20
-195.000000
 11
282.099976
 21
-195.000000
  0
LINE
  8
0
 10
162.099976
 20
-175.000000
 11
162.099976
 21
-195.000000
  0
LINE
  8
0
 10
162.099976
 20
-175.000000
 11
282.099976
 21
-175.000000
  0
LINE
  8
0
 10
162.099976
 20
175.500000
 11
282.099976
 21
175.500000
  0
LINE
  8
0
 10
-281.250000
 20
175.500000
 11
-161.250000
 21
175.500000
  0
LINE
  8
0
 10
162.099976
 20
195.500000
 11
162.099976
 21
175.500000
  0
LINE
  8
0
 10
-161.250000
 20
195.500000
 11
-161.250000
 21
175.500000
  0
LINE
  8
0
 10
-271.250000
 20
-169.000000
 11
-67.250000
 21
-169.000000
  0
LINE
  8
0
 10
-271.250000
 20
-145.000000
 11
-271.250000
 21
-185.000000
  0
LINE
  8
0
 10
-221.250000
 20
-169.000000
 11
-221.250000
 21
-185.000000
  0
LINE
  8
0
 10
-177.250000
 20
-145.000000
 11
-177.250000
 21
-185.000000
  0
LINE
  8
0
 10
-155.250000
 20
-145.000000
 11
-155.250000
 21
-185.000000
  0
LINE
  8
0
 10
-133.250000
 20
-145.000000
 11
-133.250000
 21
-185.000000
  0
LINE
  8
0
 10
-111.250000
 20
-145.000000
 11
-111.250000
 21
-185.000000
  0
LINE
  8
0
 10
-67.250000
 20
-145.000000
 11
-67.250000
 21
-185.000000
  0
LINE
  8
0
 10
-271.250000
 20
-145.000000
 11
-67.250000
 21
-145.000000
  0
LINE
  8
0
 10
-221.250000
 20
-177.000000
 11
-67.250000
 21
-177.000000
  0
LINE
  8
0
 10
-271.250000
 20
-185.000000
 11
-67.250000
 21
-185.000000
  0
LINE
  8
0
 10
-199.250000
 20
-145.000000
 11
-199.250000
 21
-185.000000
  0
LINE
  8
0
 10
-221.250000
 20
-168.999985
 11
-271.250000
 21
-144.999985
  0
LINE
  8
0
 10
-249.250000
 20
-153.000000
 11
-208.487595
 21
-153.000000
  0
LINE
  8
0
 10
-199.249985
 20
-168.999969
 11
-208.487579
 21
-152.999969
  0
LINE
  8
0
 10
-249.250046
 20
-153.000107
 11
-271.250061
 21
-145.000122
  0
LINE
  8
0
 10
-89.250000
 20
-145.000000
 11
-89.250000
 21
-185.000000
  0
CIRCLE
  8
0
 10
93.000015
 20
53.000004
 40
1.650000
  0
CIRCLE
  8
0
 10
93.000015
 20
17.000004
 40
1.650000
  0
CIRCLE
  8
0
 10
-95.999985
 20
17.000004
 40
1.650000
  0
CIRCLE
  8
0
 10
52.000015
 20
44.000004
 40
2.100000
  0
CIRCLE
  8
0
 10
52.000015
 20
26.000004
 40
2.100000
  0
CIRCLE
  8
0
 10
-95.999985
 20
53.000004
 40
1.650000
  0
ARC
  8
0
 10
18.250015
 20
35.000004
 40
1.250000
 50
270.000000
 51
90.000000
  0
ARC
  8
0
 10
15.750015
 20
35.000004
 40
1.250000
 50
90.000000
 51
270.000000
  0
CIRCLE
  8
0
 62
     2
 10
93.000015
 20
17.000004
 40
2.000000
  0
CIRCLE
  8
0
 62
     2
 10
52.000015
 20
26.000004
 40
2.500000
  0
CIRCLE
  8
0
 62
     2
 10
52.000015
 20
44.000004
 40
2.500000
  0
CIRCLE
  8
0
 62
     2
 10
93.000015
 20
53.000004
 40
2.000000
  0
ARC
  8
0
 10
17.000015
 20
36.250004
 40
0.500000
 50
180.000000
 51
0.000000
  0
ARC
  8
0
 10
17.000015
 20
33.750004
 40
0.500000
 50
0.000000
 51
180.000000
  0
ARC
  8
0
 10
-108.254028
 20
32.000004
 40
21.254040
 50
350.521606
 51
359.999939
  0
ARC
  8
0
 10
-108.254028
 20
31.500004
 40
21.254044
 50
359.999939
 51
9.478278
  0
ARC
  8
0
 10
-108.254028
 20
38.000004
 40
21.254044
 50
0.000000
 51
9.478329
  0
ARC
  8
0
 10
-108.254028
 20
38.500004
 40
21.254044
 50
350.521667
 51
0.000000
  0
ARC
  8
0
 10
-70.745941
 20
32.000004
 40
21.254044
 50
180.000092
 51
189.478424
  0
ARC
  8
0
 10
-70.745941
 20
31.500004
 40
21.254040
 50
170.521729
 51
180.000076
  0
ARC
  8
0
 10
-70.745941
 20
38.000004
 40
21.254044
 50
170.521683
 51
180.000015
  0
ARC
  8
0
 10
-70.745941
 20
38.500004
 40
21.254044
 50
180.000031
 51
189.478378
  0
CIRCLE
  8
0
 62
     2
 10
-95.999985
 20
53.000004
 40
2.000000
  0
CIRCLE
  8
0
 62
     2
 10
-95.999985
 20
17.000004
 40
2.000000
  0
CIRCLE
  8
0
 10
-39.999985
 20
45.500004
 40
4.000000
  0
CIRCLE
  8
0
 10
-78.999985
 20
45.500004
 40
4.000000
  0
CIRCLE
  8
0
 10
-78.999985
 20
24.500004
 40
4.000000
  0
CIRCLE
  8
0
 10
-39.999985
 20
24.500004
 40
4.000000
  0
CIRCLE
  8
0
 10
-39.999985
 20
24.500004
 40
2.250000
  0
CIRCLE
  8
0
 10
-78.999985
 20
24.500004
 40
2.250000
  0
CIRCLE
  8
0
 10
-78.999985
 20
45.500004
 40
2.250000
  0
CIRCLE
  8
0
 10
-39.999985
 20
45.500004
 40
2.250000
  0
ARC
  8
0
 10
44.250015
 20
40.500004
 40
1.750000
 50
90.000000
 51
270.000000
  0
ARC
  8
0
 10
44.250015
 20
29.500004
 40
1.750000
 50
90.000000
 51
270.000000
  0
CIRCLE
  8
0
 10
-197.000031
 20
20.999966
 40
2.100000
  0
CIRCLE
  8
0
 10
-197.000031
 20
48.999966
 40
2.100000
  0
CIRCLE
  8
0
 62
     2
 10
-197.000031
 20
34.999966
 40
2.500000
  0
CIRCLE
  8
0
 62
     2
 10
-197.000031
 20
48.999966
 40
2.500000
  0
CIRCLE
  8
0
 62
     4
 10
-195.500046
 20
79.999969
 40
7.000000
  0
CIRCLE
  8
0
 10
-197.000031
 20
10.499966
 40
4.000000
  0
CIRCLE
  8
0
 62
     1
 10
-195.500046
 20
79.999969
 40
6.000000
  0
CIRCLE
  8
0
 10
-197.000031
 20
59.499966
 40
4.000000
  0
CIRCLE
  8
0
 10
-197.000031
 20
34.999966
 40
3.000000
  0
CIRCLE
  8
0
 10
-197.000031
 20
10.499966
 40
3.500000
  0
CIRCLE
  8
0
 10
-197.000031
 20
59.499966
 40
3.500000
  0
CIRCLE
  8
0
 10
-197.000031
 20
34.999966
 40
10.000000
  0
CIRCLE
  8
0
 62
     2
 10
-197.000031
 20
20.999966
 40
2.500000
  0
CIRCLE
  8
0
 10
200.000168
 20
49.000072
 40
2.100000
  0
CIRCLE
  8
0
 10
200.000168
 20
21.000072
 40
2.100000
  0
CIRCLE
  8
0
 62
     4
 10
198.500153
 20
80.000076
 40
7.000000
  0
CIRCLE
  8
0
 62
     1
 10
198.500153
 20
80.000076
 40
6.000000
  0
CIRCLE
  8
0
 62
     2
 10
200.000168
 20
21.000072
 40
2.500000
  0
CIRCLE
  8
0
 62
     2
 10
200.000168
 20
49.000072
 40
2.500000
  0
CIRCLE
  8
0
 10
200.000168
 20
10.500072
 40
4.000000
  0
CIRCLE
  8
0
 10
200.000168
 20
10.500072
 40
3.500000
  0
CIRCLE
  8
0
 10
200.000168
 20
59.500072
 40
4.000000
  0
CIRCLE
  8
0
 10
200.000168
 20
59.500072
 40
3.500000
  0
ARC
  8
0
 10
184.650162
 20
40.500069
 40
1.749999
 50
111.803543
 51
248.196457
  0
ARC
  8
0
 10
184.650162
 20
29.500069
 40
1.749999
 50
111.803543
 51
248.196457
  0
CIRCLE
  8
0
 10
93.000031
 20
-94.000000
 40
1.650000
  0
CIRCLE
  8
0
 10
-79.499969
 20
-110.500000
 40
1.650000
  0
CIRCLE
  8
0
 10
93.000031
 20
-110.000000
 40
1.650000
  0
CIRCLE
  8
0
 10
-34.499969
 20
-90.500000
 40
1.650000
  0
CIRCLE
  8
0
 10
41.500031
 20
-90.500000
 40
1.650000
  0
CIRCLE
  8
0
 10
41.500031
 20
-110.500000
 40
1.650000
  0
CIRCLE
  8
0
 10
-34.499969
 20
-110.500000
 40
1.650000
  0
ARC
  8
0
 10
-89.796509
 20
-107.625000
 40
2.796540
 50
317.896545
 51
12.914116
  0
ARC
  8
0
 10
-89.203430
 20
-96.375000
 40
2.796539
 50
137.896317
 51
192.914108
  0
ARC
  8
0
 10
-89.796509
 20
-96.375000
 40
2.796542
 50
347.085876
 51
42.103455
  0
ARC
  8
0
 10
-89.203430
 20
-107.625000
 40
2.796542
 50
167.085892
 51
222.103455
  0
ARC
  8
0
 10
86.604004
 20
-107.265625
 40
2.423454
 50
0.000000
 51
6.292605
  0
CIRCLE
  8
0
 62
     2
 10
93.000031
 20
-94.000000
 40
2.000000
  0
ARC
  8
0
 10
86.604004
 20
-96.734375
 40
2.423453
 50
353.707397
 51
0.000000
  0
CIRCLE
  8
0
 62
     2
 10
93.000031
 20
-110.000000
 40
2.000000
  0
CIRCLE
  8
0
 62
     2
 10
-95.999969
 20
-94.000000
 40
2.000000
  0
CIRCLE
  8
0
 62
     2
 10
-95.999969
 20
-110.000000
 40
2.000000
  0
CIRCLE
  8
0
 62
     2
 10
-79.499969
 20
-90.500000
 40
2.000000
  0
CIRCLE
  8
0
 62
     2
 10
-34.499969
 20
-90.500000
 40
2.000000
  0
CIRCLE
  8
0
 62
     2
 10
-34.499969
 20
-110.500000
 40
2.000000
  0
CIRCLE
  8
0
 62
     2
 10
-79.499969
 20
-110.500000
 40
2.000000
  0
CIRCLE
  8
0
 62
     2
 10
41.500031
 20
-90.500000
 40
2.000000
  0
CIRCLE
  8
0
 62
     2
 10
41.500031
 20
-110.500000
 40
2.000000
  0
CIRCLE
  8
0
 10
-95.999969
 20
-94.000000
 40
1.650000
  0
CIRCLE
  8
0
 10
-95.999969
 20
-110.000000
 40
1.650000
  0
CIRCLE
  8
0
 10
-79.499969
 20
-90.500000
 40
1.650000
  0
TEXT
  8
0
 10
196.250259
 20
180.830002
 40
6.300000
  1
Ver. 2.0
 50
0.000000
 41
1.052632
 51
0.000000
  7
STANDARD
  0
TEXT
  8
0
 10
167.564667
 20
-192.100006
 40
9.000000
  1
KOGANEI CORP.
 50
0.000000
 41
1.052632
 51
0.000000
  7
STANDARD
  0
TEXT
  8
0
 10
-262.849731
 20
180.830002
 40
6.300000
  1
AXIS CYLINDER
 50
0.000000
 41
1.052632
 51
0.000000
  7
STANDARD
  0
TEXT
  8
0
 10
-270.049988
 20
155.830002
 40
6.300000
  1
MODEL:XDADQ20*ST(25)-SSL
 50
0.000000
 41
1.052632
 51
0.000000
  7
STANDARD
  0
TEXT
  8
0
 62
     3
 10
53.456890
 20
103.714134
 40
6.300000
  1
STRETCH LINE B
 50
0.000000
 41
1.052632
 51
0.000000
  7
STANDARD
  0
TEXT
  8
0
 10
-87.642860
 20
-144.050003
 40
4.500000
  1
(mm)
 50
0.000000
 41
1.052632
 51
0.000000
  7
STANDARD
  0
TEXT
  8
0
 10
-193.142853
 20
-160.050003
 40
4.500000
  1
25
 50
0.000000
 41
1.052632
 51
0.000000
  7
STANDARD
  0
TEXT
  8
0
 10
-171.142853
 20
-160.050003
 40
4.500000
  1
50
 50
0.000000
 41
1.052632
 51
0.000000
  7
STANDARD
  0
TEXT
  8
0
 10
-149.142853
 20
-160.050003
 40
4.500000
  1
75
 50
0.000000
 41
1.052632
 51
0.000000
  7
STANDARD
  0
TEXT
  8
0
 10
-129.392853
 20
-160.050003
 40
4.500000
  1
100
 50
0.000000
 41
1.052632
 51
0.000000
  7
STANDARD
  0
TEXT
  8
0
 10
-107.392853
 20
-160.050003
 40
4.500000
  1
125
 50
0.000000
 41
1.052632
 51
0.000000
  7
STANDARD
  0
TEXT
  8
0
 10
-242.761658
 20
-152.050003
 40
4.500000
  1
STROKE
 50
0.000000
 41
1.052632
 51
0.000000
  7
STANDARD
  0
TEXT
  8
0
 10
-265.408447
 20
-168.050003
 40
4.500000
  1
TYPE
 50
0.000000
 41
1.052632
 51
0.000000
  7
STANDARD
  0
TEXT
  8
0
 10
-196.642853
 20
-143.050003
 40
4.500000
  1
STRETCH LIST
 50
0.000000
 41
1.052632
 51
0.000000
  7
STANDARD
  0
TEXT
  8
0
 10
-264.000000
 20
-178.699997
 40
4.500000
  1
XDADQ20
 50
0.000000
 41
1.052632
 51
0.000000
  7
STANDARD
  0
TEXT
  8
0
 10
-190.892853
 20
-176.050003
 40
4.500000
  1
0
 50
0.000000
 41
1.052632
 51
0.000000
  7
STANDARD
  0
TEXT
  8
0
 10
-171.142853
 20
-176.050003
 40
4.500000
  1
25
 50
0.000000
 41
1.052632
 51
0.000000
  7
STANDARD
  0
TEXT
  8
0
 10
-149.142853
 20
-176.050003
 40
4.500000
  1
50
 50
0.000000
 41
1.052632
 51
0.000000
  7
STANDARD
  0
TEXT
  8
0
 10
-127.142853
 20
-176.050003
 40
4.500000
  1
75
 50
0.000000
 41
1.052632
 51
0.000000
  7
STANDARD
  0
TEXT
  8
0
 10
-85.392853
 20
-176.050003
 40
4.500000
  1
125
 50
0.000000
 41
1.052632
 51
0.000000
  7
STANDARD
  0
TEXT
  8
0
 10
-190.892853
 20
-184.050003
 40
4.500000
  1
0
 50
0.000000
 41
1.052632
 51
0.000000
  7
STANDARD
  0
TEXT
  8
0
 10
-171.142853
 20
-184.050003
 40
4.500000
  1
25
 50
0.000000
 41
1.052632
 51
0.000000
  7
STANDARD
  0
TEXT
  8
0
 10
-149.142853
 20
-184.050003
 40
4.500000
  1
50
 50
0.000000
 41
1.052632
 51
0.000000
  7
STANDARD
  0
TEXT
  8
0
 10
-127.142853
 20
-184.050003
 40
4.500000
  1
75
 50
0.000000
 41
1.052632
 51
0.000000
  7
STANDARD
  0
TEXT
  8
0
 10
-85.392853
 20
-184.050003
 40
4.500000
  1
125
 50
0.000000
 41
1.052632
 51
0.000000
  7
STANDARD
  0
TEXT
  8
0
 10
-212.892654
 20
-176.050003
 40
4.500000
  1
A
 50
0.000000
 41
1.052632
 51
0.000000
  7
STANDARD
  0
TEXT
  8
0
 10
-212.892654
 20
-184.050003
 40
4.500000
  1
B
 50
0.000000
 41
1.052632
 51
0.000000
  7
STANDARD
  0
TEXT
  8
0
 10
-241.877258
 20
-157.324997
 40
4.500000
  1
STRETCH
 50
0.000000
 41
1.052632
 51
0.000000
  7
STANDARD
  0
TEXT
  8
0
 10
-241.877258
 20
-164.074997
 40
4.500000
  1
   PLACE
 50
0.000000
 41
1.052632
 51
0.000000
  7
STANDARD
  0
TEXT
  8
0
 10
-85.392654
 20
-160.050003
 40
4.500000
  1
150
 50
0.000000
 41
1.052632
 51
0.000000
  7
STANDARD
  0
TEXT
  8
0
 10
-107.392853
 20
-176.050003
 40
4.500000
  1
100
 50
0.000000
 41
1.052632
 51
0.000000
  7
STANDARD
  0
TEXT
  8
0
 10
-107.392853
 20
-184.050003
 40
4.500000
  1
100
 50
0.000000
 41
1.052632
 51
0.000000
  7
STANDARD
  0
TEXT
  8
0
 62
     3
 10
-41.043110
 20
113.714134
 40
6.300000
  1
STRETCH LINE A
 50
0.000000
 41
1.052632
 51
0.000000
  7
STANDARD
  0
ENDSEC
  0
EOF
