  0
SECTION
  2
HEADER
  0
ENDSEC
  0
SECTION
  2
TABLES
  0
TABLE
  2
LTYPE
 70
     4
  0
LTYPE
  2
CONTINUOUS
 70
    64
  3
Solid line
 72
    65
 73
     0
 40
0.000000
  0
LTYPE
  2
DASHED
 70
    64
  3
__ __ __ __ __ __ __ __ __ __ __ __ __ __ __
 72
    65
 73
     2
 40
3.500000
 49
2.000000
 49
-1.500000
  0
LTYPE
  2
CENTER
 70
    64
  3
____ _ ____ _ ____ _ ____ _ ____ _ ____ _ ____
 72
    65
 73
     4
 40
17.500000
 49
13.000000
 49
-1.500000
 49
1.500000
 49
-1.500000
  0
LTYPE
  2
PHANTOM
 70
    64
  3
_____ _ _ _____ _ _ _____ _ _ _____ _ _ ____  
 72
    65
 73
     6
 40
15.500000
 49
8.000000
 49
-1.500000
 49
1.500000
 49
-1.500000
 49
1.500000
 49
-1.500000
  0
LTYPE
  2
DASHED1
 70
    64
  3
__ __ __ __ __ __ __ __ __ __ __ __ __ __ __
 72
    65
 73
     2
 40
1.500000
 49
1.000000
 49
-0.500000
  0
LTYPE
  2
DASHED2
 70
    64
  3
__ __ __ __ __ __ __ __ __ __ __ __ __ __ __
 72
    65
 73
     2
 40
3.500000
 49
2.500000
 49
-1.000000
  0
LTYPE
  2
DASHED3
 70
    64
  3
__ __ __ __ __ __ __ __ __ __ __ __ __ __ __
 72
    65
 73
     2
 40
6.000000
 49
4.000000
 49
-2.000000
  0
LTYPE
  2
DASHED4
 70
    64
  3
__ __ __ __ __ __ __ __ __ __ __ __ __ __ __
 72
    65
 73
     2
 40
12.000000
 49
10.000000
 49
-2.000000
  0
LTYPE
  2
DASHED5
 70
    64
  3
__ __ __ __ __ __ __ __ __ __ __ __ __ __ __
 72
    65
 73
     2
 40
17.000000
 49
15.000000
 49
-2.000000
  0
LTYPE
  2
DASHED6
 70
    64
  3
__ __ __ __ __ __ __ __ __ __ __ __ __ __ __
 72
    65
 73
     2
 40
29.000000
 49
27.000000
 49
-2.000000
  0
LTYPE
  2
PHANTOM1
 70
    64
  3
_____ _ _ _____ _ _ _____ _ _ _____ _ _ ____  
 72
    65
 73
     6
 40
31.000000
 49
25.000000
 49
-1.500000
 49
1.000000
 49
-1.000000
 49
1.000000
 49
-1.500000
  0
LTYPE
  2
PHANTOM2
 70
    64
  3
_____ _ _ _____ _ _ _____ _ _ _____ _ _ ____  
 72
    65
 73
     6
 40
36.000000
 49
27.000000
 49
-1.500000
 49
2.500000
 49
-1.000000
 49
2.500000
 49
-1.500000
  0
LTYPE
  2
PHANTOM3
 70
    64
  3
_____ _ _ _____ _ _ _____ _ _ _____ _ _ ____  
 72
    65
 73
     6
 40
78.000000
 49
64.000000
 49
-2.000000
 49
4.000000
 49
-2.000000
 49
4.000000
 49
-2.000000
  0
LTYPE
  2
CENTER1
 70
    64
  3
____ _ ____ _ ____ _ ____ _ ____ _ ____ _ ____
 72
    65
 73
     4
 40
19.000000
 49
14.000000
 49
-1.000000
 49
3.000000
 49
-1.000000
  0
LTYPE
  2
CENTER2
 70
    64
  3
____ _ ____ _ ____ _ ____ _ ____ _ ____ _ ____
 72
    65
 73
     4
 40
28.500000
 49
25.000000
 49
-1.000000
 49
1.500000
 49
-1.000000
  0
LTYPE
  2
CENTER3
 70
    64
  3
____ _ ____ _ ____ _ ____ _ ____ _ ____ _ ____
 72
    65
 73
     4
 40
31.500000
 49
27.000000
 49
-1.000000
 49
2.500000
 49
-1.000000
  0
LTYPE
  2
CENTER4
 70
    64
  3
____ _ ____ _ ____ _ ____ _ ____ _ ____ _ ____
 72
    65
 73
     4
 40
50.000000
 49
45.000000
 49
-1.000000
 49
3.000000
 49
-1.000000
  0
LTYPE
  2
CENTER5
 70
    64
  3
____ _ ____ _ ____ _ ____ _ ____ _ ____ _ ____
 72
    65
 73
     4
 40
100.000000
 49
92.000000
 49
-2.000000
 49
4.000000
 49
-2.000000
  0
LTYPE
  2
SBK1
 70
    64
  3
______ _ _ _ ______ _ _ _ ______ _ _ _ _____  
 72
    65
 73
     8
 40
60.500000
 49
45.000000
 49
-2.000000
 49
2.500000
 49
-2.000000
 49
2.500000
 49
-2.000000
 49
2.500000
 49
-2.000000
  0
LTYPE
  2
SBK2
 70
    64
  3
______ _ _ _ ______ _ _ _ ______ _ _ _ _____  
 72
    65
 73
     8
 40
84.000000
 49
64.000000
 49
-2.000000
 49
4.000000
 49
-2.000000
 49
4.000000
 49
-2.000000
 49
4.000000
 49
-2.000000
  0
LTYPE
  2
STCH
 70
    64
  3
__ __ __ __ __ __ __ __ __ __ __ __ __ __ __
 72
    65
 73
     2
 40
3.000000
 49
1.000000
 49
-2.000000
  0
LTYPE
  2
MTCH
 70
    64
  3
_____ _ _ _____ _ _ _____ _ _ _____ _ _ ____  
 72
    65
 73
     6
 40
80.000000
 49
66.000000
 49
-2.000000
 49
4.000000
 49
-2.000000
 49
4.000000
 49
-2.000000
  0
ENDTAB
  0
TABLE
  2
LAYER
 70
     1
  0
LAYER
  2
0
 70
     0
 62
     7
  6
CONTINUOUS
  0
ENDTAB
  0
TABLE
  2
STYLE
 70
     1
  0
STYLE
  2
STANDARD
 70
     0
 40
0.000000
 41
1.000000
 50
0.000000
 71
     0
 42
0.200000
  3
txt
  4
BIGFONT
  0
ENDTAB
  0
TABLE
  2
VIEW
 70
     0
  0
ENDTAB
  0
ENDSEC
  0
SECTION
  2
BLOCKS
  0
ENDSEC
  0
SECTION
  2
ENTITIES
  0
LINE
  8
0
 10
45.000732
 20
-2.000031
 11
66.000748
 21
-2.000031
  0
LINE
  8
0
 10
-19.999725
 20
-1.800034
 11
45.000748
 21
-1.800034
  0
LINE
  8
0
 10
-78.000092
 20
-2.000031
 11
-19.999725
 21
-2.000031
  0
LINE
  8
0
 10
-78.000092
 20
81.999977
 11
-19.999725
 21
81.999977
  0
LINE
  8
0
 10
-78.000092
 20
81.999977
 11
-78.000092
 21
-2.000031
  0
LINE
  8
0
 10
-19.999725
 20
81.799980
 11
45.000748
 21
81.799980
  0
LINE
  8
0
 62
     4
 10
56.000748
 20
105.000107
 11
56.000748
 21
81.999977
  0
LINE
  8
0
 10
45.000732
 20
81.999985
 11
66.000748
 21
81.999985
  0
LINE
  8
0
 10
-85.000092
 20
80.999977
 11
-85.000092
 21
-1.000031
  0
LINE
  8
0
 10
-95.000092
 20
80.999977
 11
-95.000092
 21
-1.000031
  0
LINE
  8
0
 10
-95.000092
 20
80.999977
 11
-85.000092
 21
80.999977
  0
LINE
  8
0
 10
-80.000092
 20
43.999969
 11
-78.000092
 21
43.999969
  0
LINE
  8
0
 62
     2
 10
-80.000107
 20
43.500031
 11
-79.134087
 21
44.000031
  0
LINE
  8
0
  6
CENTER
 62
     2
 10
-86.710770
 20
68.499969
 11
-75.022346
 21
68.499969
  0
LINE
  8
0
 10
-85.000092
 20
74.499977
 11
-78.000092
 21
74.499977
  0
LINE
  8
0
 10
-85.000092
 20
62.499969
 11
-78.000092
 21
62.499969
  0
LINE
  8
0
  6
CENTER
 62
     2
 10
-94.166496
 20
60.999969
 11
-86.051399
 21
60.999969
  0
LINE
  8
0
  6
CENTER
 62
     2
 10
-90.000092
 20
64.717072
 11
-90.000092
 21
56.893318
  0
LINE
  8
0
  6
CENTER
 62
     2
 10
-71.500084
 20
59.150452
 11
-71.500084
 21
45.666260
  0
LINE
  8
0
  6
CENTER
 62
     2
 10
-32.999714
 20
59.264053
 11
-32.999714
 21
45.456795
  0
LINE
  8
0
  6
CENTER
 62
     2
 10
-80.779396
 20
52.499969
 11
-62.680511
 21
52.499969
  0
LINE
  8
0
 10
-25.997711
 20
51.999977
 11
56.000732
 21
51.999977
  0
LINE
  8
0
 10
-23.999695
 20
49.999969
 11
56.000732
 21
49.999969
  0
LINE
  8
0
 10
-19.997711
 20
41.499969
 11
45.000748
 21
41.499969
  0
LINE
  8
0
 10
-19.997711
 20
43.374977
 11
45.000748
 21
43.374977
  0
LINE
  8
0
 10
-19.997711
 20
47.624977
 11
45.000748
 21
47.624977
  0
LINE
  8
0
 10
23.790733
 20
41.249969
 11
24.540733
 21
41.249969
  0
LINE
  8
0
 10
25.540726
 20
41.249969
 11
26.290733
 21
41.249969
  0
LINE
  8
0
  6
CENTER
 62
     2
 10
48.525452
 20
45.499969
 11
57.518738
 21
45.499969
  0
LINE
  8
0
 10
53.251648
 20
47.249977
 11
56.000748
 21
47.249977
  0
LINE
  8
0
 10
53.251648
 20
43.749977
 11
56.000748
 21
43.749977
  0
LINE
  8
0
 10
-95.000092
 20
-1.000031
 11
-85.000092
 21
-1.000031
  0
LINE
  8
0
 10
-80.000092
 20
35.999969
 11
-78.000092
 21
35.999969
  0
LINE
  8
0
 62
     2
 10
-80.000084
 20
36.500008
 11
-79.134048
 21
36.000004
  0
LINE
  8
0
  6
CENTER
 62
     2
 10
-86.710770
 20
11.499971
 11
-75.022346
 21
11.499971
  0
LINE
  8
0
 10
-85.000092
 20
5.499969
 11
-78.000092
 21
5.499969
  0
LINE
  8
0
 10
-85.000092
 20
17.499971
 11
-78.000092
 21
17.499971
  0
LINE
  8
0
  6
CENTER
 62
     2
 10
57.167786
 20
49.999969
 11
64.840729
 21
49.999969
  0
LINE
  8
0
  6
CENTER
 62
     2
 10
61.000748
 20
45.825737
 11
61.000748
 21
54.195770
  0
LINE
  8
0
  6
CENTER
 62
     2
 10
-71.500084
 20
20.586931
 11
-71.500084
 21
34.174660
  0
LINE
  8
0
  6
CENTER
 62
     2
 10
-32.999714
 20
19.796133
 11
-32.999714
 21
35.013504
  0
LINE
  8
0
  6
CENTER
 62
     2
 10
-81.102577
 20
27.499971
 11
-61.859642
 21
27.499971
  0
LINE
  8
0
 10
-25.999710
 20
27.999975
 11
56.000732
 21
27.999975
  0
LINE
  8
0
 10
-23.999695
 20
29.999973
 11
56.000732
 21
29.999973
  0
LINE
  8
0
 10
-19.997711
 20
38.499969
 11
45.000748
 21
38.499969
  0
LINE
  8
0
 10
-19.997711
 20
36.624969
 11
45.000748
 21
36.624969
  0
LINE
  8
0
 10
-19.997711
 20
32.374973
 11
45.000748
 21
32.374973
  0
LINE
  8
0
 10
23.790733
 20
38.749977
 11
24.540733
 21
38.749977
  0
LINE
  8
0
 10
25.540726
 20
38.749977
 11
26.290733
 21
38.749977
  0
LINE
  8
0
  6
CENTER
 62
     2
 10
48.984573
 20
34.499977
 11
57.623535
 21
34.499977
  0
LINE
  8
0
 10
53.251648
 20
32.749977
 11
56.000748
 21
32.749977
  0
LINE
  8
0
 10
53.251648
 20
36.249973
 11
56.000748
 21
36.249973
  0
LINE
  8
0
 10
-84.481934
 20
39.999969
 11
-80.518242
 21
39.999969
  0
LINE
  8
0
 10
-85.000092
 20
48.499969
 11
-80.000092
 21
48.499969
  0
LINE
  8
0
 10
-80.000084
 20
48.499969
 11
-80.000084
 21
31.499971
  0
LINE
  8
0
 10
-85.000092
 20
31.499971
 11
-80.000092
 21
31.499971
  0
LINE
  8
0
  6
CENTER
 62
     2
 10
-40.568970
 20
52.499969
 11
-26.143631
 21
52.499969
  0
LINE
  8
0
  6
CENTER
 62
     2
 10
-40.568970
 20
27.499971
 11
-26.143631
 21
27.499971
  0
LINE
  8
0
 62
     4
 10
-19.999725
 20
104.800110
 11
45.000748
 21
104.800110
  0
LINE
  8
0
 62
     4
 10
45.000732
 20
105.000107
 11
56.000732
 21
105.000107
  0
LINE
  8
0
 62
     4
 10
-19.999710
 20
105.000107
 11
-19.999710
 21
81.999977
  0
LINE
  8
0
 62
     4
 10
45.000748
 20
105.000107
 11
45.000748
 21
81.999977
  0
LINE
  8
0
  6
CENTER
 62
     1
 10
-48.988270
 20
90.999969
 11
75.533936
 21
90.999969
  0
LINE
  8
0
  6
CENTER
 62
     2
 10
-98.976196
 20
39.999969
 11
111.000748
 21
39.999969
  0
LINE
  8
0
  6
CENTER
 62
     2
 10
53.250793
 20
48.335892
 11
53.250793
 21
30.330307
  0
LINE
  8
0
 10
-25.999710
 20
51.999977
 11
-25.999710
 21
27.999975
  0
LINE
  8
0
 10
-23.999695
 20
49.999969
 11
-23.999695
 21
29.999973
  0
LINE
  8
0
 10
-23.999680
 20
49.999989
 11
-25.999691
 21
51.999985
  0
LINE
  8
0
 10
-25.999695
 20
27.999975
 11
-23.999683
 21
29.999973
  0
LINE
  8
0
 62
     4
 10
66.000732
 20
82.999931
 11
66.000732
 21
98.999939
  0
LINE
  8
0
 62
     4
 10
67.000748
 20
97.999939
 11
67.000748
 21
83.999931
  0
LINE
  8
0
 62
     4
 10
56.000748
 20
98.999939
 11
66.000732
 21
98.999939
  0
LINE
  8
0
 62
     1
 10
56.000748
 20
97.999939
 11
67.000748
 21
97.999939
  0
LINE
  8
0
 62
     1
 10
56.000748
 20
83.999931
 11
67.000748
 21
83.999931
  0
LINE
  8
0
 62
     4
 10
56.000748
 20
82.999931
 11
66.000732
 21
82.999931
  0
LINE
  8
0
 62
     4
 10
67.000717
 20
97.999893
 11
66.000725
 21
98.999886
  0
LINE
  8
0
 62
     4
 10
67.000732
 20
83.999962
 11
66.000732
 21
82.999954
  0
LINE
  8
0
 10
66.000748
 20
81.999985
 11
66.000748
 21
-2.000031
  0
LINE
  8
0
 10
108.000748
 20
80.999977
 11
108.000748
 21
-1.000023
  0
LINE
  8
0
  6
CENTER
 62
     2
 10
-90.000092
 20
14.825735
 11
-90.000092
 21
23.195772
  0
LINE
  8
0
  6
CENTER
 62
     2
 10
-93.833061
 20
18.999971
 11
-86.160103
 21
18.999971
  0
LINE
  8
0
  6
CENTER
 62
     2
 10
61.000748
 20
34.174210
 11
61.000748
 21
25.804173
  0
LINE
  8
0
  6
CENTER
 62
     2
 10
57.167786
 20
29.999973
 11
64.840729
 21
29.999973
  0
LINE
  8
0
 10
98.000748
 20
17.499971
 11
66.000748
 21
17.499971
  0
LINE
  8
0
  6
CENTER
 62
     2
 10
101.000748
 20
11.499971
 11
63.023010
 21
11.499971
  0
LINE
  8
0
 10
98.000748
 20
5.499969
 11
66.000748
 21
5.499969
  0
LINE
  8
0
 10
98.000748
 20
62.499969
 11
66.000748
 21
62.499969
  0
LINE
  8
0
  6
CENTER
 62
     2
 10
101.000748
 20
68.499969
 11
63.023010
 21
68.499969
  0
LINE
  8
0
 10
98.000748
 20
74.499977
 11
66.000748
 21
74.499977
  0
LINE
  8
0
 10
98.000748
 20
80.999977
 11
98.000748
 21
-1.000023
  0
LINE
  8
0
 10
98.000748
 20
80.999977
 11
108.000748
 21
80.999977
  0
LINE
  8
0
 10
98.000748
 20
-1.000023
 11
108.000748
 21
-1.000023
  0
LINE
  8
0
  6
CENTER
 62
     2
 10
107.167145
 20
60.999969
 11
99.052063
 21
60.999969
  0
LINE
  8
0
  6
CENTER
 62
     2
 10
103.000748
 20
64.717072
 11
103.000748
 21
56.893318
  0
LINE
  8
0
  6
CENTER
 62
     2
 10
103.000748
 20
14.825735
 11
103.000748
 21
23.195772
  0
LINE
  8
0
  6
CENTER
 62
     2
 10
106.833710
 20
18.999971
 11
99.160767
 21
18.999971
  0
LINE
  8
0
 10
-19.999710
 20
81.999977
 11
-19.999710
 21
-2.000031
  0
LINE
  8
0
 10
45.000748
 20
81.999977
 11
45.000748
 21
-2.000031
  0
LINE
  8
0
 10
56.000748
 20
81.999977
 11
56.000748
 21
-2.000031
  0
LINE
  8
0
 62
     4
 10
-30.999710
 20
105.000107
 11
-30.999710
 21
81.999977
  0
LINE
  8
0
 62
     4
 10
-19.999695
 20
105.000107
 11
-30.999695
 21
105.000107
  0
LINE
  8
0
 62
     4
 10
-41.999706
 20
83.999939
 11
-40.999706
 21
82.999947
  0
LINE
  8
0
 62
     4
 10
-40.999695
 20
82.999931
 11
-40.999695
 21
98.999939
  0
LINE
  8
0
 62
     4
 10
-41.999710
 20
97.999939
 11
-41.999710
 21
83.999931
  0
LINE
  8
0
 62
     4
 10
-30.999710
 20
98.999939
 11
-40.999695
 21
98.999939
  0
LINE
  8
0
 62
     1
 10
-30.999710
 20
97.999939
 11
-41.999710
 21
97.999939
  0
LINE
  8
0
 62
     1
 10
-30.999710
 20
83.999931
 11
-41.999710
 21
83.999931
  0
LINE
  8
0
 62
     4
 10
-30.999710
 20
82.999931
 11
-40.999695
 21
82.999931
  0
LINE
  8
0
 62
     4
 10
-41.999683
 20
97.999916
 11
-40.999702
 21
98.999893
  0
LINE
  8
0
  6
PHANTOM
 62
     3
 10
12.500519
 20
124.154305
 11
12.500519
 21
-34.075645
  0
LINE
  8
0
  6
PHANTOM
 62
     3
 10
82.000748
 20
114.154305
 11
82.000748
 21
-34.075645
  0
LINE
  8
0
 10
-179.528900
 20
81.999992
 11
-179.528900
 21
-1.999985
  0
LINE
  8
0
 10
-213.528870
 20
81.999992
 11
-213.528870
 21
-1.999985
  0
LINE
  8
0
 10
-213.528870
 20
81.999992
 11
-179.528900
 21
81.999992
  0
LINE
  8
0
 10
-183.528900
 20
80.999992
 11
-183.528900
 21
-0.999992
  0
LINE
  8
0
 10
-212.528870
 20
80.999992
 11
-212.528870
 21
-0.999992
  0
LINE
  8
0
 10
-212.528870
 20
81.000008
 11
-183.528900
 21
81.000008
  0
LINE
  8
0
 10
-177.528900
 20
50.000004
 11
-177.528900
 21
30.000011
  0
LINE
  8
0
 10
-179.528946
 20
51.999798
 11
-177.528976
 21
49.999825
  0
LINE
  8
0
  6
CENTER
 62
     2
 10
-203.780746
 20
57.000008
 11
-193.007355
 21
57.000008
  0
LINE
  8
0
  6
CENTER
 62
     2
 10
-205.759903
 20
68.500000
 11
-189.936646
 21
68.500000
  0
LINE
  8
0
 10
-195.719666
 20
68.500053
 11
-196.874359
 21
66.500053
  0
LINE
  8
0
 10
-196.874329
 20
70.499893
 11
-195.719620
 21
68.499908
  0
LINE
  8
0
 10
-199.183578
 20
70.499992
 11
-196.874176
 21
70.499992
  0
LINE
  8
0
 10
-200.338455
 20
68.500084
 11
-199.183762
 21
70.500069
  0
LINE
  8
0
 10
-199.184036
 20
66.499779
 11
-200.338730
 21
68.499763
  0
LINE
  8
0
 10
-196.874176
 20
66.499969
 11
-199.183578
 21
66.499969
  0
LINE
  8
0
  6
CENTER
 62
     2
 10
-198.028870
 20
85.792809
 11
-198.028870
 21
-6.871185
  0
LINE
  8
0
 10
-213.528870
 20
-1.999985
 11
-179.528900
 21
-1.999985
  0
LINE
  8
0
 10
-212.528870
 20
-0.999985
 11
-183.528900
 21
-0.999985
  0
LINE
  8
0
 10
-179.529037
 20
28.000132
 11
-177.529068
 21
30.000120
  0
LINE
  8
0
  6
CENTER
 62
     2
 10
-203.479767
 20
23.000011
 11
-192.555939
 21
23.000011
  0
LINE
  8
0
  6
CENTER
 62
     2
 10
-205.647034
 20
11.500015
 11
-189.936646
 21
11.500015
  0
LINE
  8
0
 10
-195.719543
 20
11.500002
 11
-196.874237
 21
13.499990
  0
LINE
  8
0
 10
-196.874084
 20
9.499923
 11
-195.719376
 21
11.499928
  0
LINE
  8
0
 10
-199.183578
 20
9.500011
 11
-196.874176
 21
9.500011
  0
LINE
  8
0
 10
-200.338379
 20
11.499953
 11
-199.183685
 21
9.499966
  0
LINE
  8
0
 10
-199.183563
 20
13.499907
 11
-200.338257
 21
11.499919
  0
LINE
  8
0
 10
-196.874176
 20
13.500046
 11
-199.183578
 21
13.500046
  0
LINE
  8
0
  6
CENTER
 62
     2
 10
-216.167282
 20
40.000008
 11
-174.396393
 21
40.000008
  0
LINE
  8
0
 10
-188.214035
 20
40.000015
 11
-193.121521
 21
31.500013
  0
LINE
  8
0
 10
-193.121506
 20
48.499966
 11
-188.214020
 21
39.999969
  0
LINE
  8
0
 10
-202.936340
 20
48.499996
 11
-193.121399
 21
48.499996
  0
LINE
  8
0
 10
-207.843887
 20
40.000076
 11
-202.936417
 21
48.500069
  0
LINE
  8
0
 10
-202.936813
 20
31.499784
 11
-207.844299
 21
39.999798
  0
LINE
  8
0
 10
-193.121399
 20
31.499981
 11
-202.936340
 21
31.499981
  0
LINE
  8
0
 62
     4
 10
-213.528900
 20
105.000130
 11
-179.528900
 21
105.000130
  0
LINE
  8
0
 62
     4
 10
-213.528900
 20
105.000130
 11
-213.528900
 21
81.999992
  0
LINE
  8
0
 62
     4
 10
-179.528900
 20
105.000130
 11
-179.528900
 21
81.999992
  0
LINE
  8
0
  6
CENTER
 62
     1
 10
-207.482819
 20
90.999992
 11
-185.880035
 21
90.999992
  0
LINE
  8
0
  6
CENTER
 62
     1
 10
-196.528870
 20
100.723488
 11
-196.528870
 21
82.386253
  0
LINE
  8
0
 10
184.558289
 20
81.999924
 11
184.558289
 21
-2.000053
  0
LINE
  8
0
 10
184.558289
 20
81.999924
 11
218.558289
 21
81.999924
  0
LINE
  8
0
  6
CENTER
 62
     2
 10
203.058289
 20
84.720032
 11
203.058289
 21
-5.629875
  0
LINE
  8
0
 10
182.558289
 20
49.999935
 11
182.558289
 21
29.999939
  0
LINE
  8
0
 10
182.558395
 20
49.999817
 11
184.558334
 21
51.999760
  0
LINE
  8
0
  6
CENTER
 62
     2
 10
180.724213
 20
45.499939
 11
187.964783
 21
45.499939
  0
LINE
  8
0
 10
182.558289
 20
47.249943
 11
184.558289
 21
47.249943
  0
LINE
  8
0
 10
182.558289
 20
43.749943
 11
184.558289
 21
43.749943
  0
LINE
  8
0
 10
218.558289
 20
-2.000053
 11
218.558289
 21
81.999924
  0
LINE
  8
0
 10
184.558289
 20
-2.000053
 11
218.558289
 21
-2.000053
  0
LINE
  8
0
 10
182.558182
 20
29.999859
 11
184.558167
 21
27.999851
  0
LINE
  8
0
  6
CENTER
 62
     2
 10
181.007202
 20
34.499939
 11
187.964783
 21
34.499939
  0
LINE
  8
0
 10
182.558289
 20
32.749943
 11
184.558289
 21
32.749943
  0
LINE
  8
0
 10
182.558289
 20
36.249939
 11
184.558289
 21
36.249939
  0
LINE
  8
0
  6
CENTER
 62
     2
 10
179.818359
 20
39.999939
 11
221.357239
 21
39.999939
  0
LINE
  8
0
 62
     4
 10
184.558289
 20
105.000061
 11
218.558289
 21
105.000061
  0
LINE
  8
0
 62
     4
 10
184.558289
 20
105.000061
 11
184.558289
 21
81.999924
  0
LINE
  8
0
 62
     4
 10
218.558289
 20
105.000061
 11
218.558289
 21
81.999924
  0
LINE
  8
0
  6
CENTER
 62
     1
 10
190.604370
 20
90.999924
 11
212.207153
 21
90.999924
  0
LINE
  8
0
  6
CENTER
 62
     1
 10
201.558319
 20
100.723419
 11
201.558319
 21
82.386185
  0
LINE
  8
0
  6
CENTER
 62
     2
 10
208.810120
 20
56.999939
 11
198.036774
 21
56.999939
  0
LINE
  8
0
  6
CENTER
 62
     2
 10
210.789307
 20
68.499931
 11
194.966034
 21
68.499931
  0
LINE
  8
0
 10
200.749298
 20
68.500137
 11
201.903961
 21
66.500153
  0
LINE
  8
0
 10
201.903488
 20
70.499977
 11
200.748810
 21
68.499977
  0
LINE
  8
0
 10
204.212982
 20
70.499931
 11
201.903564
 21
70.499931
  0
LINE
  8
0
 10
205.368118
 20
68.500114
 11
204.213455
 21
70.500099
  0
LINE
  8
0
 10
204.213257
 20
66.499771
 11
205.367981
 21
68.499756
  0
LINE
  8
0
 10
201.903564
 20
66.499901
 11
204.212982
 21
66.499901
  0
LINE
  8
0
  6
CENTER
 62
     2
 10
208.509186
 20
22.999943
 11
197.585327
 21
22.999943
  0
LINE
  8
0
  6
CENTER
 62
     2
 10
210.676422
 20
11.499947
 11
194.966034
 21
11.499947
  0
LINE
  8
0
 10
200.748795
 20
11.500007
 11
201.903473
 21
13.499993
  0
LINE
  8
0
 10
201.903656
 20
9.500040
 11
200.748978
 21
11.500037
  0
LINE
  8
0
 10
204.212982
 20
9.499943
 11
201.903564
 21
9.499943
  0
LINE
  8
0
 10
205.367752
 20
11.499900
 11
204.213028
 21
9.499894
  0
LINE
  8
0
 10
204.212936
 20
13.499854
 11
205.367645
 21
11.499875
  0
LINE
  8
0
 10
201.903564
 20
13.499977
 11
204.212982
 21
13.499977
  0
LINE
  8
0
 10
188.558319
 20
80.999924
 11
188.558319
 21
-1.000061
  0
LINE
  8
0
 10
217.558258
 20
80.999939
 11
188.558319
 21
80.999939
  0
LINE
  8
0
 10
217.558258
 20
80.999924
 11
217.558258
 21
-1.000061
  0
LINE
  8
0
 10
217.558258
 20
-1.000053
 11
188.558319
 21
-1.000053
  0
LINE
  8
0
 10
-78.000099
 20
-69.711517
 11
-19.999725
 21
-69.711517
  0
LINE
  8
0
  6
CENTER
 62
     2
 10
111.000732
 20
-88.211517
 11
-99.986351
 21
-88.211517
  0
LINE
  8
0
 10
-95.000107
 20
-73.711517
 11
-95.000107
 21
-102.711517
  0
LINE
  8
0
 10
-78.000099
 20
-103.711517
 11
-19.997726
 21
-103.711517
  0
LINE
  8
0
 10
45.000732
 20
-103.711517
 11
66.000732
 21
-103.711517
  0
LINE
  8
0
 10
45.000732
 20
-69.711517
 11
66.000732
 21
-69.711517
  0
LINE
  8
0
 10
-78.000099
 20
-69.711517
 11
-78.000099
 21
-103.711517
  0
LINE
  8
0
 10
-19.999725
 20
-67.711502
 11
-19.999725
 21
-103.711517
  0
LINE
  8
0
 10
45.000732
 20
-67.711502
 11
45.000732
 21
-103.711517
  0
LINE
  8
0
 10
-19.997726
 20
-103.511520
 11
45.000732
 21
-103.511520
  0
LINE
  8
0
 10
-19.999725
 20
-69.911514
 11
45.000732
 21
-69.911514
  0
LINE
  8
0
 10
-95.000107
 20
-102.711517
 11
-85.000099
 21
-102.711517
  0
LINE
  8
0
 10
-95.000107
 20
-73.711502
 11
-85.000099
 21
-73.711502
  0
LINE
  8
0
 10
-80.000099
 20
-80.804428
 11
-80.000099
 21
-82.211517
  0
LINE
  8
0
 10
-80.657570
 20
-78.396523
 11
-80.000092
 21
-80.850250
  0
LINE
  8
0
 10
-80.657570
 20
-78.396561
 11
-84.342628
 21
-78.396561
  0
LINE
  8
0
 10
-85.000099
 20
-73.711502
 11
-85.000099
 21
-102.711517
  0
LINE
  8
0
 10
-84.342720
 20
-78.396530
 11
-85.000183
 21
-80.850227
  0
LINE
  8
0
 10
-84.342773
 20
-98.026459
 11
-80.657578
 21
-98.026459
  0
LINE
  8
0
 10
-80.000099
 20
-95.618622
 11
-80.000099
 21
-94.211517
  0
LINE
  8
0
 10
-80.657631
 20
-98.026451
 11
-80.000168
 21
-95.572739
  0
LINE
  8
0
 10
-84.342926
 20
-98.026550
 11
-85.000404
 21
-95.572807
  0
LINE
  8
0
 10
-78.000099
 20
-82.211517
 11
-85.000099
 21
-82.211517
  0
LINE
  8
0
 10
-78.000099
 20
-94.211517
 11
-85.000099
 21
-94.211517
  0
LINE
  8
0
  6
CENTER
 62
     2
 10
-87.000099
 20
-98.211502
 11
-93.000099
 21
-98.211502
  0
LINE
  8
0
  6
CENTER
 62
     2
 10
-85.890900
 20
-78.211517
 11
-93.076668
 21
-78.211517
  0
LINE
  8
0
  6
CENTER
 62
     2
 10
-90.000099
 20
-74.345612
 11
-90.000099
 21
-82.300095
  0
LINE
  8
0
  6
CENTER
 62
     2
 10
-90.000099
 20
-94.104156
 11
-90.000099
 21
-102.092743
  0
LINE
  8
0
  6
CENTER
 62
     2
 10
-72.500099
 20
-71.691101
 11
-72.500099
 21
-79.319275
  0
LINE
  8
0
  6
CENTER
 62
     2
 10
-25.499725
 20
-71.359299
 11
-25.499725
 21
-79.319275
  0
LINE
  8
0
  6
CENTER
 62
     2
 10
-75.822365
 20
-98.211502
 11
-68.482903
 21
-98.211502
  0
LINE
  8
0
  6
CENTER
 62
     2
 10
-75.988274
 20
-75.211517
 11
-69.500099
 21
-75.211517
  0
LINE
  8
0
  6
CENTER
 62
     2
 10
-72.500099
 20
-94.104156
 11
-72.500099
 21
-102.092743
  0
LINE
  8
0
  6
CENTER
 62
     2
 10
-30.217171
 20
-75.211517
 11
-21.393936
 21
-75.211517
  0
LINE
  8
0
  6
CENTER
 62
     2
 10
-25.499725
 20
-93.627228
 11
-25.499725
 21
-102.331207
  0
LINE
  8
0
  6
CENTER
 62
     2
 10
-30.217171
 20
-98.211502
 11
-21.155479
 21
-98.211502
  0
LINE
  8
0
  6
CENTER
 62
     2
 10
54.368454
 20
-98.211502
 11
46.466400
 21
-98.211502
  0
LINE
  8
0
  6
CENTER
 62
     2
 10
54.368454
 20
-75.211517
 11
46.358917
 21
-75.211517
  0
LINE
  8
0
  6
CENTER
 62
     2
 10
50.500732
 20
-71.525192
 11
50.500732
 21
-79.124115
  0
LINE
  8
0
  6
CENTER
 62
     2
 10
50.500732
 20
-94.171539
 11
50.500732
 21
-102.232681
  0
LINE
  8
0
 10
-23.999687
 20
-67.711502
 11
-19.999725
 21
-67.711502
  0
LINE
  8
0
 10
-19.999725
 20
-67.911514
 11
45.000732
 21
-67.911514
  0
LINE
  8
0
 10
45.000732
 20
-67.711502
 11
56.000732
 21
-67.711502
  0
LINE
  8
0
 62
     4
 10
67.000732
 20
-79.711563
 11
67.000732
 21
-82.211517
  0
LINE
  8
0
 62
     1
 10
66.000732
 20
-79.711548
 11
67.000732
 21
-79.711548
  0
LINE
  8
0
 62
     4
 10
67.000687
 20
-79.711563
 11
66.000687
 21
-78.711563
  0
LINE
  8
0
 10
-25.999641
 20
-69.711548
 11
-23.999632
 21
-67.711540
  0
LINE
  8
0
  6
CENTER
 62
     2
 10
103.000732
 20
-82.385773
 11
103.000732
 21
-74.015717
  0
LINE
  8
0
  6
CENTER
 62
     2
 10
106.833694
 20
-78.211517
 11
99.160751
 21
-78.211517
  0
LINE
  8
0
 10
108.000732
 20
-73.711517
 11
108.000732
 21
-102.711517
  0
LINE
  8
0
 10
98.000732
 20
-73.711517
 11
98.000732
 21
-102.711517
  0
LINE
  8
0
 10
66.000732
 20
-69.711517
 11
66.000732
 21
-103.711517
  0
LINE
  8
0
 10
98.000732
 20
-82.211517
 11
66.000732
 21
-82.211517
  0
LINE
  8
0
 10
98.000732
 20
-94.211517
 11
66.000732
 21
-94.211517
  0
LINE
  8
0
 10
98.000732
 20
-102.711517
 11
108.000732
 21
-102.711517
  0
LINE
  8
0
 10
98.000732
 20
-73.711517
 11
108.000732
 21
-73.711517
  0
LINE
  8
0
  6
CENTER
 62
     2
 10
106.833694
 20
-98.211517
 11
99.160751
 21
-98.211517
  0
LINE
  8
0
  6
CENTER
 62
     2
 10
103.000732
 20
-94.037292
 11
103.000732
 21
-102.407318
  0
LINE
  8
0
 10
56.000732
 20
-67.711502
 11
56.000732
 21
-103.711517
  0
LINE
  8
0
  6
PHANTOM
 62
     3
 10
12.500504
 20
-34.076523
 11
12.500504
 21
-116.876205
  0
LINE
  8
0
  6
PHANTOM
 62
     3
 10
82.000732
 20
-34.076523
 11
82.000732
 21
-116.876205
  0
LINE
  8
0
 10
-281.250000
 20
195.500000
 11
282.099976
 21
195.500000
  0
LINE
  8
0
 10
-281.250000
 20
195.500000
 11
-281.250000
 21
-195.000000
  0
LINE
  8
0
 10
282.099976
 20
195.500000
 11
282.099976
 21
-195.000000
  0
LINE
  8
0
 10
-281.250000
 20
-195.000000
 11
282.099976
 21
-195.000000
  0
LINE
  8
0
 10
162.099976
 20
-175.000000
 11
162.099976
 21
-195.000000
  0
LINE
  8
0
 10
162.099976
 20
-175.000000
 11
282.099976
 21
-175.000000
  0
LINE
  8
0
 10
162.099976
 20
175.500000
 11
282.099976
 21
175.500000
  0
LINE
  8
0
 10
-281.250000
 20
175.500000
 11
-161.250000
 21
175.500000
  0
LINE
  8
0
 10
162.099976
 20
195.500000
 11
162.099976
 21
175.500000
  0
LINE
  8
0
 10
-161.250000
 20
195.500000
 11
-161.250000
 21
175.500000
  0
LINE
  8
0
 10
-271.250000
 20
-145.000000
 11
-271.250000
 21
-185.000000
  0
LINE
  8
0
 10
-221.250000
 20
-169.000000
 11
-221.250000
 21
-185.000000
  0
LINE
  8
0
 10
-177.250000
 20
-145.000000
 11
-177.250000
 21
-185.000000
  0
LINE
  8
0
 10
-155.250000
 20
-145.000000
 11
-155.250000
 21
-185.000000
  0
LINE
  8
0
 10
-133.250000
 20
-145.000000
 11
-133.250000
 21
-185.000000
  0
LINE
  8
0
 10
-111.250000
 20
-145.000000
 11
-111.250000
 21
-185.000000
  0
LINE
  8
0
 10
-45.250000
 20
-145.000000
 11
-45.250000
 21
-185.000000
  0
LINE
  8
0
 10
-199.250000
 20
-145.000000
 11
-199.250000
 21
-185.000000
  0
LINE
  8
0
 10
-221.250000
 20
-168.999985
 11
-271.250000
 21
-144.999985
  0
LINE
  8
0
 10
-249.250000
 20
-153.000000
 11
-208.487595
 21
-153.000000
  0
LINE
  8
0
 10
-199.249985
 20
-168.999969
 11
-208.487579
 21
-152.999969
  0
LINE
  8
0
 10
-249.250046
 20
-153.000153
 11
-271.250061
 21
-145.000137
  0
LINE
  8
0
 10
-89.250000
 20
-145.000000
 11
-89.250000
 21
-185.000000
  0
LINE
  8
0
 10
-67.250000
 20
-145.000000
 11
-67.250000
 21
-185.000000
  0
LINE
  8
0
 10
-271.250000
 20
-169.000000
 11
-45.250000
 21
-169.000000
  0
LINE
  8
0
 10
-271.250000
 20
-145.000000
 11
-45.250000
 21
-145.000000
  0
LINE
  8
0
 10
-221.250000
 20
-177.000000
 11
-45.250000
 21
-177.000000
  0
LINE
  8
0
 10
-271.250000
 20
-185.000000
 11
-45.250000
 21
-185.000000
  0
CIRCLE
  8
0
 62
     2
 10
103.000748
 20
60.999969
 40
2.500000
  0
CIRCLE
  8
0
 10
61.000748
 20
49.999969
 40
2.100000
  0
CIRCLE
  8
0
 10
103.000748
 20
60.999969
 40
2.100000
  0
CIRCLE
  8
0
 10
103.000748
 20
18.999971
 40
2.100000
  0
CIRCLE
  8
0
 10
-90.000092
 20
60.999969
 40
2.100000
  0
CIRCLE
  8
0
 10
61.000748
 20
29.999973
 40
2.100000
  0
CIRCLE
  8
0
 10
-32.999714
 20
27.499971
 40
2.750000
  0
CIRCLE
  8
0
 62
     2
 10
61.000748
 20
49.999969
 40
2.500000
  0
CIRCLE
  8
0
 10
-71.500084
 20
27.499971
 40
2.750000
  0
CIRCLE
  8
0
 10
-71.500084
 20
27.499971
 40
4.750000
  0
CIRCLE
  8
0
 10
-32.999714
 20
27.499971
 40
4.750000
  0
ARC
  8
0
 10
25.040741
 20
38.749977
 40
0.500000
 50
0.000000
 51
180.000000
  0
CIRCLE
  8
0
 62
     2
 10
103.000748
 20
18.999971
 40
2.500000
  0
ARC
  8
0
 10
-97.688950
 20
35.749969
 40
17.688862
 50
346.097809
 51
13.902082
  0
CIRCLE
  8
0
 62
     2
 10
-90.000092
 20
18.999971
 40
2.500000
  0
ARC
  8
0
 10
53.251648
 20
34.499977
 40
1.750000
 50
89.999878
 51
270.000000
  0
ARC
  8
0
 10
-97.688950
 20
44.249977
 40
17.688866
 50
346.097870
 51
13.902143
  0
CIRCLE
  8
0
 62
     2
 10
61.000748
 20
29.999973
 40
2.500000
  0
ARC
  8
0
 10
-67.311226
 20
44.249977
 40
17.688862
 50
166.097824
 51
193.902100
  0
ARC
  8
0
 10
-67.311226
 20
35.749969
 40
17.688864
 50
166.097885
 51
193.902161
  0
CIRCLE
  8
0
 62
     2
 10
-90.000092
 20
60.999969
 40
2.500000
  0
CIRCLE
  8
0
 10
-71.500084
 20
52.499969
 40
2.750000
  0
CIRCLE
  8
0
 10
-32.999714
 20
52.499969
 40
2.750000
  0
CIRCLE
  8
0
 10
-71.500084
 20
52.499969
 40
4.750000
  0
CIRCLE
  8
0
 10
-32.999714
 20
52.499969
 40
4.750000
  0
ARC
  8
0
 10
26.290733
 20
39.999969
 40
1.250000
 50
270.000000
 51
90.000000
  0
ARC
  8
0
 10
23.790718
 20
39.999969
 40
1.250000
 50
90.000000
 51
270.000000
  0
ARC
  8
0
 10
25.040741
 20
41.249969
 40
0.500000
 50
180.000000
 51
0.000000
  0
ARC
  8
0
 10
53.251648
 20
45.499969
 40
1.750000
 50
90.000000
 51
270.000000
  0
CIRCLE
  8
0
 10
-90.000092
 20
18.999971
 40
2.100000
  0
CIRCLE
  8
0
 10
-198.028870
 20
57.000008
 40
2.500000
  0
CIRCLE
  8
0
 62
     2
 10
-198.028870
 20
40.000008
 40
3.375000
  0
CIRCLE
  8
0
 10
-198.028870
 20
23.000011
 40
2.500000
  0
CIRCLE
  8
0
 10
-198.028870
 20
40.000008
 40
12.499999
  0
CIRCLE
  8
0
 10
-198.028870
 20
40.000008
 40
4.000000
  0
CIRCLE
  8
0
 62
     2
 10
-198.028870
 20
57.000008
 40
3.000000
  0
CIRCLE
  8
0
 62
     4
 10
-196.528870
 20
90.999992
 40
8.000000
  0
CIRCLE
  8
0
 62
     1
 10
-196.528870
 20
90.999992
 40
7.000000
  0
CIRCLE
  8
0
 10
-198.028870
 20
68.500000
 40
4.750000
  0
CIRCLE
  8
0
 10
-198.028870
 20
11.500015
 40
4.750000
  0
CIRCLE
  8
0
 10
-198.028870
 20
11.500015
 40
4.250000
  0
CIRCLE
  8
0
 10
-198.028870
 20
68.500000
 40
4.250000
  0
CIRCLE
  8
0
 62
     2
 10
-198.028870
 20
23.000011
 40
3.000000
  0
CIRCLE
  8
0
 10
203.058289
 20
56.999939
 40
2.500000
  0
CIRCLE
  8
0
 62
     4
 10
201.558319
 20
90.999924
 40
8.000000
  0
CIRCLE
  8
0
 10
203.058289
 20
22.999943
 40
2.500000
  0
CIRCLE
  8
0
 62
     1
 10
201.558319
 20
90.999924
 40
7.000000
  0
CIRCLE
  8
0
 10
203.058289
 20
11.499947
 40
4.250000
  0
CIRCLE
  8
0
 62
     2
 10
203.058289
 20
56.999939
 40
3.000000
  0
CIRCLE
  8
0
 10
203.058289
 20
11.499947
 40
4.750000
  0
CIRCLE
  8
0
 62
     2
 10
203.058289
 20
22.999943
 40
3.000000
  0
CIRCLE
  8
0
 10
203.058289
 20
68.499931
 40
4.750000
  0
CIRCLE
  8
0
 10
203.058289
 20
68.499931
 40
4.250000
  0
ARC
  8
0
 10
185.208282
 20
34.499939
 40
1.749999
 50
111.803543
 51
248.196457
  0
ARC
  8
0
 10
185.208282
 20
45.499939
 40
1.749999
 50
111.803543
 51
248.196457
  0
CIRCLE
  8
0
 10
103.000732
 20
-78.211517
 40
2.100000
  0
CIRCLE
  8
0
 10
-72.500099
 20
-98.211502
 40
2.100000
  0
CIRCLE
  8
0
 10
103.000732
 20
-98.211517
 40
2.100000
  0
CIRCLE
  8
0
 10
50.500732
 20
-98.211502
 40
2.100000
  0
CIRCLE
  8
0
 10
-25.499725
 20
-75.211517
 40
2.100000
  0
CIRCLE
  8
0
 10
50.500732
 20
-75.211517
 40
2.100000
  0
CIRCLE
  8
0
 10
-25.499725
 20
-98.211502
 40
2.100000
  0
CIRCLE
  8
0
 62
     2
 10
-72.500099
 20
-98.211502
 40
2.500000
  0
ARC
  8
0
 10
-79.921379
 20
-95.618622
 40
5.078920
 50
163.915909
 51
180.000000
  0
CIRCLE
  8
0
 62
     2
 10
-25.499725
 20
-98.211502
 40
2.500000
  0
CIRCLE
  8
0
 62
     2
 10
-72.500099
 20
-75.211517
 40
2.500000
  0
ARC
  8
0
 10
-79.921379
 20
-80.804413
 40
5.078918
 50
180.000000
 51
196.084091
  0
CIRCLE
  8
0
 62
     2
 10
-90.000099
 20
-78.211517
 40
2.500000
  0
CIRCLE
  8
0
 62
     2
 10
50.500732
 20
-75.211517
 40
2.500000
  0
CIRCLE
  8
0
 62
     2
 10
103.000732
 20
-78.211517
 40
2.500000
  0
ARC
  8
0
 10
-85.078812
 20
-80.804413
 40
5.078920
 50
343.915894
 51
0.000000
  0
CIRCLE
  8
0
 62
     2
 10
50.500732
 20
-98.211502
 40
2.500000
  0
CIRCLE
  8
0
 62
     2
 10
-90.000099
 20
-98.211502
 40
2.500000
  0
CIRCLE
  8
0
 62
     2
 10
103.000732
 20
-98.211517
 40
2.500000
  0
ARC
  8
0
 10
-85.078812
 20
-95.618622
 40
5.078918
 50
359.999908
 51
16.084095
  0
CIRCLE
  8
0
 62
     2
 10
-25.499725
 20
-75.211517
 40
2.500000
  0
CIRCLE
  8
0
 10
-90.000099
 20
-78.211517
 40
2.100000
  0
CIRCLE
  8
0
 10
-90.000099
 20
-98.211502
 40
2.100000
  0
CIRCLE
  8
0
 10
-72.500099
 20
-75.211517
 40
2.100000
  0
TEXT
  8
0
 10
196.250259
 20
180.830002
 40
6.300000
  1
Ver. 2.0
 50
0.000000
 41
1.052632
 51
0.000000
  7
STANDARD
  0
TEXT
  8
0
 10
167.564667
 20
-192.100006
 40
9.000000
  1
KOGANEI CORP.
 50
0.000000
 41
1.052632
 51
0.000000
  7
STANDARD
  0
TEXT
  8
0
 10
-262.849731
 20
180.830002
 40
6.300000
  1
AXIS CYLINDER
 50
0.000000
 41
1.052632
 51
0.000000
  7
STANDARD
  0
TEXT
  8
0
 10
-270.049988
 20
155.830002
 40
6.300000
  1
MODEL:XDADQ25*ST(25)-SSL
 50
0.000000
 41
1.052631
 51
0.000000
  7
STANDARD
  0
TEXT
  8
0
 62
     3
 10
62.036785
 20
116.804031
 40
6.300000
  1
STRETCH LINE B
 50
0.000000
 41
1.052632
 51
0.000000
  7
STANDARD
  0
TEXT
  8
0
 10
-65.642860
 20
-144.050003
 40
4.500000
  1
(mm)
 50
0.000000
 41
1.052632
 51
0.000000
  7
STANDARD
  0
TEXT
  8
0
 10
-193.142853
 20
-160.050003
 40
4.500000
  1
25
 50
0.000000
 41
1.052632
 51
0.000000
  7
STANDARD
  0
TEXT
  8
0
 10
-171.142853
 20
-160.050003
 40
4.500000
  1
50
 50
0.000000
 41
1.052632
 51
0.000000
  7
STANDARD
  0
TEXT
  8
0
 10
-149.142853
 20
-160.050003
 40
4.500000
  1
75
 50
0.000000
 41
1.052632
 51
0.000000
  7
STANDARD
  0
TEXT
  8
0
 10
-129.392853
 20
-160.050003
 40
4.500000
  1
100
 50
0.000000
 41
1.052632
 51
0.000000
  7
STANDARD
  0
TEXT
  8
0
 10
-107.392853
 20
-160.050003
 40
4.500000
  1
125
 50
0.000000
 41
1.052632
 51
0.000000
  7
STANDARD
  0
TEXT
  8
0
 10
-242.761658
 20
-152.050003
 40
4.500000
  1
STROKE
 50
0.000000
 41
1.052632
 51
0.000000
  7
STANDARD
  0
TEXT
  8
0
 10
-265.408447
 20
-168.050003
 40
4.500000
  1
TYPE
 50
0.000000
 41
1.052632
 51
0.000000
  7
STANDARD
  0
TEXT
  8
0
 10
-185.642853
 20
-143.050003
 40
4.500000
  1
STRETCH LIST
 50
0.000000
 41
1.052632
 51
0.000000
  7
STANDARD
  0
TEXT
  8
0
 10
-264.000000
 20
-178.699997
 40
4.500000
  1
XDADQ25
 50
0.000000
 41
1.052632
 51
0.000000
  7
STANDARD
  0
TEXT
  8
0
 10
-190.892853
 20
-176.050003
 40
4.500000
  1
0
 50
0.000000
 41
1.052632
 51
0.000000
  7
STANDARD
  0
TEXT
  8
0
 10
-171.142853
 20
-176.050003
 40
4.500000
  1
25
 50
0.000000
 41
1.052632
 51
0.000000
  7
STANDARD
  0
TEXT
  8
0
 10
-149.142853
 20
-176.050003
 40
4.500000
  1
50
 50
0.000000
 41
1.052632
 51
0.000000
  7
STANDARD
  0
TEXT
  8
0
 10
-127.142853
 20
-176.050003
 40
4.500000
  1
75
 50
0.000000
 41
1.052632
 51
0.000000
  7
STANDARD
  0
TEXT
  8
0
 10
-63.392857
 20
-176.050003
 40
4.500000
  1
150
 50
0.000000
 41
1.052632
 51
0.000000
  7
STANDARD
  0
TEXT
  8
0
 10
-190.892853
 20
-184.050003
 40
4.500000
  1
0
 50
0.000000
 41
1.052632
 51
0.000000
  7
STANDARD
  0
TEXT
  8
0
 10
-171.142853
 20
-184.050003
 40
4.500000
  1
25
 50
0.000000
 41
1.052632
 51
0.000000
  7
STANDARD
  0
TEXT
  8
0
 10
-149.142853
 20
-184.050003
 40
4.500000
  1
50
 50
0.000000
 41
1.052632
 51
0.000000
  7
STANDARD
  0
TEXT
  8
0
 10
-127.142853
 20
-184.050003
 40
4.500000
  1
75
 50
0.000000
 41
1.052632
 51
0.000000
  7
STANDARD
  0
TEXT
  8
0
 10
-63.392857
 20
-184.050003
 40
4.500000
  1
150
 50
0.000000
 41
1.052632
 51
0.000000
  7
STANDARD
  0
TEXT
  8
0
 10
-212.892654
 20
-176.050003
 40
4.500000
  1
A
 50
0.000000
 41
1.052632
 51
0.000000
  7
STANDARD
  0
TEXT
  8
0
 10
-212.892654
 20
-184.050003
 40
4.500000
  1
B
 50
0.000000
 41
1.052632
 51
0.000000
  7
STANDARD
  0
TEXT
  8
0
 10
-241.877258
 20
-157.324997
 40
4.500000
  1
STRETCH
 50
0.000000
 41
1.052632
 51
0.000000
  7
STANDARD
  0
TEXT
  8
0
 10
-241.877258
 20
-164.074997
 40
4.500000
  1
   PLACE
 50
0.000000
 41
1.052632
 51
0.000000
  7
STANDARD
  0
TEXT
  8
0
 10
-63.392658
 20
-160.050003
 40
4.500000
  1
175
 50
0.000000
 41
1.052632
 51
0.000000
  7
STANDARD
  0
TEXT
  8
0
 10
-107.392853
 20
-176.050003
 40
4.500000
  1
100
 50
0.000000
 41
1.052632
 51
0.000000
  7
STANDARD
  0
TEXT
  8
0
 10
-107.392853
 20
-184.050003
 40
4.500000
  1
100
 50
0.000000
 41
1.052632
 51
0.000000
  7
STANDARD
  0
TEXT
  8
0
 10
-85.392853
 20
-176.050003
 40
4.500000
  1
125
 50
0.000000
 41
1.052632
 51
0.000000
  7
STANDARD
  0
TEXT
  8
0
 10
-85.392853
 20
-184.050003
 40
4.500000
  1
125
 50
0.000000
 41
1.052632
 51
0.000000
  7
STANDARD
  0
TEXT
  8
0
 10
-85.392654
 20
-160.050003
 40
4.500000
  1
150
 50
0.000000
 41
1.052632
 51
0.000000
  7
STANDARD
  0
TEXT
  8
0
 62
     3
 10
-32.463444
 20
126.804031
 40
6.300000
  1
STRETCH LINE A
 50
0.000000
 41
1.052632
 51
0.000000
  7
STANDARD
  0
ENDSEC
  0
EOF
