  0
SECTION
  2
HEADER
  0
ENDSEC
  0
SECTION
  2
TABLES
  0
TABLE
  2
LTYPE
 70
     4
  0
LTYPE
  2
CONTINUOUS
 70
    64
  3
Solid line
 72
    65
 73
     0
 40
0.000000
  0
LTYPE
  2
DASHED
 70
    64
  3
__ __ __ __ __ __ __ __ __ __ __ __ __ __ __
 72
    65
 73
     2
 40
3.500000
 49
2.000000
 49
-1.500000
  0
LTYPE
  2
CENTER
 70
    64
  3
____ _ ____ _ ____ _ ____ _ ____ _ ____ _ ____
 72
    65
 73
     4
 40
17.500000
 49
13.000000
 49
-1.500000
 49
1.500000
 49
-1.500000
  0
LTYPE
  2
PHANTOM
 70
    64
  3
_____ _ _ _____ _ _ _____ _ _ _____ _ _ ____  
 72
    65
 73
     6
 40
15.500000
 49
8.000000
 49
-1.500000
 49
1.500000
 49
-1.500000
 49
1.500000
 49
-1.500000
  0
LTYPE
  2
DASHED1
 70
    64
  3
__ __ __ __ __ __ __ __ __ __ __ __ __ __ __
 72
    65
 73
     2
 40
1.500000
 49
1.000000
 49
-0.500000
  0
LTYPE
  2
DASHED2
 70
    64
  3
__ __ __ __ __ __ __ __ __ __ __ __ __ __ __
 72
    65
 73
     2
 40
3.500000
 49
2.500000
 49
-1.000000
  0
LTYPE
  2
DASHED3
 70
    64
  3
__ __ __ __ __ __ __ __ __ __ __ __ __ __ __
 72
    65
 73
     2
 40
6.000000
 49
4.000000
 49
-2.000000
  0
LTYPE
  2
DASHED4
 70
    64
  3
__ __ __ __ __ __ __ __ __ __ __ __ __ __ __
 72
    65
 73
     2
 40
12.000000
 49
10.000000
 49
-2.000000
  0
LTYPE
  2
DASHED5
 70
    64
  3
__ __ __ __ __ __ __ __ __ __ __ __ __ __ __
 72
    65
 73
     2
 40
17.000000
 49
15.000000
 49
-2.000000
  0
LTYPE
  2
DASHED6
 70
    64
  3
__ __ __ __ __ __ __ __ __ __ __ __ __ __ __
 72
    65
 73
     2
 40
29.000000
 49
27.000000
 49
-2.000000
  0
LTYPE
  2
PHANTOM1
 70
    64
  3
_____ _ _ _____ _ _ _____ _ _ _____ _ _ ____  
 72
    65
 73
     6
 40
31.000000
 49
25.000000
 49
-1.500000
 49
1.000000
 49
-1.000000
 49
1.000000
 49
-1.500000
  0
LTYPE
  2
PHANTOM2
 70
    64
  3
_____ _ _ _____ _ _ _____ _ _ _____ _ _ ____  
 72
    65
 73
     6
 40
36.000000
 49
27.000000
 49
-1.500000
 49
2.500000
 49
-1.000000
 49
2.500000
 49
-1.500000
  0
LTYPE
  2
PHANTOM3
 70
    64
  3
_____ _ _ _____ _ _ _____ _ _ _____ _ _ ____  
 72
    65
 73
     6
 40
78.000000
 49
64.000000
 49
-2.000000
 49
4.000000
 49
-2.000000
 49
4.000000
 49
-2.000000
  0
LTYPE
  2
CENTER1
 70
    64
  3
____ _ ____ _ ____ _ ____ _ ____ _ ____ _ ____
 72
    65
 73
     4
 40
19.000000
 49
14.000000
 49
-1.000000
 49
3.000000
 49
-1.000000
  0
LTYPE
  2
CENTER2
 70
    64
  3
____ _ ____ _ ____ _ ____ _ ____ _ ____ _ ____
 72
    65
 73
     4
 40
28.500000
 49
25.000000
 49
-1.000000
 49
1.500000
 49
-1.000000
  0
LTYPE
  2
CENTER3
 70
    64
  3
____ _ ____ _ ____ _ ____ _ ____ _ ____ _ ____
 72
    65
 73
     4
 40
31.500000
 49
27.000000
 49
-1.000000
 49
2.500000
 49
-1.000000
  0
LTYPE
  2
CENTER4
 70
    64
  3
____ _ ____ _ ____ _ ____ _ ____ _ ____ _ ____
 72
    65
 73
     4
 40
50.000000
 49
45.000000
 49
-1.000000
 49
3.000000
 49
-1.000000
  0
LTYPE
  2
CENTER5
 70
    64
  3
____ _ ____ _ ____ _ ____ _ ____ _ ____ _ ____
 72
    65
 73
     4
 40
100.000000
 49
92.000000
 49
-2.000000
 49
4.000000
 49
-2.000000
  0
LTYPE
  2
SBK1
 70
    64
  3
______ _ _ _ ______ _ _ _ ______ _ _ _ _____  
 72
    65
 73
     8
 40
60.500000
 49
45.000000
 49
-2.000000
 49
2.500000
 49
-2.000000
 49
2.500000
 49
-2.000000
 49
2.500000
 49
-2.000000
  0
LTYPE
  2
SBK2
 70
    64
  3
______ _ _ _ ______ _ _ _ ______ _ _ _ _____  
 72
    65
 73
     8
 40
84.000000
 49
64.000000
 49
-2.000000
 49
4.000000
 49
-2.000000
 49
4.000000
 49
-2.000000
 49
4.000000
 49
-2.000000
  0
LTYPE
  2
STCH
 70
    64
  3
__ __ __ __ __ __ __ __ __ __ __ __ __ __ __
 72
    65
 73
     2
 40
3.000000
 49
1.000000
 49
-2.000000
  0
LTYPE
  2
MTCH
 70
    64
  3
_____ _ _ _____ _ _ _____ _ _ _____ _ _ ____  
 72
    65
 73
     6
 40
80.000000
 49
66.000000
 49
-2.000000
 49
4.000000
 49
-2.000000
 49
4.000000
 49
-2.000000
  0
ENDTAB
  0
TABLE
  2
LAYER
 70
     1
  0
LAYER
  2
0
 70
     0
 62
     7
  6
CONTINUOUS
  0
ENDTAB
  0
TABLE
  2
STYLE
 70
     1
  0
STYLE
  2
STANDARD
 70
     0
 40
0.000000
 41
1.000000
 50
0.000000
 71
     0
 42
0.200000
  3
txt
  4
BIGFONT
  0
ENDTAB
  0
TABLE
  2
VIEW
 70
     0
  0
ENDTAB
  0
ENDSEC
  0
SECTION
  2
BLOCKS
  0
ENDSEC
  0
SECTION
  2
ENTITIES
  0
LINE
  8
0
 10
-94.999977
 20
87.000000
 11
-94.999977
 21
-17.000000
  0
LINE
  8
0
 10
-102.999985
 20
86.000000
 11
-102.999985
 21
-16.000000
  0
LINE
  8
0
 10
-114.999985
 20
86.000000
 11
-114.999985
 21
-16.000000
  0
LINE
  8
0
  6
CENTER
 62
     2
 10
-120.145821
 20
35.000008
 11
133.206741
 21
35.000008
  0
LINE
  8
0
 10
-114.999985
 20
86.000000
 11
-102.999985
 21
86.000000
  0
LINE
  8
0
 10
-94.999977
 20
87.000000
 11
-23.999985
 21
87.000000
  0
LINE
  8
0
 10
41.000015
 20
87.000000
 11
71.000015
 21
87.000000
  0
LINE
  8
0
 10
-23.999985
 20
86.800003
 11
41.000015
 21
86.800003
  0
LINE
  8
0
 10
-102.999985
 20
44.500000
 11
-96.999977
 21
44.500000
  0
LINE
  8
0
 10
-96.999977
 20
44.500000
 11
-96.999977
 21
25.500002
  0
LINE
  8
0
  6
CENTER
 62
     2
 10
-104.962753
 20
69.500000
 11
-91.760948
 21
69.500000
  0
LINE
  8
0
 10
-102.999985
 20
77.500000
 11
-94.999977
 21
77.500000
  0
LINE
  8
0
 10
-102.999985
 20
61.500000
 11
-94.999977
 21
61.500000
  0
LINE
  8
0
  6
CENTER
 62
     2
 10
-115.665070
 20
60.000000
 11
-104.116837
 21
60.000000
  0
LINE
  8
0
  6
CENTER
 62
     2
 10
-108.999985
 20
67.126663
 11
-108.999985
 21
55.074211
  0
LINE
  8
0
 10
-96.999977
 20
40.000000
 11
-94.999977
 21
40.000000
  0
LINE
  8
0
 62
     2
 10
-96.999992
 20
39.250042
 11
-95.700958
 21
40.000038
  0
LINE
  8
0
  6
CENTER
 62
     2
 10
-87.499977
 20
58.528809
 11
-87.499977
 21
41.749329
  0
LINE
  8
0
  6
CENTER
 62
     2
 10
-39.499985
 20
58.649117
 11
-39.499985
 21
40.951694
  0
LINE
  8
0
  6
CENTER
 62
     2
 10
-95.727097
 20
49.500000
 11
-78.728416
 21
49.500000
  0
LINE
  8
0
 10
-29.999985
 20
47.000008
 11
-29.999985
 21
23.000004
  0
LINE
  8
0
 10
-29.999985
 20
47.000008
 11
57.000031
 21
47.000008
  0
LINE
  8
0
 10
-27.999985
 20
44.999992
 11
57.000000
 21
44.999992
  0
LINE
  8
0
 10
-27.999985
 20
45.000008
 11
-27.999985
 21
25.000006
  0
LINE
  8
0
 10
-30.000000
 20
46.999996
 11
-28.000000
 21
44.999992
  0
LINE
  8
0
 10
-23.999985
 20
36.500000
 11
41.000031
 21
36.500000
  0
LINE
  8
0
 10
-23.999985
 20
38.375000
 11
41.000031
 21
38.375000
  0
LINE
  8
0
 10
-23.999985
 20
42.625008
 11
41.000015
 21
42.625008
  0
LINE
  8
0
  6
CENTER
 62
     2
 10
54.250015
 20
44.220924
 11
54.250015
 21
37.265556
  0
LINE
  8
0
  6
CENTER
 62
     2
 10
50.275192
 20
40.500000
 11
61.476196
 21
40.500000
  0
LINE
  8
0
 10
54.250015
 20
38.750000
 11
57.000015
 21
38.750000
  0
LINE
  8
0
 10
54.250015
 20
42.250000
 11
57.000015
 21
42.250000
  0
LINE
  8
0
 10
19.750015
 20
36.250000
 11
20.500015
 21
36.250000
  0
LINE
  8
0
 10
21.500015
 20
36.250000
 11
22.250015
 21
36.250000
  0
LINE
  8
0
 10
-114.999985
 20
-16.000000
 11
-102.999985
 21
-16.000000
  0
LINE
  8
0
 10
-94.999977
 20
-17.000000
 11
-23.999985
 21
-17.000000
  0
LINE
  8
0
 10
41.000015
 20
-17.000000
 11
71.000015
 21
-17.000000
  0
LINE
  8
0
 10
-23.999985
 20
-16.800003
 11
41.000015
 21
-16.800003
  0
LINE
  8
0
 10
-102.999985
 20
25.500002
 11
-96.999977
 21
25.500002
  0
LINE
  8
0
  6
CENTER
 62
     2
 10
-104.962753
 20
0.500000
 11
-91.760948
 21
0.500000
  0
LINE
  8
0
 10
-102.999985
 20
-7.500000
 11
-94.999977
 21
-7.500000
  0
LINE
  8
0
 10
-102.999985
 20
8.499998
 11
-94.999977
 21
8.499998
  0
LINE
  8
0
  6
CENTER
 62
     2
 10
-115.665070
 20
9.999998
 11
-104.116837
 21
9.999998
  0
LINE
  8
0
  6
CENTER
 62
     2
 10
-108.999985
 20
5.130583
 11
-108.999985
 21
14.704760
  0
LINE
  8
0
 10
-96.999977
 20
30.000002
 11
-94.999977
 21
30.000002
  0
LINE
  8
0
 62
     2
 10
-97.000000
 20
30.749981
 11
-95.700958
 21
29.999979
  0
LINE
  8
0
  6
CENTER
 62
     2
 10
-87.499977
 20
12.829401
 11
-87.499977
 21
28.325747
  0
LINE
  8
0
  6
CENTER
 62
     2
 10
-39.499985
 20
12.394497
 11
-39.499985
 21
28.483059
  0
LINE
  8
0
  6
CENTER
 62
     2
 10
-95.825798
 20
20.500002
 11
-78.418678
 21
20.500002
  0
LINE
  8
0
 10
-29.999985
 20
23.000010
 11
57.000031
 21
23.000010
  0
LINE
  8
0
 10
-27.999985
 20
24.999994
 11
57.000015
 21
24.999994
  0
LINE
  8
0
 10
-29.999983
 20
22.999987
 11
-27.999979
 21
24.999990
  0
LINE
  8
0
 10
-23.999985
 20
33.500000
 11
41.000015
 21
33.500000
  0
LINE
  8
0
 10
-23.999985
 20
31.625002
 11
41.000015
 21
31.625002
  0
LINE
  8
0
 10
-23.999985
 20
27.375010
 11
41.000015
 21
27.375010
  0
LINE
  8
0
  6
CENTER
 62
     2
 10
54.250015
 20
25.779083
 11
54.250015
 21
35.846375
  0
LINE
  8
0
  6
CENTER
 62
     2
 10
50.275192
 20
29.500002
 11
62.088791
 21
29.500002
  0
LINE
  8
0
 10
54.250015
 20
31.250002
 11
57.000015
 21
31.250002
  0
LINE
  8
0
 10
54.250015
 20
27.750002
 11
57.000015
 21
27.750002
  0
LINE
  8
0
 10
19.750015
 20
33.750000
 11
20.500015
 21
33.750000
  0
LINE
  8
0
 10
21.500015
 20
33.750000
 11
22.250015
 21
33.750000
  0
LINE
  8
0
  6
CENTER
 62
     2
 10
-48.357452
 20
49.500000
 11
-30.559479
 21
49.500000
  0
LINE
  8
0
  6
CENTER
 62
     2
 10
-47.854683
 20
20.500002
 11
-31.162796
 21
20.500002
  0
LINE
  8
0
 62
     4
 10
-23.999985
 20
115.800003
 11
41.000015
 21
115.800003
  0
LINE
  8
0
 62
     4
 10
41.000015
 20
116.000000
 11
57.000015
 21
116.000000
  0
LINE
  8
0
 10
-23.999985
 20
-17.000000
 11
-23.999985
 21
87.000008
  0
LINE
  8
0
 10
41.000015
 20
-17.000000
 11
41.000015
 21
87.000008
  0
LINE
  8
0
 62
     4
 10
57.000015
 20
116.000015
 11
57.000015
 21
87.000008
  0
LINE
  8
0
  6
CENTER
 62
     1
 10
-64.292999
 20
99.000015
 11
80.607101
 21
99.000015
  0
LINE
  8
0
 62
     4
 10
57.000015
 20
89.000000
 11
70.000015
 21
89.000000
  0
LINE
  8
0
 62
     4
 10
57.000015
 20
109.000000
 11
70.000015
 21
109.000000
  0
LINE
  8
0
 62
     1
 10
57.000015
 20
90.000000
 11
71.000015
 21
90.000000
  0
LINE
  8
0
 62
     1
 10
57.000015
 20
108.000000
 11
71.000015
 21
108.000000
  0
LINE
  8
0
 62
     4
 10
71.000015
 20
108.000015
 11
71.000015
 21
90.000008
  0
LINE
  8
0
 62
     4
 10
69.999931
 20
108.999947
 11
70.999931
 21
107.999947
  0
LINE
  8
0
 62
     4
 10
71.000000
 20
90.000008
 11
70.000000
 21
89.000008
  0
LINE
  8
0
 62
     4
 10
70.000015
 20
89.000008
 11
70.000015
 21
109.000015
  0
LINE
  8
0
 10
-102.598053
 20
35.000000
 11
-97.401909
 21
35.000000
  0
LINE
  8
0
 10
116.000015
 20
86.000015
 11
116.000015
 21
-15.999992
  0
LINE
  8
0
 10
116.000015
 20
86.000000
 11
104.000015
 21
86.000000
  0
LINE
  8
0
  6
CENTER
 62
     2
 10
105.962784
 20
69.500000
 11
66.286224
 21
69.500000
  0
LINE
  8
0
 10
104.000015
 20
77.500000
 11
71.000015
 21
77.500000
  0
LINE
  8
0
 10
104.000015
 20
61.500000
 11
71.000015
 21
61.500000
  0
LINE
  8
0
  6
CENTER
 62
     2
 10
115.665085
 20
60.000000
 11
104.116867
 21
60.000000
  0
LINE
  8
0
  6
CENTER
 62
     2
 10
110.000015
 20
65.500572
 11
110.000015
 21
55.074219
  0
LINE
  8
0
 10
116.000015
 20
-16.000000
 11
104.000015
 21
-16.000000
  0
LINE
  8
0
  6
CENTER
 62
     2
 10
105.962784
 20
0.500000
 11
66.620819
 21
0.500000
  0
LINE
  8
0
 10
104.000015
 20
-7.500000
 11
71.000015
 21
-7.500000
  0
LINE
  8
0
 10
104.000015
 20
8.499998
 11
71.000015
 21
8.499998
  0
LINE
  8
0
  6
CENTER
 62
     2
 10
115.665085
 20
9.999998
 11
104.116867
 21
9.999998
  0
LINE
  8
0
  6
CENTER
 62
     2
 10
110.000015
 20
5.130590
 11
110.000015
 21
14.704767
  0
LINE
  8
0
 10
104.000015
 20
-15.999992
 11
104.000015
 21
86.000015
  0
LINE
  8
0
  6
CENTER
 62
     2
 10
58.000015
 20
23.000010
 11
70.000015
 21
23.000010
  0
LINE
  8
0
  6
CENTER
 62
     2
 10
58.000015
 20
47.000008
 11
70.000015
 21
47.000008
  0
LINE
  8
0
  6
CENTER
 62
     2
 10
64.000015
 20
53.000015
 11
64.000015
 21
41.000015
  0
LINE
  8
0
  6
CENTER
 62
     2
 10
64.000015
 20
29.000015
 11
64.000015
 21
17.000015
  0
LINE
  8
0
 10
71.000015
 20
-17.000000
 11
71.000015
 21
87.000008
  0
LINE
  8
0
 62
     4
 10
-23.999985
 20
87.000008
 11
-23.999985
 21
115.800018
  0
LINE
  8
0
 62
     4
 10
41.000015
 20
87.000008
 11
41.000015
 21
116.000015
  0
LINE
  8
0
 10
57.000015
 20
87.000008
 11
57.000015
 21
-17.000000
  0
LINE
  8
0
 62
     4
 10
-23.999985
 20
116.000000
 11
-39.999985
 21
116.000000
  0
LINE
  8
0
 62
     4
 10
-39.999985
 20
116.000015
 11
-39.999985
 21
87.000008
  0
LINE
  8
0
 62
     4
 10
-52.999985
 20
89.000008
 11
-52.999985
 21
109.000015
  0
LINE
  8
0
 62
     4
 10
-39.999985
 20
89.000000
 11
-52.999985
 21
89.000000
  0
LINE
  8
0
 62
     4
 10
-39.999985
 20
109.000000
 11
-52.999985
 21
109.000000
  0
LINE
  8
0
 62
     1
 10
-39.999985
 20
90.000000
 11
-53.999985
 21
90.000000
  0
LINE
  8
0
 62
     1
 10
-39.999985
 20
108.000000
 11
-53.999985
 21
108.000000
  0
LINE
  8
0
 62
     4
 10
-53.999985
 20
108.000015
 11
-53.999985
 21
90.000008
  0
LINE
  8
0
 62
     4
 10
-52.999901
 20
108.999931
 11
-53.999905
 21
107.999939
  0
LINE
  8
0
 62
     4
 10
-53.999977
 20
89.999992
 11
-52.999977
 21
88.999992
  0
LINE
  8
0
  6
PHANTOM
 62
     3
 10
8.500015
 20
-45.013565
 11
8.500015
 21
138.471802
  0
LINE
  8
0
  6
PHANTOM
 62
     3
 10
87.500015
 20
-45.013565
 11
87.500015
 21
128.471802
  0
LINE
  8
0
  6
CENTER
 62
     2
 10
-231.333420
 20
34.999992
 11
-179.666763
 21
34.999992
  0
LINE
  8
0
 10
-226.000046
 20
86.999992
 11
-185.000076
 21
86.999992
  0
LINE
  8
0
 10
-185.000076
 20
86.999992
 11
-185.000076
 21
-17.000011
  0
LINE
  8
0
 10
-226.000046
 20
86.999992
 11
-226.000046
 21
-17.000011
  0
LINE
  8
0
 10
-225.000046
 20
85.999992
 11
-189.000076
 21
85.999992
  0
LINE
  8
0
  6
CENTER
 62
     2
 10
-215.686111
 20
69.499992
 11
-197.410263
 21
69.499992
  0
LINE
  8
0
  6
CENTER
 62
     2
 10
-215.944321
 20
54.999992
 11
-199.794937
 21
54.999992
  0
LINE
  8
0
  6
CENTER
 62
     2
 10
-207.000046
 20
93.982155
 11
-207.000046
 21
-24.000008
  0
LINE
  8
0
 10
-189.000076
 20
85.999992
 11
-189.000076
 21
-16.000011
  0
LINE
  8
0
 10
-225.000046
 20
85.999992
 11
-225.000046
 21
-16.000011
  0
LINE
  8
0
 10
-204.113403
 20
69.500053
 11
-205.556793
 21
67.000038
  0
LINE
  8
0
 10
-205.556839
 20
71.999901
 11
-204.113449
 21
69.499870
  0
LINE
  8
0
 10
-208.443466
 20
71.999992
 11
-205.556686
 21
71.999992
  0
LINE
  8
0
 10
-209.886948
 20
69.500076
 11
-208.443573
 21
72.000084
  0
LINE
  8
0
 10
-208.443802
 20
66.999809
 11
-209.887161
 21
69.499786
  0
LINE
  8
0
 10
-205.556686
 20
66.999962
 11
-208.443466
 21
66.999962
  0
LINE
  8
0
 10
-183.000076
 20
44.999992
 11
-183.000076
 21
24.999992
  0
LINE
  8
0
 10
-185.000214
 20
46.999924
 11
-183.000214
 21
44.999920
  0
LINE
  8
0
 10
-226.000046
 20
-17.000011
 11
-185.000076
 21
-17.000011
  0
LINE
  8
0
 10
-225.000046
 20
-16.000011
 11
-189.000076
 21
-16.000011
  0
LINE
  8
0
  6
CENTER
 62
     2
 10
-215.826736
 20
0.499989
 11
-198.544998
 21
0.499989
  0
LINE
  8
0
  6
CENTER
 62
     2
 10
-214.431351
 20
14.999992
 11
-198.951126
 21
14.999992
  0
LINE
  8
0
 10
-204.113495
 20
0.499920
 11
-205.556870
 21
2.999935
  0
LINE
  8
0
 10
-205.556992
 20
-1.999830
 11
-204.113617
 21
0.500175
  0
LINE
  8
0
 10
-208.443466
 20
-2.000011
 11
-205.556686
 21
-2.000011
  0
LINE
  8
0
 10
-209.887039
 20
0.499900
 11
-208.443665
 21
-2.000099
  0
LINE
  8
0
 10
-208.443359
 20
2.999941
 11
-209.886765
 21
0.499917
  0
LINE
  8
0
 10
-205.556686
 20
3.000011
 11
-208.443466
 21
3.000011
  0
LINE
  8
0
 10
-184.999985
 20
22.999889
 11
-182.999985
 21
24.999893
  0
LINE
  8
0
 10
-201.515442
 20
44.499947
 11
-196.030609
 21
34.999939
  0
LINE
  8
0
 10
-212.484879
 20
44.499985
 11
-201.515213
 21
44.499985
  0
LINE
  8
0
 10
-217.969803
 20
35.000027
 11
-212.484970
 21
44.500034
  0
LINE
  8
0
 10
-212.485153
 20
25.499828
 11
-217.969986
 21
34.999840
  0
LINE
  8
0
 10
-201.515213
 20
25.499931
 11
-212.484879
 21
25.499931
  0
LINE
  8
0
 10
-196.030396
 20
34.999985
 11
-201.515228
 21
25.499977
  0
LINE
  8
0
 62
     4
 10
-226.000076
 20
115.999992
 11
-185.000076
 21
115.999992
  0
LINE
  8
0
 62
     4
 10
-226.000076
 20
86.999992
 11
-226.000076
 21
115.999992
  0
LINE
  8
0
 62
     4
 10
-185.000076
 20
115.999992
 11
-185.000076
 21
86.999992
  0
LINE
  8
0
  6
CENTER
 62
     1
 10
-218.076981
 20
98.999992
 11
-193.054214
 21
98.999992
  0
LINE
  8
0
  6
CENTER
 62
     1
 10
-205.500076
 20
110.841957
 11
-205.500076
 21
87.478523
  0
LINE
  8
0
 10
193.000031
 20
87.000046
 11
193.000031
 21
-16.999962
  0
LINE
  8
0
 10
234.000031
 20
87.000046
 11
234.000031
 21
-16.999962
  0
LINE
  8
0
  6
CENTER
 62
     2
 10
187.723663
 20
35.000042
 11
237.584991
 21
35.000042
  0
LINE
  8
0
 10
193.000031
 20
87.000046
 11
234.000031
 21
87.000046
  0
LINE
  8
0
  6
CENTER
 62
     2
 10
215.000031
 20
89.640999
 11
215.000031
 21
-20.178452
  0
LINE
  8
0
 10
191.000031
 20
45.000038
 11
191.000031
 21
25.000034
  0
LINE
  8
0
 10
191.000122
 20
44.999935
 11
193.000107
 21
46.999928
  0
LINE
  8
0
  6
CENTER
 62
     2
 10
189.424225
 20
40.500038
 11
196.379120
 21
40.500038
  0
LINE
  8
0
 10
191.000031
 20
42.250038
 11
193.000031
 21
42.250038
  0
LINE
  8
0
 10
191.000031
 20
38.750038
 11
193.000031
 21
38.750038
  0
LINE
  8
0
 10
193.000031
 20
-16.999962
 11
234.000031
 21
-16.999962
  0
LINE
  8
0
 10
190.999756
 20
24.999678
 11
192.999710
 21
22.999704
  0
LINE
  8
0
  6
CENTER
 62
     2
 10
189.524261
 20
29.500042
 11
196.379120
 21
29.500042
  0
LINE
  8
0
 10
191.000031
 20
27.750042
 11
193.000031
 21
27.750042
  0
LINE
  8
0
 10
191.000031
 20
31.250042
 11
193.000031
 21
31.250042
  0
LINE
  8
0
 62
     4
 10
193.000031
 20
116.000046
 11
234.000031
 21
116.000046
  0
LINE
  8
0
 62
     4
 10
193.000031
 20
87.000046
 11
193.000031
 21
116.000046
  0
LINE
  8
0
 62
     4
 10
234.000031
 20
116.000046
 11
234.000031
 21
87.000046
  0
LINE
  8
0
  6
CENTER
 62
     1
 10
200.923126
 20
99.000046
 11
225.945892
 21
99.000046
  0
LINE
  8
0
  6
CENTER
 62
     1
 10
213.500031
 20
110.842010
 11
213.500031
 21
87.478577
  0
LINE
  8
0
  6
CENTER
 62
     2
 10
223.686066
 20
69.500046
 11
205.410248
 21
69.500046
  0
LINE
  8
0
  6
CENTER
 62
     2
 10
223.944305
 20
55.000046
 11
207.794891
 21
55.000046
  0
LINE
  8
0
 10
212.113449
 20
69.500175
 11
213.556808
 21
67.000175
  0
LINE
  8
0
 10
213.556900
 20
71.999893
 11
212.113541
 21
69.499886
  0
LINE
  8
0
 10
216.443451
 20
72.000046
 11
213.556671
 21
72.000046
  0
LINE
  8
0
 10
217.886963
 20
69.500114
 11
216.443542
 21
72.000130
  0
LINE
  8
0
 10
216.443619
 20
66.999969
 11
217.886963
 21
69.499931
  0
LINE
  8
0
 10
213.556671
 20
67.000015
 11
216.443451
 21
67.000015
  0
LINE
  8
0
  6
CENTER
 62
     2
 10
223.826691
 20
0.500038
 11
206.544952
 21
0.500038
  0
LINE
  8
0
  6
CENTER
 62
     2
 10
222.431305
 20
15.000042
 11
206.951080
 21
15.000042
  0
LINE
  8
0
 10
212.113312
 20
0.500061
 11
213.556671
 21
3.000069
  0
LINE
  8
0
 10
213.556793
 20
-1.999950
 11
212.113373
 21
0.500056
  0
LINE
  8
0
 10
216.443451
 20
-1.999962
 11
213.556671
 21
-1.999962
  0
LINE
  8
0
 10
217.886902
 20
0.500008
 11
216.443481
 21
-1.999992
  0
LINE
  8
0
 10
216.443298
 20
2.999964
 11
217.886703
 21
0.499956
  0
LINE
  8
0
 10
213.556671
 20
3.000061
 11
216.443451
 21
3.000061
  0
LINE
  8
0
 10
233.000031
 20
-15.999962
 11
197.000031
 21
-15.999962
  0
LINE
  8
0
 10
197.000031
 20
86.000046
 11
197.000031
 21
-15.999962
  0
LINE
  8
0
 10
233.000031
 20
86.000046
 11
197.000031
 21
86.000046
  0
LINE
  8
0
 10
233.000031
 20
86.000046
 11
233.000031
 21
-15.999962
  0
LINE
  8
0
 10
-102.999947
 20
-110.000000
 11
-102.999947
 21
-73.999992
  0
LINE
  8
0
 10
-114.999947
 20
-110.000000
 11
-114.999947
 21
-73.999992
  0
LINE
  8
0
 10
57.000053
 20
-111.000000
 11
57.000053
 21
-67.999992
  0
LINE
  8
0
 10
-94.999939
 20
-69.999992
 11
-94.999939
 21
-111.000000
  0
LINE
  8
0
 10
-23.999947
 20
-67.999992
 11
-23.999947
 21
-111.000000
  0
LINE
  8
0
 10
41.000053
 20
-67.999992
 11
41.000053
 21
-111.000000
  0
LINE
  8
0
 10
-94.999939
 20
-69.999992
 11
-23.999947
 21
-69.999992
  0
LINE
  8
0
  6
CENTER
 62
     2
 10
-121.019920
 20
-91.999992
 11
121.950310
 21
-91.999992
  0
LINE
  8
0
 10
-114.999947
 20
-73.999992
 11
-102.999947
 21
-73.999992
  0
LINE
  8
0
 10
-114.999947
 20
-110.000000
 11
-102.999947
 21
-110.000000
  0
LINE
  8
0
 10
-23.999947
 20
-70.200005
 11
41.000053
 21
-70.200005
  0
LINE
  8
0
 10
41.000053
 20
-69.999992
 11
71.000053
 21
-69.999992
  0
LINE
  8
0
 10
-94.999939
 20
-111.000000
 11
-23.999947
 21
-111.000000
  0
LINE
  8
0
 10
-23.999947
 20
-110.799988
 11
41.000053
 21
-110.799988
  0
LINE
  8
0
 10
-23.999947
 20
-68.200005
 11
41.000053
 21
-68.200005
  0
LINE
  8
0
 10
-27.999947
 20
-67.999992
 11
-23.999947
 21
-67.999992
  0
LINE
  8
0
 10
-29.999876
 20
-70.000038
 11
-27.999884
 21
-68.000046
  0
LINE
  8
0
 10
41.000053
 20
-67.999992
 11
57.000053
 21
-67.999992
  0
LINE
  8
0
 10
-102.999947
 20
-100.000000
 11
-94.999939
 21
-100.000000
  0
LINE
  8
0
 10
-102.999947
 20
-83.999992
 11
-94.999939
 21
-83.999992
  0
LINE
  8
0
  6
CENTER
 62
     2
 10
-113.473206
 20
-79.999992
 11
-104.140297
 21
-79.999992
  0
LINE
  8
0
  6
CENTER
 62
     2
 10
-113.682114
 20
-104.000000
 11
-103.928169
 21
-104.000000
  0
LINE
  8
0
  6
CENTER
 62
     2
 10
-108.999947
 20
-108.812347
 11
-108.999947
 21
-99.054779
  0
LINE
  8
0
  6
CENTER
 62
     2
 10
-108.999947
 20
-85.372932
 11
-108.999947
 21
-74.763512
  0
LINE
  8
0
  6
CENTER
 62
     2
 10
-86.999939
 20
-71.246758
 11
-86.999939
 21
-81.736565
  0
LINE
  8
0
  6
CENTER
 62
     2
 10
-31.999947
 20
-69.519493
 11
-31.999947
 21
-81.736565
  0
LINE
  8
0
  6
CENTER
 62
     2
 10
-92.582771
 20
-76.499992
 11
-81.655418
 21
-76.499992
  0
LINE
  8
0
  6
CENTER
 62
     2
 10
-91.329346
 20
-104.500000
 11
-81.231178
 21
-104.500000
  0
LINE
  8
0
  6
CENTER
 62
     2
 10
-86.999939
 20
-99.297180
 11
-86.999939
 21
-109.691162
  0
LINE
  8
0
  6
CENTER
 62
     2
 10
-31.999947
 20
-99.509308
 11
-31.999947
 21
-109.479034
  0
LINE
  8
0
  6
CENTER
 62
     2
 10
-37.322029
 20
-76.499992
 11
-26.397774
 21
-76.499992
  0
LINE
  8
0
  6
CENTER
 62
     2
 10
-37.534157
 20
-104.500000
 11
-26.185661
 21
-104.500000
  0
LINE
  8
0
  6
CENTER
 62
     2
 10
49.000053
 20
-82.128105
 11
49.000053
 21
-71.494987
  0
LINE
  8
0
 10
41.000053
 20
-111.000000
 11
71.000053
 21
-111.000000
  0
LINE
  8
0
  6
CENTER
 62
     2
 10
43.712669
 20
-76.499992
 11
55.208260
 21
-76.499992
  0
LINE
  8
0
  6
CENTER
 62
     2
 10
43.712669
 20
-104.500000
 11
55.208260
 21
-104.500000
  0
LINE
  8
0
  6
CENTER
 62
     2
 10
49.000053
 20
-110.128113
 11
49.000053
 21
-99.494995
  0
LINE
  8
0
 10
71.000053
 20
-111.000000
 11
71.000053
 21
-69.999992
  0
LINE
  8
0
 10
104.000053
 20
-110.000000
 11
104.000053
 21
-73.999992
  0
LINE
  8
0
 10
116.000053
 20
-110.000000
 11
116.000053
 21
-73.999992
  0
LINE
  8
0
 10
116.000053
 20
-73.999992
 11
104.000053
 21
-73.999992
  0
LINE
  8
0
 10
116.000053
 20
-110.000000
 11
104.000053
 21
-110.000000
  0
LINE
  8
0
 10
104.000053
 20
-100.000000
 11
71.000053
 21
-100.000000
  0
LINE
  8
0
 10
104.000053
 20
-83.999992
 11
71.000053
 21
-83.999992
  0
LINE
  8
0
  6
CENTER
 62
     2
 10
114.473320
 20
-79.999992
 11
105.140404
 21
-79.999992
  0
LINE
  8
0
  6
CENTER
 62
     2
 10
114.682213
 20
-104.000000
 11
104.928276
 21
-104.000000
  0
LINE
  8
0
  6
CENTER
 62
     2
 10
110.000053
 20
-108.812347
 11
110.000053
 21
-99.054779
  0
LINE
  8
0
  6
CENTER
 62
     2
 10
110.000053
 20
-85.372932
 11
110.000053
 21
-74.763512
  0
LINE
  8
0
 10
-98.125778
 20
-102.949997
 11
-101.874115
 21
-102.949997
  0
LINE
  8
0
 10
-98.125778
 20
-81.049988
 11
-101.874115
 21
-81.049988
  0
LINE
  8
0
 10
-96.999947
 20
-83.787491
 11
-96.999947
 21
-83.999992
  0
LINE
  8
0
 10
-96.999947
 20
-100.000000
 11
-96.999947
 21
-100.212494
  0
LINE
  8
0
  6
PHANTOM
 62
     3
 10
8.500053
 20
-45.013145
 11
8.500053
 21
-119.418388
  0
LINE
  8
0
  6
PHANTOM
 62
     3
 10
87.500053
 20
-45.013145
 11
87.500053
 21
-119.418388
  0
LINE
  8
0
 10
281.674988
 20
195.250000
 11
281.674988
 21
-195.250000
  0
LINE
  8
0
 10
-281.674988
 20
195.250000
 11
-281.674988
 21
-195.250000
  0
LINE
  8
0
 10
-281.674988
 20
195.250000
 11
281.674988
 21
195.250000
  0
LINE
  8
0
 10
-281.674988
 20
-195.250000
 11
281.674988
 21
-195.250000
  0
LINE
  8
0
 10
161.674988
 20
-175.250000
 11
281.674988
 21
-175.250000
  0
LINE
  8
0
 10
-281.674988
 20
175.250000
 11
-161.674988
 21
175.250000
  0
LINE
  8
0
 10
161.674988
 20
195.250000
 11
161.674988
 21
175.250000
  0
LINE
  8
0
 10
-161.674988
 20
195.250000
 11
-161.674988
 21
175.250000
  0
LINE
  8
0
 10
161.674988
 20
175.250000
 11
281.674988
 21
175.250000
  0
LINE
  8
0
 10
161.674988
 20
-175.250000
 11
161.674988
 21
-195.250000
  0
LINE
  8
0
 10
-271.250000
 20
-145.000000
 11
-271.250000
 21
-185.000000
  0
LINE
  8
0
 10
-221.250000
 20
-169.000000
 11
-221.250000
 21
-185.000000
  0
LINE
  8
0
 10
-177.250000
 20
-145.000000
 11
-177.250000
 21
-185.000000
  0
LINE
  8
0
 10
-155.250000
 20
-145.000000
 11
-155.250000
 21
-185.000000
  0
LINE
  8
0
 10
-133.250000
 20
-145.000000
 11
-133.250000
 21
-185.000000
  0
LINE
  8
0
 10
-111.250000
 20
-145.000000
 11
-111.250000
 21
-185.000000
  0
LINE
  8
0
 10
-45.250000
 20
-145.000000
 11
-45.250000
 21
-185.000000
  0
LINE
  8
0
 10
-199.250000
 20
-145.000000
 11
-199.250000
 21
-185.000000
  0
LINE
  8
0
 10
-221.250000
 20
-168.999985
 11
-271.250000
 21
-144.999985
  0
LINE
  8
0
 10
-249.250000
 20
-153.000000
 11
-208.487595
 21
-153.000000
  0
LINE
  8
0
 10
-199.249985
 20
-168.999969
 11
-208.487595
 21
-152.999954
  0
LINE
  8
0
 10
-249.250092
 20
-153.000183
 11
-271.250092
 21
-145.000183
  0
LINE
  8
0
 10
-89.250000
 20
-145.000000
 11
-89.250000
 21
-185.000000
  0
LINE
  8
0
 10
-67.250000
 20
-145.000000
 11
-67.250000
 21
-185.000000
  0
LINE
  8
0
 10
-271.250000
 20
-169.000000
 11
-1.250000
 21
-169.000000
  0
LINE
  8
0
 10
-271.250000
 20
-145.000000
 11
-1.250000
 21
-145.000000
  0
LINE
  8
0
 10
-221.250000
 20
-177.000000
 11
-1.250000
 21
-177.000000
  0
LINE
  8
0
 10
-271.250000
 20
-185.000000
 11
-1.250000
 21
-185.000000
  0
LINE
  8
0
 10
-1.250000
 20
-145.000000
 11
-1.250000
 21
-185.000000
  0
LINE
  8
0
 10
-23.250000
 20
-145.000000
 11
-23.250000
 21
-185.000000
  0
CIRCLE
  8
0
 10
110.000015
 20
60.000000
 40
2.500000
  0
CIRCLE
  8
0
 10
110.000015
 20
9.999998
 40
2.500000
  0
CIRCLE
  8
0
 10
-39.499985
 20
20.500004
 40
5.500000
  0
CIRCLE
  8
0
 10
-108.999985
 20
9.999998
 40
2.500000
  0
CIRCLE
  8
0
 10
-39.499985
 20
20.500004
 40
3.300000
  0
CIRCLE
  8
0
 10
-108.999985
 20
60.000000
 40
2.500000
  0
ARC
  8
0
 10
22.250015
 20
35.000008
 40
1.250000
 50
270.000000
 51
0.000000
  0
CIRCLE
  8
0
 10
-87.499977
 20
20.500004
 40
5.500000
  0
ARC
  8
0
 10
19.750015
 20
35.000008
 40
1.250000
 50
180.000000
 51
270.000000
  0
ARC
  8
0
 10
54.250015
 20
29.500008
 40
1.750000
 50
89.999878
 51
270.000000
  0
CIRCLE
  8
0
 10
64.000015
 20
47.000015
 40
4.280000
  0
CIRCLE
  8
0
 62
     2
 10
110.000015
 20
10.000006
 40
3.000000
  0
CIRCLE
  8
0
 10
64.000015
 20
23.000015
 40
4.280000
  0
CIRCLE
  8
0
 62
     2
 10
64.000015
 20
23.000015
 40
4.850000
  0
CIRCLE
  8
0
 62
     2
 10
64.000015
 20
47.000015
 40
4.850000
  0
CIRCLE
  8
0
 62
     2
 10
110.000015
 20
60.000008
 40
3.000000
  0
ARC
  8
0
 10
21.000015
 20
33.750008
 40
0.500000
 50
0.000000
 51
180.000000
  0
ARC
  8
0
 10
-125.269058
 20
39.750000
 40
28.269073
 50
350.326813
 51
9.673183
  0
ARC
  8
0
 10
-74.730904
 20
39.750000
 40
28.269068
 50
170.326782
 51
189.673157
  0
CIRCLE
  8
0
 62
     2
 10
-108.999985
 20
60.000000
 40
3.000000
  0
CIRCLE
  8
0
 10
-87.499977
 20
49.500000
 40
3.300000
  0
CIRCLE
  8
0
 10
-39.499985
 20
49.500008
 40
3.300000
  0
CIRCLE
  8
0
 10
-39.499985
 20
49.500008
 40
5.500000
  0
CIRCLE
  8
0
 10
-87.499977
 20
49.500000
 40
5.500000
  0
ARC
  8
0
 10
54.250015
 20
40.500008
 40
1.750000
 50
90.000000
 51
270.000000
  0
ARC
  8
0
 10
22.250015
 20
35.000008
 40
1.250000
 50
0.000000
 51
90.000000
  0
ARC
  8
0
 10
19.750015
 20
35.000008
 40
1.250000
 50
90.000000
 51
180.000000
  0
ARC
  8
0
 10
21.000015
 20
36.250008
 40
0.500000
 50
180.000000
 51
0.000000
  0
ARC
  8
0
 10
-125.269058
 20
30.250002
 40
28.269070
 50
350.326752
 51
9.673134
  0
ARC
  8
0
 10
-74.730904
 20
30.250004
 40
28.269068
 50
170.326782
 51
189.673157
  0
CIRCLE
  8
0
 62
     2
 10
-108.999985
 20
9.999998
 40
3.000000
  0
CIRCLE
  8
0
 10
-87.499977
 20
20.500004
 40
3.300000
  0
CIRCLE
  8
0
 10
-207.000046
 20
54.999992
 40
3.375000
  0
CIRCLE
  8
0
 10
-207.000046
 20
14.999992
 40
3.375000
  0
CIRCLE
  8
0
 62
     2
 10
-207.000046
 20
34.999992
 40
4.250000
  0
CIRCLE
  8
0
 10
-207.000046
 20
34.999992
 40
5.000000
  0
CIRCLE
  8
0
 62
     4
 10
-205.500076
 20
98.999992
 40
10.000000
  0
CIRCLE
  8
0
 62
     2
 10
-207.000046
 20
14.999992
 40
4.000000
  0
CIRCLE
  8
0
 62
     1
 10
-205.500076
 20
98.999992
 40
9.000000
  0
CIRCLE
  8
0
 10
-207.000046
 20
0.499989
 40
5.500000
  0
CIRCLE
  8
0
 10
-207.000046
 20
0.499989
 40
5.000000
  0
CIRCLE
  8
0
 10
-207.000046
 20
34.999992
 40
14.000000
  0
CIRCLE
  8
0
 62
     2
 10
-207.000046
 20
54.999992
 40
4.000000
  0
CIRCLE
  8
0
 10
-207.000046
 20
69.499992
 40
5.500000
  0
CIRCLE
  8
0
 10
-207.000046
 20
69.499992
 40
5.000000
  0
CIRCLE
  8
0
 10
215.000031
 20
55.000046
 40
3.375000
  0
CIRCLE
  8
0
 10
215.000031
 20
15.000042
 40
3.375000
  0
CIRCLE
  8
0
 10
215.000031
 20
0.500038
 40
5.500000
  0
ARC
  8
0
 10
193.650024
 20
40.500038
 40
1.749999
 50
111.803543
 51
248.196457
  0
CIRCLE
  8
0
 62
     1
 10
213.500031
 20
99.000046
 40
9.000000
  0
ARC
  8
0
 10
193.650024
 20
29.500042
 40
1.749999
 50
111.803543
 51
248.196457
  0
CIRCLE
  8
0
 62
     4
 10
213.500031
 20
99.000046
 40
10.000000
  0
CIRCLE
  8
0
 10
215.000031
 20
69.500046
 40
5.500000
  0
CIRCLE
  8
0
 62
     2
 10
215.000031
 20
55.000046
 40
4.000000
  0
CIRCLE
  8
0
 10
215.000031
 20
69.500046
 40
5.000000
  0
CIRCLE
  8
0
 62
     2
 10
215.000031
 20
15.000042
 40
4.000000
  0
CIRCLE
  8
0
 10
215.000031
 20
0.500038
 40
5.000000
  0
CIRCLE
  8
0
 10
-108.999947
 20
-104.000000
 40
2.500000
  0
CIRCLE
  8
0
 10
49.000053
 20
-104.500000
 40
2.500000
  0
CIRCLE
  8
0
 10
-108.999947
 20
-79.999992
 40
2.500000
  0
CIRCLE
  8
0
 10
-86.999939
 20
-104.500000
 40
2.500000
  0
CIRCLE
  8
0
 10
-31.999947
 20
-76.499992
 40
2.500000
  0
CIRCLE
  8
0
 10
-86.999939
 20
-76.499992
 40
2.500000
  0
CIRCLE
  8
0
 10
-31.999947
 20
-104.500000
 40
2.500000
  0
ARC
  8
0
 10
-99.108871
 20
-83.787491
 40
3.891073
 50
135.288757
 51
183.130630
  0
ARC
  8
0
 10
-99.108871
 20
-100.212494
 40
3.891076
 50
176.869370
 51
224.711090
  0
ARC
  8
0
 10
-100.891022
 20
-100.212494
 40
3.891079
 50
315.288849
 51
3.130625
  0
ARC
  8
0
 10
-100.891022
 20
-83.787491
 40
3.891076
 50
356.869385
 51
44.711163
  0
CIRCLE
  8
0
 62
     2
 10
110.000053
 20
-104.000000
 40
3.000000
  0
CIRCLE
  8
0
 62
     2
 10
110.000053
 20
-79.999992
 40
3.000000
  0
CIRCLE
  8
0
 62
     2
 10
49.000053
 20
-104.500000
 40
3.000000
  0
CIRCLE
  8
0
 62
     2
 10
49.000053
 20
-76.499992
 40
3.000000
  0
CIRCLE
  8
0
 62
     2
 10
-108.999947
 20
-79.999992
 40
3.000000
  0
CIRCLE
  8
0
 62
     2
 10
-108.999947
 20
-104.000000
 40
3.000000
  0
CIRCLE
  8
0
 62
     2
 10
-86.999939
 20
-76.499992
 40
3.000000
  0
CIRCLE
  8
0
 62
     2
 10
-31.999947
 20
-76.499992
 40
3.000000
  0
CIRCLE
  8
0
 62
     2
 10
-86.999939
 20
-104.500000
 40
3.000000
  0
CIRCLE
  8
0
 62
     2
 10
-31.999947
 20
-104.500000
 40
3.000000
  0
CIRCLE
  8
0
 10
110.000053
 20
-79.999992
 40
2.500000
  0
CIRCLE
  8
0
 10
110.000053
 20
-104.000000
 40
2.500000
  0
CIRCLE
  8
0
 10
49.000053
 20
-76.499992
 40
2.500000
  0
TEXT
  8
0
 10
196.250259
 20
180.830002
 40
6.300000
  1
Ver. 2.0
 50
0.000000
 41
1.052632
 51
0.000000
  7
STANDARD
  0
TEXT
  8
0
 10
167.564667
 20
-192.100006
 40
9.000000
  1
KOGANEI CORP.
 50
0.000000
 41
1.052632
 51
0.000000
  7
STANDARD
  0
TEXT
  8
0
 10
-262.849731
 20
180.830002
 40
6.300000
  1
AXIS CYLINDER
 50
0.000000
 41
1.052632
 51
0.000000
  7
STANDARD
  0
TEXT
  8
0
 10
-270.049988
 20
155.830002
 40
6.300000
  1
MODEL:XDADQ32*ST(25)-SSL
 50
0.000000
 41
1.052632
 51
0.000000
  7
STANDARD
  0
TEXT
  8
0
 62
     3
 10
67.211090
 20
128.795975
 40
6.300000
  1
STRETCH LINE B
 50
0.000000
 41
1.052632
 51
0.000000
  7
STANDARD
  0
TEXT
  8
0
 10
-21.642857
 20
-144.050003
 40
4.500000
  1
(mm)
 50
0.000000
 41
1.052632
 51
0.000000
  7
STANDARD
  0
TEXT
  8
0
 10
-193.142853
 20
-160.050003
 40
4.500000
  1
25
 50
0.000000
 41
1.052632
 51
0.000000
  7
STANDARD
  0
TEXT
  8
0
 10
-171.142853
 20
-160.050003
 40
4.500000
  1
50
 50
0.000000
 41
1.052632
 51
0.000000
  7
STANDARD
  0
TEXT
  8
0
 10
-149.142853
 20
-160.050003
 40
4.500000
  1
75
 50
0.000000
 41
1.052632
 51
0.000000
  7
STANDARD
  0
TEXT
  8
0
 10
-129.392853
 20
-160.050003
 40
4.500000
  1
100
 50
0.000000
 41
1.052632
 51
0.000000
  7
STANDARD
  0
TEXT
  8
0
 10
-107.392853
 20
-160.050003
 40
4.500000
  1
125
 50
0.000000
 41
1.052632
 51
0.000000
  7
STANDARD
  0
TEXT
  8
0
 10
-242.761658
 20
-152.050003
 40
4.500000
  1
STROKE
 50
0.000000
 41
1.052632
 51
0.000000
  7
STANDARD
  0
TEXT
  8
0
 10
-265.408447
 20
-168.050003
 40
4.500000
  1
TYPE
 50
0.000000
 41
1.052632
 51
0.000000
  7
STANDARD
  0
TEXT
  8
0
 10
-163.642853
 20
-143.050003
 40
4.500000
  1
STRETCH LIST
 50
0.000000
 41
1.052632
 51
0.000000
  7
STANDARD
  0
TEXT
  8
0
 10
-264.000000
 20
-178.699997
 40
4.500000
  1
XDADQ32
 50
0.000000
 41
1.052632
 51
0.000000
  7
STANDARD
  0
TEXT
  8
0
 10
-190.892853
 20
-176.050003
 40
4.500000
  1
0
 50
0.000000
 41
1.052632
 51
0.000000
  7
STANDARD
  0
TEXT
  8
0
 10
-171.142853
 20
-176.050003
 40
4.500000
  1
25
 50
0.000000
 41
1.052632
 51
0.000000
  7
STANDARD
  0
TEXT
  8
0
 10
-149.142853
 20
-176.050003
 40
4.500000
  1
50
 50
0.000000
 41
1.052632
 51
0.000000
  7
STANDARD
  0
TEXT
  8
0
 10
-127.142853
 20
-176.050003
 40
4.500000
  1
75
 50
0.000000
 41
1.052632
 51
0.000000
  7
STANDARD
  0
TEXT
  8
0
 10
-19.392857
 20
-176.050003
 40
4.500000
  1
200
 50
0.000000
 41
1.052632
 51
0.000000
  7
STANDARD
  0
TEXT
  8
0
 10
-190.892853
 20
-184.050003
 40
4.500000
  1
0
 50
0.000000
 41
1.052632
 51
0.000000
  7
STANDARD
  0
TEXT
  8
0
 10
-171.142853
 20
-184.050003
 40
4.500000
  1
25
 50
0.000000
 41
1.052632
 51
0.000000
  7
STANDARD
  0
TEXT
  8
0
 10
-149.142853
 20
-184.050003
 40
4.500000
  1
50
 50
0.000000
 41
1.052632
 51
0.000000
  7
STANDARD
  0
TEXT
  8
0
 10
-127.142853
 20
-184.050003
 40
4.500000
  1
75
 50
0.000000
 41
1.052632
 51
0.000000
  7
STANDARD
  0
TEXT
  8
0
 10
-19.392857
 20
-184.050003
 40
4.500000
  1
200
 50
0.000000
 41
1.052632
 51
0.000000
  7
STANDARD
  0
TEXT
  8
0
 10
-212.892654
 20
-176.050003
 40
4.500000
  1
A
 50
0.000000
 41
1.052632
 51
0.000000
  7
STANDARD
  0
TEXT
  8
0
 10
-212.892654
 20
-184.050003
 40
4.500000
  1
B
 50
0.000000
 41
1.052632
 51
0.000000
  7
STANDARD
  0
TEXT
  8
0
 10
-241.877258
 20
-157.324997
 40
4.500000
  1
STRETCH
 50
0.000000
 41
1.052632
 51
0.000000
  7
STANDARD
  0
TEXT
  8
0
 10
-241.877258
 20
-164.074997
 40
4.500000
  1
   PLACE
 50
0.000000
 41
1.052632
 51
0.000000
  7
STANDARD
  0
TEXT
  8
0
 10
-19.392656
 20
-160.050003
 40
4.500000
  1
225
 50
0.000000
 41
1.052632
 51
0.000000
  7
STANDARD
  0
TEXT
  8
0
 10
-107.392853
 20
-176.050003
 40
4.500000
  1
100
 50
0.000000
 41
1.052632
 51
0.000000
  7
STANDARD
  0
TEXT
  8
0
 10
-107.392853
 20
-184.050003
 40
4.500000
  1
100
 50
0.000000
 41
1.052632
 51
0.000000
  7
STANDARD
  0
TEXT
  8
0
 10
-85.392853
 20
-176.050003
 40
4.500000
  1
125
 50
0.000000
 41
1.052632
 51
0.000000
  7
STANDARD
  0
TEXT
  8
0
 10
-85.392853
 20
-184.050003
 40
4.500000
  1
125
 50
0.000000
 41
1.052632
 51
0.000000
  7
STANDARD
  0
TEXT
  8
0
 10
-85.392654
 20
-160.050003
 40
4.500000
  1
150
 50
0.000000
 41
1.052632
 51
0.000000
  7
STANDARD
  0
TEXT
  8
0
 10
-63.392658
 20
-160.050003
 40
4.500000
  1
175
 50
0.000000
 41
1.052632
 51
0.000000
  7
STANDARD
  0
TEXT
  8
0
 10
-63.392857
 20
-184.050003
 40
4.500000
  1
150
 50
0.000000
 41
1.052632
 51
0.000000
  7
STANDARD
  0
TEXT
  8
0
 10
-63.392857
 20
-176.050003
 40
4.500000
  1
150
 50
0.000000
 41
1.052632
 51
0.000000
  7
STANDARD
  0
TEXT
  8
0
 10
-41.392658
 20
-160.050003
 40
4.500000
  1
200
 50
0.000000
 41
1.052632
 51
0.000000
  7
STANDARD
  0
TEXT
  8
0
 10
-41.392857
 20
-184.050003
 40
4.500000
  1
150
 50
0.000000
 41
1.052632
 51
0.000000
  7
STANDARD
  0
TEXT
  8
0
 10
-41.392857
 20
-176.050003
 40
4.500000
  1
150
 50
0.000000
 41
1.052632
 51
0.000000
  7
STANDARD
  0
TEXT
  8
0
 62
     3
 10
-36.788914
 20
138.795975
 40
6.300000
  1
STRETCH LINE A
 50
0.000000
 41
1.052632
 51
0.000000
  7
STANDARD
  0
ENDSEC
  0
EOF
