  0
SECTION
  2
HEADER
  0
ENDSEC
  0
SECTION
  2
TABLES
  0
TABLE
  2
LTYPE
 70
     4
  0
LTYPE
  2
CONTINUOUS
 70
    64
  3
Solid line
 72
    65
 73
     0
 40
0.000000
  0
LTYPE
  2
DASHED
 70
    64
  3
__ __ __ __ __ __ __ __ __ __ __ __ __ __ __
 72
    65
 73
     2
 40
3.500000
 49
2.000000
 49
-1.500000
  0
LTYPE
  2
CENTER
 70
    64
  3
____ _ ____ _ ____ _ ____ _ ____ _ ____ _ ____
 72
    65
 73
     4
 40
17.500000
 49
13.000000
 49
-1.500000
 49
1.500000
 49
-1.500000
  0
LTYPE
  2
PHANTOM
 70
    64
  3
_____ _ _ _____ _ _ _____ _ _ _____ _ _ ____  
 72
    65
 73
     6
 40
15.500000
 49
8.000000
 49
-1.500000
 49
1.500000
 49
-1.500000
 49
1.500000
 49
-1.500000
  0
LTYPE
  2
DASHED1
 70
    64
  3
__ __ __ __ __ __ __ __ __ __ __ __ __ __ __
 72
    65
 73
     2
 40
1.500000
 49
1.000000
 49
-0.500000
  0
LTYPE
  2
DASHED2
 70
    64
  3
__ __ __ __ __ __ __ __ __ __ __ __ __ __ __
 72
    65
 73
     2
 40
3.500000
 49
2.500000
 49
-1.000000
  0
LTYPE
  2
DASHED3
 70
    64
  3
__ __ __ __ __ __ __ __ __ __ __ __ __ __ __
 72
    65
 73
     2
 40
6.000000
 49
4.000000
 49
-2.000000
  0
LTYPE
  2
DASHED4
 70
    64
  3
__ __ __ __ __ __ __ __ __ __ __ __ __ __ __
 72
    65
 73
     2
 40
12.000000
 49
10.000000
 49
-2.000000
  0
LTYPE
  2
DASHED5
 70
    64
  3
__ __ __ __ __ __ __ __ __ __ __ __ __ __ __
 72
    65
 73
     2
 40
17.000000
 49
15.000000
 49
-2.000000
  0
LTYPE
  2
DASHED6
 70
    64
  3
__ __ __ __ __ __ __ __ __ __ __ __ __ __ __
 72
    65
 73
     2
 40
29.000000
 49
27.000000
 49
-2.000000
  0
LTYPE
  2
PHANTOM1
 70
    64
  3
_____ _ _ _____ _ _ _____ _ _ _____ _ _ ____  
 72
    65
 73
     6
 40
31.000000
 49
25.000000
 49
-1.500000
 49
1.000000
 49
-1.000000
 49
1.000000
 49
-1.500000
  0
LTYPE
  2
PHANTOM2
 70
    64
  3
_____ _ _ _____ _ _ _____ _ _ _____ _ _ ____  
 72
    65
 73
     6
 40
36.000000
 49
27.000000
 49
-1.500000
 49
2.500000
 49
-1.000000
 49
2.500000
 49
-1.500000
  0
LTYPE
  2
PHANTOM3
 70
    64
  3
_____ _ _ _____ _ _ _____ _ _ _____ _ _ ____  
 72
    65
 73
     6
 40
78.000000
 49
64.000000
 49
-2.000000
 49
4.000000
 49
-2.000000
 49
4.000000
 49
-2.000000
  0
LTYPE
  2
CENTER1
 70
    64
  3
____ _ ____ _ ____ _ ____ _ ____ _ ____ _ ____
 72
    65
 73
     4
 40
19.000000
 49
14.000000
 49
-1.000000
 49
3.000000
 49
-1.000000
  0
LTYPE
  2
CENTER2
 70
    64
  3
____ _ ____ _ ____ _ ____ _ ____ _ ____ _ ____
 72
    65
 73
     4
 40
28.500000
 49
25.000000
 49
-1.000000
 49
1.500000
 49
-1.000000
  0
LTYPE
  2
CENTER3
 70
    64
  3
____ _ ____ _ ____ _ ____ _ ____ _ ____ _ ____
 72
    65
 73
     4
 40
31.500000
 49
27.000000
 49
-1.000000
 49
2.500000
 49
-1.000000
  0
LTYPE
  2
CENTER4
 70
    64
  3
____ _ ____ _ ____ _ ____ _ ____ _ ____ _ ____
 72
    65
 73
     4
 40
50.000000
 49
45.000000
 49
-1.000000
 49
3.000000
 49
-1.000000
  0
LTYPE
  2
CENTER5
 70
    64
  3
____ _ ____ _ ____ _ ____ _ ____ _ ____ _ ____
 72
    65
 73
     4
 40
100.000000
 49
92.000000
 49
-2.000000
 49
4.000000
 49
-2.000000
  0
LTYPE
  2
SBK1
 70
    64
  3
______ _ _ _ ______ _ _ _ ______ _ _ _ _____  
 72
    65
 73
     8
 40
60.500000
 49
45.000000
 49
-2.000000
 49
2.500000
 49
-2.000000
 49
2.500000
 49
-2.000000
 49
2.500000
 49
-2.000000
  0
LTYPE
  2
SBK2
 70
    64
  3
______ _ _ _ ______ _ _ _ ______ _ _ _ _____  
 72
    65
 73
     8
 40
84.000000
 49
64.000000
 49
-2.000000
 49
4.000000
 49
-2.000000
 49
4.000000
 49
-2.000000
 49
4.000000
 49
-2.000000
  0
LTYPE
  2
STCH
 70
    64
  3
__ __ __ __ __ __ __ __ __ __ __ __ __ __ __
 72
    65
 73
     2
 40
3.000000
 49
1.000000
 49
-2.000000
  0
LTYPE
  2
MTCH
 70
    64
  3
_____ _ _ _____ _ _ _____ _ _ _____ _ _ ____  
 72
    65
 73
     6
 40
80.000000
 49
66.000000
 49
-2.000000
 49
4.000000
 49
-2.000000
 49
4.000000
 49
-2.000000
  0
ENDTAB
  0
TABLE
  2
LAYER
 70
     1
  0
LAYER
  2
0
 70
     0
 62
     7
  6
CONTINUOUS
  0
ENDTAB
  0
TABLE
  2
STYLE
 70
     1
  0
STYLE
  2
STANDARD
 70
     0
 40
0.000000
 41
1.000000
 50
0.000000
 71
     0
 42
0.200000
  3
txt
  4
BIGFONT
  0
ENDTAB
  0
TABLE
  2
VIEW
 70
     0
  0
ENDTAB
  0
ENDSEC
  0
SECTION
  2
BLOCKS
  0
ENDSEC
  0
SECTION
  2
ENTITIES
  0
LINE
  8
0
  6
CENTER
 62
     2
 10
-71.873642
 20
30.000004
 11
64.039101
 21
30.000004
  0
LINE
  8
0
 10
-55.999992
 20
62.000004
 11
-9.999992
 21
62.000004
  0
LINE
  8
0
 10
-69.999992
 20
61.000004
 11
-61.999992
 21
61.000004
  0
LINE
  8
0
 10
-69.999992
 20
-0.999996
 11
-61.999992
 21
-0.999996
  0
LINE
  8
0
 10
-55.999992
 20
-1.999996
 11
-9.999992
 21
-1.999996
  0
LINE
  8
0
 10
-61.999992
 20
61.000004
 11
-61.999992
 21
-0.999996
  0
LINE
  8
0
 10
-69.999992
 20
61.000004
 11
-69.999992
 21
-0.999996
  0
LINE
  8
0
 10
-55.999992
 20
61.996494
 11
-55.999992
 21
-1.999996
  0
LINE
  8
0
  6
CENTER
 62
     2
 10
-65.999992
 20
49.428448
 11
-65.999992
 21
42.373032
  0
LINE
  8
0
  6
CENTER
 62
     2
 10
-69.127258
 20
46.000004
 11
-62.667385
 21
46.000004
  0
LINE
  8
0
  6
CENTER
 62
     2
 10
-65.999992
 20
17.696095
 11
-65.999992
 21
10.167538
  0
LINE
  8
0
  6
CENTER
 62
     2
 10
-68.544495
 20
14.000005
 11
-62.876514
 21
14.000005
  0
LINE
  8
0
 10
-61.999992
 20
47.500004
 11
-55.999992
 21
47.500004
  0
LINE
  8
0
 10
-61.999992
 20
55.500004
 11
-55.999992
 21
55.500004
  0
LINE
  8
0
 10
-61.999992
 20
4.500004
 11
-55.999992
 21
4.500004
  0
LINE
  8
0
 10
-61.999992
 20
12.500004
 11
-55.999992
 21
12.500004
  0
LINE
  8
0
  6
CENTER
 62
     2
 10
-63.338760
 20
51.500004
 11
-53.598991
 21
51.500004
  0
LINE
  8
0
  6
CENTER
 62
     2
 10
-63.338760
 20
8.500004
 11
-53.598991
 21
8.500004
  0
LINE
  8
0
  6
CENTER
 62
     2
 10
-20.499992
 20
44.028305
 11
-20.499992
 21
34.458500
  0
LINE
  8
0
  6
CENTER
 62
     2
 10
-50.499992
 20
45.509930
 11
-50.499992
 21
33.798840
  0
LINE
  8
0
  6
CENTER
 62
     2
 10
-55.224659
 20
39.500004
 11
-45.475975
 21
39.500004
  0
LINE
  8
0
  6
CENTER
 62
     2
 10
-55.277645
 20
20.500004
 11
-44.287888
 21
20.500004
  0
LINE
  8
0
  6
CENTER
 62
     2
 10
-50.499992
 20
25.852032
 11
-50.499992
 21
14.977448
  0
LINE
  8
0
  6
CENTER
 62
     2
 10
-20.499992
 20
25.852032
 11
-20.499992
 21
15.186577
  0
LINE
  8
0
 10
-15.999992
 20
42.000004
 11
-15.999992
 21
18.000004
  0
LINE
  8
0
 10
-15.999992
 20
18.000004
 11
62.000008
 21
18.000004
  0
LINE
  8
0
 10
-15.999992
 20
42.000004
 11
62.000008
 21
42.000004
  0
LINE
  8
0
 10
-13.999992
 20
40.000004
 11
62.000008
 21
40.000004
  0
LINE
  8
0
 10
-13.999992
 20
20.000004
 11
62.000008
 21
20.000004
  0
LINE
  8
0
 10
-13.999992
 20
40.000004
 11
-13.999992
 21
20.000004
  0
LINE
  8
0
 10
-15.999998
 20
42.000000
 11
-13.999999
 21
40.000000
  0
LINE
  8
0
 10
-15.999999
 20
18.000002
 11
-13.999997
 21
20.000004
  0
LINE
  8
0
 10
51.000008
 20
62.000004
 11
62.000008
 21
62.000004
  0
LINE
  8
0
 10
51.000008
 20
-1.999996
 11
62.000008
 21
-1.999996
  0
LINE
  8
0
 10
-9.999992
 20
-1.799995
 11
51.000008
 21
-1.799995
  0
LINE
  8
0
 10
-9.999992
 20
61.800007
 11
51.000008
 21
61.800007
  0
LINE
  8
0
 10
-9.999992
 20
28.500004
 11
51.000008
 21
28.500004
  0
LINE
  8
0
 10
-9.999992
 20
31.500004
 11
51.000008
 21
31.500004
  0
LINE
  8
0
 10
-9.999992
 20
33.375004
 11
51.000008
 21
33.375004
  0
LINE
  8
0
 10
-9.999992
 20
26.625004
 11
51.000008
 21
26.625004
  0
LINE
  8
0
 10
-9.999992
 20
22.375004
 11
51.000008
 21
22.375004
  0
LINE
  8
0
 10
-9.999992
 20
37.625004
 11
51.000008
 21
37.625004
  0
LINE
  8
0
 10
31.250008
 20
31.250004
 11
32.000008
 21
31.250004
  0
LINE
  8
0
 10
33.000008
 20
31.250004
 11
33.750008
 21
31.250004
  0
LINE
  8
0
 10
31.250008
 20
28.750004
 11
32.000008
 21
28.750004
  0
LINE
  8
0
 10
33.000008
 20
28.750004
 11
33.750008
 21
28.750004
  0
LINE
  8
0
 10
-57.999992
 20
36.000004
 11
-57.999992
 21
24.000004
  0
LINE
  8
0
 10
-59.464092
 20
30.000004
 11
-58.535896
 21
30.000004
  0
LINE
  8
0
 10
59.250008
 20
37.250004
 11
62.000008
 21
37.250004
  0
LINE
  8
0
 10
59.250008
 20
33.750004
 11
62.000008
 21
33.750004
  0
LINE
  8
0
 10
59.250008
 20
26.250004
 11
62.000008
 21
26.250004
  0
LINE
  8
0
 10
59.250008
 20
22.750004
 11
62.000008
 21
22.750004
  0
LINE
  8
0
 10
-61.999992
 20
36.000004
 11
-57.999992
 21
36.000004
  0
LINE
  8
0
 10
-61.999992
 20
24.000004
 11
-57.999992
 21
24.000004
  0
LINE
  8
0
 10
-61.464092
 20
30.000004
 11
-58.535896
 21
30.000004
  0
LINE
  8
0
 10
-57.999992
 20
27.500004
 11
-55.999992
 21
27.500004
  0
LINE
  8
0
 10
-57.999992
 20
32.500000
 11
-55.999992
 21
32.500000
  0
LINE
  8
0
  6
CENTER
 62
     2
 10
56.350761
 20
35.500004
 11
64.867104
 21
35.500004
  0
LINE
  8
0
  6
CENTER
 62
     2
 10
55.998131
 20
24.500004
 11
64.867104
 21
24.500004
  0
LINE
  8
0
 62
     4
 10
-9.999992
 20
80.800003
 11
51.000008
 21
80.800003
  0
LINE
  8
0
 62
     4
 10
51.000008
 20
81.000000
 11
62.000008
 21
81.000000
  0
LINE
  8
0
 10
-9.999992
 20
-1.999996
 11
-9.999992
 21
62.000004
  0
LINE
  8
0
 62
     4
 10
51.000008
 20
81.000000
 11
51.000008
 21
62.000004
  0
LINE
  8
0
 62
     4
 10
62.000008
 20
81.000000
 11
62.000008
 21
62.000004
  0
LINE
  8
0
  6
CENTER
 62
     1
 10
-30.099045
 20
69.500000
 11
68.011330
 21
69.500000
  0
LINE
  8
0
 62
     1
 10
62.000008
 20
64.500000
 11
63.000008
 21
64.500000
  0
LINE
  8
0
 62
     1
 10
62.000008
 20
74.500000
 11
63.000008
 21
74.500000
  0
LINE
  8
0
 62
     4
 10
63.000008
 20
74.500000
 11
63.000008
 21
64.500000
  0
LINE
  8
0
 62
     4
 10
61.999935
 20
75.499969
 11
62.999935
 21
74.499962
  0
LINE
  8
0
 62
     4
 10
63.000004
 20
64.500023
 11
62.000000
 21
63.500019
  0
LINE
  8
0
 62
     2
 10
-57.999985
 20
32.100033
 11
-57.307171
 21
32.500027
  0
LINE
  8
0
 62
     2
 10
-57.999985
 20
27.900000
 11
-57.307171
 21
27.500004
  0
LINE
  8
0
  6
CENTER
 62
     2
 10
-26.301182
 20
39.500004
 11
-15.974220
 21
39.500004
  0
LINE
  8
0
  6
CENTER
 62
     2
 10
-26.301182
 20
20.500004
 11
-15.806290
 21
20.500004
  0
LINE
  8
0
  6
CENTER
 62
     2
 10
59.250008
 20
38.959274
 11
59.250008
 21
21.203651
  0
LINE
  8
0
 62
     4
 10
-9.999992
 20
62.000004
 11
-9.999992
 21
80.800003
  0
LINE
  8
0
 10
51.000008
 20
62.000004
 11
51.000008
 21
-1.999996
  0
LINE
  8
0
 10
62.000008
 20
62.000004
 11
62.000008
 21
-1.999996
  0
LINE
  8
0
 62
     4
 10
-9.999992
 20
81.000000
 11
-20.999992
 21
81.000000
  0
LINE
  8
0
 62
     4
 10
-20.999992
 20
81.000000
 11
-20.999992
 21
62.000004
  0
LINE
  8
0
 62
     4
 10
-21.999973
 20
64.500015
 11
-20.999969
 21
63.500011
  0
LINE
  8
0
 62
     1
 10
-20.999992
 20
64.500000
 11
-21.999992
 21
64.500000
  0
LINE
  8
0
 62
     1
 10
-20.999992
 20
74.500000
 11
-21.999992
 21
74.500000
  0
LINE
  8
0
 62
     4
 10
-21.999992
 20
74.500000
 11
-21.999992
 21
64.500000
  0
LINE
  8
0
 62
     4
 10
-20.999960
 20
75.499985
 11
-21.999960
 21
74.499977
  0
LINE
  8
0
  6
PHANTOM
 62
     3
 10
20.500008
 20
-34.676464
 11
20.500008
 21
96.053421
  0
LINE
  8
0
  6
CENTER
 62
     2
 10
-179.054794
 20
30.000008
 11
-147.645798
 21
30.000008
  0
LINE
  8
0
 10
-176.999985
 20
-1.999992
 11
-151.999985
 21
-1.999992
  0
LINE
  8
0
 10
-176.999985
 20
62.000008
 11
-151.999985
 21
62.000008
  0
LINE
  8
0
 10
-176.999985
 20
62.000008
 11
-176.999985
 21
-1.999989
  0
LINE
  8
0
  6
CENTER
 62
     2
 10
-165.999985
 20
62.000008
 11
-165.999985
 21
-5.075603
  0
LINE
  8
0
 10
-155.999985
 20
61.000011
 11
-155.999985
 21
-0.999989
  0
LINE
  8
0
 10
-175.999985
 20
61.000011
 11
-175.999985
 21
-0.999989
  0
LINE
  8
0
 10
-175.999985
 20
-0.999992
 11
-155.999985
 21
-0.999992
  0
LINE
  8
0
 10
-175.999985
 20
61.000008
 11
-155.999985
 21
61.000008
  0
LINE
  8
0
 10
-151.999985
 20
62.000008
 11
-151.999985
 21
-1.999989
  0
LINE
  8
0
 10
-162.524948
 20
36.018917
 11
-159.049957
 21
30.000038
  0
LINE
  8
0
 10
-159.050034
 20
30.000046
 11
-162.525040
 21
23.981165
  0
LINE
  8
0
 10
-162.525009
 20
23.981045
 11
-169.474991
 21
23.981045
  0
LINE
  8
0
 10
-169.475006
 20
23.981131
 11
-172.949997
 21
30.000008
  0
LINE
  8
0
 10
-172.950043
 20
30.000021
 11
-169.475052
 21
36.018894
  0
LINE
  8
0
 10
-169.474991
 20
36.018887
 11
-162.524979
 21
36.018887
  0
LINE
  8
0
  6
CENTER
 62
     2
 10
-169.611374
 20
17.500008
 11
-161.419540
 21
17.500008
  0
LINE
  8
0
  6
CENTER
 62
     2
 10
-169.262222
 20
42.500011
 11
-161.205551
 21
42.500011
  0
LINE
  8
0
  6
CENTER
 62
     2
 10
-172.760269
 20
8.500008
 11
-161.115372
 21
8.500008
  0
LINE
  8
0
  6
CENTER
 62
     2
 10
-172.974228
 20
51.500008
 11
-161.231766
 21
51.500008
  0
LINE
  8
0
 10
-165.100052
 20
53.058826
 11
-164.200043
 21
51.499977
  0
LINE
  8
0
 10
-164.200012
 20
51.500034
 11
-165.100021
 21
49.941185
  0
LINE
  8
0
 10
-165.099991
 20
49.941162
 11
-166.899979
 21
49.941162
  0
LINE
  8
0
 10
-166.900024
 20
49.941143
 11
-167.800034
 21
51.500004
  0
LINE
  8
0
 10
-167.800064
 20
51.500072
 11
-166.900055
 21
53.058922
  0
LINE
  8
0
 10
-166.899979
 20
53.058853
 11
-165.099991
 21
53.058853
  0
LINE
  8
0
 10
-165.099945
 20
10.058891
 11
-164.199936
 21
8.500047
  0
LINE
  8
0
 10
-164.200150
 20
8.500104
 11
-165.100159
 21
6.941260
  0
LINE
  8
0
 10
-165.099991
 20
6.941162
 11
-166.899979
 21
6.941162
  0
LINE
  8
0
 10
-166.900024
 20
6.941128
 11
-167.800034
 21
8.499971
  0
LINE
  8
0
 10
-167.800049
 20
8.500029
 11
-166.900024
 21
10.058883
  0
LINE
  8
0
 10
-166.899979
 20
10.058853
 11
-165.099991
 21
10.058853
  0
LINE
  8
0
 10
-151.999969
 20
42.000023
 11
-149.999969
 21
40.000019
  0
LINE
  8
0
 10
-149.999985
 20
40.000011
 11
-149.999985
 21
20.000008
  0
LINE
  8
0
 10
-151.999939
 20
17.999985
 11
-149.999954
 21
19.999973
  0
LINE
  8
0
 62
     4
 10
-176.999985
 20
81.000008
 11
-151.999985
 21
81.000008
  0
LINE
  8
0
 62
     4
 10
-176.999985
 20
62.000008
 11
-176.999985
 21
81.000008
  0
LINE
  8
0
 62
     4
 10
-151.999985
 20
81.000008
 11
-151.999985
 21
62.000008
  0
LINE
  8
0
  6
CENTER
 62
     1
 10
-171.679214
 20
69.500008
 11
-157.133041
 21
69.500008
  0
LINE
  8
0
  6
CENTER
 62
     1
 10
-164.499985
 20
76.729881
 11
-164.499985
 21
62.334450
  0
LINE
  8
0
 10
178.000000
 20
61.999996
 11
178.000000
 21
-2.000004
  0
LINE
  8
0
 10
153.000000
 20
61.999996
 11
153.000000
 21
39.900002
  0
LINE
  8
0
 10
153.000015
 20
61.999996
 11
178.000015
 21
61.999996
  0
LINE
  8
0
 10
153.000015
 20
-2.000004
 11
178.000015
 21
-2.000004
  0
LINE
  8
0
  6
CENTER
 62
     2
 10
167.000000
 20
63.663448
 11
167.000000
 21
-3.602547
  0
LINE
  8
0
  6
CENTER
 62
     2
 10
174.000000
 20
49.552586
 11
174.000000
 21
44.007336
  0
LINE
  8
0
  6
CENTER
 62
     2
 10
170.984482
 20
46.999996
 11
176.411453
 21
46.999996
  0
LINE
  8
0
  6
CENTER
 62
     2
 10
156.721970
 20
46.999996
 11
162.865799
 21
46.999996
  0
LINE
  8
0
  6
CENTER
 62
     2
 10
160.000000
 20
9.996716
 11
160.000000
 21
15.768318
  0
LINE
  8
0
  6
CENTER
 62
     2
 10
156.356247
 20
12.999996
 11
163.377792
 21
12.999996
  0
LINE
  8
0
  6
CENTER
 62
     2
 10
174.000000
 20
9.923576
 11
174.000000
 21
16.140570
  0
LINE
  8
0
  6
CENTER
 62
     2
 10
170.691910
 20
12.999996
 11
177.254990
 21
12.999996
  0
LINE
  8
0
  6
CENTER
 62
     2
 10
158.111649
 20
21.499996
 11
165.674240
 21
21.499996
  0
LINE
  8
0
  6
CENTER
 62
     2
 10
155.579086
 20
39.500000
 11
165.500015
 21
39.500000
  0
LINE
  8
0
  6
CENTER
 62
     2
 10
172.000000
 20
42.083328
 11
172.000000
 21
34.718410
  0
LINE
  8
0
  6
CENTER
 62
     2
 10
160.500000
 20
44.665604
 11
160.500000
 21
34.425846
  0
LINE
  8
0
 10
161.400055
 20
41.058910
 11
162.300064
 21
39.500065
  0
LINE
  8
0
 10
162.300064
 20
39.499950
 11
161.400055
 21
37.941097
  0
LINE
  8
0
 10
161.400009
 20
37.941154
 11
159.600021
 21
37.941154
  0
LINE
  8
0
 10
159.600113
 20
37.941200
 11
158.700104
 21
39.500046
  0
LINE
  8
0
 10
158.700027
 20
39.499969
 11
159.600037
 21
41.058807
  0
LINE
  8
0
 10
159.600021
 20
41.058846
 11
161.400009
 21
41.058846
  0
LINE
  8
0
 10
174.400009
 20
22.058842
 11
172.600021
 21
22.058842
  0
LINE
  8
0
 10
172.600037
 20
22.058760
 11
171.700027
 21
20.499914
  0
LINE
  8
0
 10
174.399857
 20
22.058796
 11
175.299866
 21
20.499952
  0
LINE
  8
0
 10
175.300262
 20
20.499804
 11
174.400253
 21
18.940960
  0
LINE
  8
0
 10
174.400009
 20
18.941151
 11
172.600021
 21
18.941151
  0
LINE
  8
0
 10
172.600082
 20
18.941214
 11
171.700073
 21
20.500057
  0
LINE
  8
0
  6
CENTER
 62
     2
 10
167.985703
 20
38.500000
 11
175.430862
 21
38.500000
  0
LINE
  8
0
  6
CENTER
 62
     2
 10
162.000000
 20
24.660763
 11
162.000000
 21
17.749674
  0
LINE
  8
0
  6
CENTER
 62
     2
 10
173.500000
 20
25.722055
 11
173.500000
 21
15.482300
  0
LINE
  8
0
  6
CENTER
 62
     2
 10
168.500015
 20
20.499996
 11
178.883713
 21
20.499996
  0
LINE
  8
0
 10
153.000000
 20
20.099997
 11
153.000000
 21
-2.000004
  0
LINE
  8
0
 10
152.999954
 20
41.900036
 11
150.999954
 21
39.900032
  0
LINE
  8
0
 10
151.000000
 20
39.900002
 11
151.000000
 21
20.099997
  0
LINE
  8
0
 10
150.999954
 20
20.099966
 11
152.999954
 21
18.099962
  0
LINE
  8
0
 10
153.000015
 20
39.900002
 11
154.100021
 21
39.900002
  0
LINE
  8
0
 10
153.000015
 20
20.099997
 11
154.100021
 21
20.099997
  0
LINE
  8
0
 10
154.100021
 20
19.099997
 11
155.400009
 21
19.099997
  0
LINE
  8
0
 10
154.100021
 20
40.900002
 11
155.400009
 21
40.900002
  0
LINE
  8
0
 10
154.100006
 20
40.900002
 11
154.100006
 21
39.900002
  0
LINE
  8
0
 10
154.100006
 20
20.099997
 11
154.100006
 21
19.099997
  0
LINE
  8
0
 10
155.399994
 20
19.099997
 11
155.399994
 21
40.900002
  0
LINE
  8
0
  6
CENTER
 62
     2
 10
160.000000
 20
49.981556
 11
160.000000
 21
43.861050
  0
LINE
  8
0
  6
CENTER
 62
     2
 10
149.992966
 20
24.499996
 11
156.535538
 21
24.499996
  0
LINE
  8
0
  6
CENTER
 62
     2
 10
149.846695
 20
35.499996
 11
156.535538
 21
35.499996
  0
LINE
  8
0
 10
151.000015
 20
37.249996
 11
155.400009
 21
37.249996
  0
LINE
  8
0
 10
151.000015
 20
33.749996
 11
155.400009
 21
33.749996
  0
LINE
  8
0
 10
151.000015
 20
26.249996
 11
155.400009
 21
26.249996
  0
LINE
  8
0
 10
151.000015
 20
22.749996
 11
155.400009
 21
22.749996
  0
LINE
  8
0
 62
     4
 10
153.000015
 20
81.000000
 11
178.000015
 21
81.000000
  0
LINE
  8
0
 62
     4
 10
153.000000
 20
61.999996
 11
153.000000
 21
81.000000
  0
LINE
  8
0
 62
     4
 10
178.000000
 20
81.000000
 11
178.000000
 21
61.999996
  0
LINE
  8
0
  6
CENTER
 62
     1
 10
158.320786
 20
69.500000
 11
172.866959
 21
69.500000
  0
LINE
  8
0
  6
CENTER
 62
     1
 10
165.500000
 20
76.729874
 11
165.500000
 21
62.334446
  0
LINE
  8
0
  6
CENTER
 62
     2
 10
153.649994
 20
38.044014
 11
153.649994
 21
21.906351
  0
LINE
  8
0
  6
CENTER
 62
     2
 10
149.333893
 20
29.999996
 11
180.641617
 21
29.999996
  0
LINE
  8
0
  6
CENTER
 62
     2
 10
-73.797470
 20
-94.999992
 11
63.853752
 21
-94.999992
  0
LINE
  8
0
 10
-55.999992
 20
-105.999992
 11
-9.999992
 21
-105.999992
  0
LINE
  8
0
 10
51.000008
 20
-105.999992
 11
62.000008
 21
-105.999992
  0
LINE
  8
0
 10
-9.999992
 20
-105.799995
 11
51.000008
 21
-105.799995
  0
LINE
  8
0
 10
-55.999992
 20
-80.999992
 11
-9.999992
 21
-80.999992
  0
LINE
  8
0
 10
-13.999992
 20
-78.999992
 11
-9.999992
 21
-78.999992
  0
LINE
  8
0
 10
-15.999996
 20
-81.000000
 11
-13.999998
 21
-79.000008
  0
LINE
  8
0
 10
-55.999992
 20
-81.000000
 11
-55.999992
 21
-106.000000
  0
LINE
  8
0
 10
-9.999992
 20
-79.000000
 11
-9.999992
 21
-106.000000
  0
LINE
  8
0
 10
51.000008
 20
-79.000000
 11
51.000008
 21
-106.000000
  0
LINE
  8
0
 10
62.000008
 20
-79.000000
 11
62.000008
 21
-106.000000
  0
LINE
  8
0
 10
-69.999992
 20
-104.999992
 11
-61.999992
 21
-104.999992
  0
LINE
  8
0
 10
-69.999992
 20
-84.999992
 11
-61.999992
 21
-84.999992
  0
LINE
  8
0
 10
-61.999992
 20
-85.000000
 11
-61.999992
 21
-105.000000
  0
LINE
  8
0
 10
-69.999992
 20
-85.000000
 11
-69.999992
 21
-105.000000
  0
LINE
  8
0
  6
CENTER
 62
     2
 10
53.017273
 20
-101.999992
 11
59.841774
 21
-101.999992
  0
LINE
  8
0
  6
CENTER
 62
     2
 10
52.779655
 20
-84.999992
 11
59.745903
 21
-84.999992
  0
LINE
  8
0
  6
CENTER
 62
     2
 10
56.500008
 20
-81.898010
 11
56.500008
 21
-88.432892
  0
LINE
  8
0
  6
CENTER
 62
     2
 10
-15.499992
 20
-82.500000
 11
-15.499992
 21
-88.492111
  0
LINE
  8
0
  6
CENTER
 62
     2
 10
-50.499992
 20
-82.245850
 11
-50.499992
 21
-88.000763
  0
LINE
  8
0
  6
CENTER
 62
     2
 10
-19.173771
 20
-84.999992
 11
-11.997345
 21
-84.999992
  0
LINE
  8
0
  6
CENTER
 62
     2
 10
-50.499992
 20
-98.773727
 11
-50.499992
 21
-105.053093
  0
LINE
  8
0
  6
CENTER
 62
     2
 10
-15.499992
 20
-98.635712
 11
-15.499992
 21
-105.260109
  0
LINE
  8
0
  6
CENTER
 62
     2
 10
-18.897755
 20
-101.999992
 11
-12.066349
 21
-101.999992
  0
LINE
  8
0
  6
CENTER
 62
     2
 10
56.500008
 20
-98.491974
 11
56.500008
 21
-105.382851
  0
LINE
  8
0
  6
CENTER
 62
     2
 10
-65.999992
 20
-86.000000
 11
-65.999992
 21
-92.563354
  0
LINE
  8
0
  6
CENTER
 62
     2
 10
-65.999992
 20
-97.738663
 11
-65.999992
 21
-104.363052
  0
LINE
  8
0
 10
-61.530048
 20
-101.949989
 11
-58.469936
 21
-101.949989
  0
LINE
  8
0
 10
-61.530048
 20
-88.049995
 11
-58.469933
 21
-88.049995
  0
LINE
  8
0
 10
-57.999992
 20
-89.803848
 11
-57.999992
 21
-91.000000
  0
LINE
  8
0
 10
-57.999996
 20
-89.803864
 11
-58.469936
 21
-88.050026
  0
LINE
  8
0
 10
-58.000004
 20
-100.196159
 11
-58.469944
 21
-101.949989
  0
LINE
  8
0
 10
-57.999992
 20
-100.196152
 11
-57.999992
 21
-99.000000
  0
LINE
  8
0
 10
-62.000011
 20
-89.803848
 11
-61.530071
 21
-88.050011
  0
LINE
  8
0
 10
-61.999973
 20
-100.196159
 11
-61.530033
 21
-101.950012
  0
LINE
  8
0
 10
-61.999992
 20
-98.999992
 11
-55.999992
 21
-98.999992
  0
LINE
  8
0
 10
-61.999992
 20
-90.999992
 11
-55.999992
 21
-90.999992
  0
LINE
  8
0
 10
-9.999992
 20
-81.199989
 11
51.000008
 21
-81.199989
  0
LINE
  8
0
 10
-9.999992
 20
-79.199989
 11
51.000008
 21
-79.199989
  0
LINE
  8
0
 10
51.000008
 20
-78.999992
 11
62.000008
 21
-78.999992
  0
LINE
  8
0
 10
51.000008
 20
-80.999992
 11
62.000008
 21
-80.999992
  0
LINE
  8
0
  6
CENTER
 62
     2
 10
-69.537041
 20
-100.999992
 11
-62.577354
 21
-100.999992
  0
LINE
  8
0
  6
CENTER
 62
     2
 10
-69.254349
 20
-88.999992
 11
-62.370338
 21
-88.999992
  0
LINE
  8
0
  6
CENTER
 62
     2
 10
-53.999992
 20
-84.999992
 11
-46.999992
 21
-84.999992
  0
LINE
  8
0
  6
CENTER
 62
     2
 10
-53.999992
 20
-101.999992
 11
-46.999992
 21
-101.999992
  0
LINE
  8
0
 62
     4
 10
63.000008
 20
-88.500000
 11
63.000008
 21
-98.500000
  0
LINE
  8
0
 62
     4
 10
62.000004
 20
-87.499992
 11
63.000004
 21
-88.499992
  0
LINE
  8
0
 62
     4
 10
62.999989
 20
-98.499954
 11
61.999989
 21
-99.499954
  0
LINE
  8
0
 62
     1
 10
63.000008
 20
-98.499992
 11
62.000008
 21
-98.499992
  0
LINE
  8
0
 62
     1
 10
63.000008
 20
-88.499992
 11
62.000008
 21
-88.499992
  0
LINE
  8
0
  6
CENTER
 62
     1
 10
60.734520
 20
-93.499992
 11
64.410042
 21
-93.499992
  0
LINE
  8
0
  6
PHANTOM
 62
     3
 10
20.500008
 20
-34.685547
 11
20.500008
 21
-123.664680
  0
LINE
  8
0
 10
-281.250000
 20
195.500000
 11
282.099976
 21
195.500000
  0
LINE
  8
0
 10
-281.250000
 20
195.500000
 11
-281.250000
 21
-195.000000
  0
LINE
  8
0
 10
282.099976
 20
195.500000
 11
282.099976
 21
-195.000000
  0
LINE
  8
0
 10
-281.250000
 20
-195.000000
 11
282.099976
 21
-195.000000
  0
LINE
  8
0
 10
162.099976
 20
-175.000000
 11
162.099976
 21
-195.000000
  0
LINE
  8
0
 10
162.099976
 20
-175.000000
 11
282.099976
 21
-175.000000
  0
LINE
  8
0
 10
162.099976
 20
175.500000
 11
282.099976
 21
175.500000
  0
LINE
  8
0
 10
-281.250000
 20
175.500000
 11
-161.250000
 21
175.500000
  0
LINE
  8
0
 10
162.099976
 20
195.500000
 11
162.099976
 21
175.500000
  0
LINE
  8
0
 10
-161.250000
 20
195.500000
 11
-161.250000
 21
175.500000
  0
LINE
  8
0
 10
-271.250000
 20
-185.000000
 11
-111.250000
 21
-185.000000
  0
LINE
  8
0
 10
-271.250000
 20
-177.000000
 11
-111.250000
 21
-177.000000
  0
LINE
  8
0
 10
-271.250000
 20
-161.000000
 11
-271.250000
 21
-185.000000
  0
LINE
  8
0
 10
-221.250000
 20
-161.000000
 11
-221.250000
 21
-185.000000
  0
LINE
  8
0
 10
-199.250000
 20
-161.000000
 11
-199.250000
 21
-185.000000
  0
LINE
  8
0
 10
-177.250000
 20
-161.000000
 11
-177.250000
 21
-185.000000
  0
LINE
  8
0
 10
-155.250000
 20
-161.000000
 11
-155.250000
 21
-185.000000
  0
LINE
  8
0
 10
-133.250000
 20
-161.000000
 11
-133.250000
 21
-185.000000
  0
LINE
  8
0
 10
-111.250000
 20
-161.000000
 11
-111.250000
 21
-185.000000
  0
LINE
  8
0
 10
-271.250000
 20
-161.000000
 11
-111.250000
 21
-161.000000
  0
LINE
  8
0
 10
-271.250000
 20
-161.000031
 11
-221.250015
 21
-177.000031
  0
CIRCLE
  8
0
 10
-65.999992
 20
46.000004
 40
1.650000
  0
CIRCLE
  8
0
 10
-65.999992
 20
14.000005
 40
1.650000
  0
ARC
  8
0
 10
-66.665031
 20
33.000004
 40
8.665039
 50
339.743774
 51
20.256170
  0
ARC
  8
0
 10
-53.334953
 20
27.000004
 40
8.665037
 50
159.743744
 51
200.256119
  0
CIRCLE
  8
0
 10
-50.499992
 20
39.500004
 40
4.000000
  0
CIRCLE
  8
0
 10
-20.499992
 20
20.500004
 40
4.000000
  0
CIRCLE
  8
0
 10
-20.499992
 20
39.500004
 40
4.000000
  0
CIRCLE
  8
0
 10
-50.499992
 20
20.500004
 40
4.000000
  0
ARC
  8
0
 10
-66.665031
 20
27.000004
 40
8.665039
 50
339.743774
 51
20.256170
  0
ARC
  8
0
 10
59.250008
 20
35.500004
 40
1.749998
 50
85.733139
 51
270.000000
  0
ARC
  8
0
 10
59.250008
 20
24.500004
 40
1.750001
 50
88.565811
 51
271.359222
  0
CIRCLE
  8
0
 62
     2
 10
-65.999992
 20
46.000004
 40
2.000000
  0
CIRCLE
  8
0
 62
     2
 10
-65.999992
 20
14.000005
 40
2.000000
  0
CIRCLE
  8
0
 10
-50.499992
 20
39.500004
 40
2.250000
  0
CIRCLE
  8
0
 10
-20.499992
 20
39.500004
 40
2.250000
  0
CIRCLE
  8
0
 10
-50.499992
 20
20.500004
 40
2.250000
  0
CIRCLE
  8
0
 10
-20.499992
 20
20.500004
 40
2.250000
  0
ARC
  8
0
 10
31.250008
 20
30.000004
 40
1.249999
 50
87.337433
 51
272.663452
  0
ARC
  8
0
 10
32.500008
 20
31.250004
 40
0.500000
 50
180.000000
 51
0.000000
  0
ARC
  8
0
 10
32.500008
 20
28.750004
 40
0.500000
 50
0.000000
 51
180.000000
  0
ARC
  8
0
 10
33.750008
 20
30.000004
 40
1.250000
 50
270.000000
 51
90.000000
  0
ARC
  8
0
 10
-53.334953
 20
33.000004
 40
8.665037
 50
159.743805
 51
200.256180
  0
CIRCLE
  8
0
 10
-165.999985
 20
8.500008
 40
4.000000
  0
CIRCLE
  8
0
 10
-165.999985
 20
42.500011
 40
2.100000
  0
CIRCLE
  8
0
 10
-165.999985
 20
17.500008
 40
2.100000
  0
CIRCLE
  8
0
 10
-165.999985
 20
51.500008
 40
3.500000
  0
CIRCLE
  8
0
 62
     2
 10
-165.999985
 20
30.000008
 40
2.100000
  0
CIRCLE
  8
0
 10
-165.999985
 20
8.500008
 40
3.500000
  0
CIRCLE
  8
0
 62
     1
 10
-164.499985
 20
69.500008
 40
5.000000
  0
CIRCLE
  8
0
 62
     4
 10
-164.499985
 20
69.500008
 40
6.000000
  0
CIRCLE
  8
0
 10
-165.999985
 20
30.000008
 40
2.500000
  0
CIRCLE
  8
0
 10
-165.999985
 20
30.000008
 40
9.000000
  0
CIRCLE
  8
0
 62
     2
 10
-165.999985
 20
42.500011
 40
2.500000
  0
CIRCLE
  8
0
 62
     2
 10
-165.999985
 20
17.500008
 40
2.500000
  0
CIRCLE
  8
0
 10
-165.999985
 20
51.500008
 40
4.000000
  0
CIRCLE
  8
0
 10
160.000000
 20
46.999996
 40
1.650000
  0
CIRCLE
  8
0
 10
174.000000
 20
46.999996
 40
1.650000
  0
CIRCLE
  8
0
 10
172.000000
 20
38.500000
 40
2.100000
  0
CIRCLE
  8
0
 10
160.000000
 20
12.999996
 40
1.650000
  0
CIRCLE
  8
0
 10
174.000000
 20
12.999996
 40
1.650000
  0
ARC
  8
0
 10
153.649994
 20
35.499996
 40
1.750000
 50
90.000000
 51
270.000000
  0
CIRCLE
  8
0
 10
160.500000
 20
39.500000
 40
3.500000
  0
ARC
  8
0
 10
153.649994
 20
24.499996
 40
1.750000
 50
90.000000
 51
270.000000
  0
CIRCLE
  8
0
 10
173.500000
 20
20.499996
 40
3.500000
  0
CIRCLE
  8
0
 62
     1
 10
165.500000
 20
69.500000
 40
5.000000
  0
CIRCLE
  8
0
 62
     4
 10
165.500000
 20
69.500000
 40
6.000000
  0
CIRCLE
  8
0
 62
     2
 10
160.000000
 20
46.999996
 40
2.000000
  0
CIRCLE
  8
0
 62
     2
 10
174.000000
 20
46.999996
 40
2.000000
  0
CIRCLE
  8
0
 62
     2
 10
160.000000
 20
12.999996
 40
2.000000
  0
CIRCLE
  8
0
 62
     2
 10
174.000000
 20
12.999996
 40
2.000000
  0
CIRCLE
  8
0
 62
     2
 10
172.000000
 20
38.500000
 40
2.500000
  0
CIRCLE
  8
0
 62
     2
 10
162.000000
 20
21.499996
 40
2.500000
  0
CIRCLE
  8
0
 10
160.500000
 20
39.500000
 40
4.000000
  0
CIRCLE
  8
0
 10
173.500000
 20
20.499996
 40
4.000000
  0
CIRCLE
  8
0
 10
162.000000
 20
21.499996
 40
2.100000
  0
CIRCLE
  8
0
 10
56.500008
 20
-84.999992
 40
1.650000
  0
CIRCLE
  8
0
 10
56.500008
 20
-101.999992
 40
1.650000
  0
CIRCLE
  8
0
 10
-50.499992
 20
-84.999992
 40
1.650000
  0
CIRCLE
  8
0
 10
-15.499992
 20
-101.999992
 40
1.650000
  0
CIRCLE
  8
0
 10
-15.499992
 20
-84.999992
 40
1.650000
  0
CIRCLE
  8
0
 10
-50.499992
 20
-101.999992
 40
1.650000
  0
CIRCLE
  8
0
 62
     2
 10
-15.499992
 20
-101.999992
 40
2.000000
  0
ARC
  8
0
 10
-61.467030
 20
-100.207039
 40
3.467056
 50
0.000000
 51
20.374043
  0
ARC
  8
0
 10
-61.467030
 20
-89.792946
 40
3.467055
 50
339.625824
 51
0.000000
  0
ARC
  8
0
 10
-58.532955
 20
-89.792946
 40
3.467056
 50
180.000000
 51
200.374039
  0
ARC
  8
0
 10
-58.532955
 20
-100.207039
 40
3.467056
 50
159.625961
 51
180.000000
  0
CIRCLE
  8
0
 62
     2
 10
-65.999992
 20
-88.999992
 40
2.000000
  0
CIRCLE
  8
0
 62
     2
 10
-65.999992
 20
-100.999992
 40
2.000000
  0
CIRCLE
  8
0
 62
     2
 10
56.500008
 20
-84.999992
 40
2.000000
  0
CIRCLE
  8
0
 62
     2
 10
56.500008
 20
-101.999992
 40
2.000000
  0
CIRCLE
  8
0
 62
     2
 10
-15.499992
 20
-84.999992
 40
2.000000
  0
CIRCLE
  8
0
 62
     2
 10
-50.499992
 20
-84.999992
 40
2.000000
  0
CIRCLE
  8
0
 62
     2
 10
-50.499992
 20
-101.999992
 40
2.000000
  0
CIRCLE
  8
0
 10
-65.999992
 20
-88.999992
 40
1.650000
  0
CIRCLE
  8
0
 10
-65.999992
 20
-100.999992
 40
1.650000
  0
TEXT
  8
0
 10
196.250259
 20
180.830002
 40
6.300000
  1
Ver. 2.0
 50
0.000000
 41
1.052632
 51
0.000000
  7
STANDARD
  0
TEXT
  8
0
 10
167.564667
 20
-192.100006
 40
9.000000
  1
KOGANEI CORP.
 50
0.000000
 41
1.052632
 51
0.000000
  7
STANDARD
  0
TEXT
  8
0
 10
-262.849731
 20
180.830002
 40
6.300000
  1
AXIS CYLINDER
 50
0.000000
 41
1.052632
 51
0.000000
  7
STANDARD
  0
TEXT
  8
0
 10
-270.049988
 20
155.830002
 40
6.300000
  1
MODEL:XDAQ16*ST(25)-SSL
 50
0.000000
 41
1.052632
 51
0.000000
  7
STANDARD
  0
TEXT
  8
0
 10
-131.642853
 20
-160.050003
 40
4.500000
  1
(mm)
 50
0.000000
 41
1.052632
 51
0.000000
  7
STANDARD
  0
TEXT
  8
0
 10
-215.142853
 20
-172.050003
 40
4.500000
  1
25
 50
0.000000
 41
1.052632
 51
0.000000
  7
STANDARD
  0
TEXT
  8
0
 10
-193.142853
 20
-172.050003
 40
4.500000
  1
50
 50
0.000000
 41
1.052632
 51
0.000000
  7
STANDARD
  0
TEXT
  8
0
 10
-171.142853
 20
-172.050003
 40
4.500000
  1
75
 50
0.000000
 41
1.052632
 51
0.000000
  7
STANDARD
  0
TEXT
  8
0
 10
-151.392853
 20
-172.050003
 40
4.500000
  1
100
 50
0.000000
 41
1.052632
 51
0.000000
  7
STANDARD
  0
TEXT
  8
0
 10
-129.392853
 20
-172.050003
 40
4.500000
  1
125
 50
0.000000
 41
1.052632
 51
0.000000
  7
STANDARD
  0
TEXT
  8
0
 10
-212.892853
 20
-184.050003
 40
4.500000
  1
0
 50
0.000000
 41
1.052632
 51
0.000000
  7
STANDARD
  0
TEXT
  8
0
 10
-193.142853
 20
-184.050003
 40
4.500000
  1
25
 50
0.000000
 41
1.052632
 51
0.000000
  7
STANDARD
  0
TEXT
  8
0
 10
-171.142853
 20
-184.050003
 40
4.500000
  1
50
 50
0.000000
 41
1.052632
 51
0.000000
  7
STANDARD
  0
TEXT
  8
0
 10
-149.142853
 20
-184.050003
 40
4.500000
  1
75
 50
0.000000
 41
1.052632
 51
0.000000
  7
STANDARD
  0
TEXT
  8
0
 10
-129.392853
 20
-184.050003
 40
4.500000
  1
100
 50
0.000000
 41
1.052632
 51
0.000000
  7
STANDARD
  0
TEXT
  8
0
 10
-250.377258
 20
-168.050003
 40
4.500000
  1
STROKE
 50
0.000000
 41
1.052632
 51
0.000000
  7
STANDARD
  0
TEXT
  8
0
 10
-265.408447
 20
-176.050003
 40
4.500000
  1
TYPE
 50
0.000000
 41
1.052632
 51
0.000000
  7
STANDARD
  0
TEXT
  8
0
 10
-264.000000
 20
-182.699997
 40
4.500000
  1
XDAQ16
 50
0.000000
 41
1.052632
 51
0.000000
  7
STANDARD
  0
TEXT
  8
0
 10
-218.642853
 20
-159.050003
 40
4.500000
  1
STRETCH LIST
 50
0.000000
 41
1.052632
 51
0.000000
  7
STANDARD
  0
TEXT
  8
0
 62
     3
 10
-18.324472
 20
104.603394
 40
6.300000
  1
STRETCH LINE
 50
0.000000
 41
1.052632
 51
0.000000
  7
STANDARD
  0
ENDSEC
  0
EOF
