  0
SECTION
  2
HEADER
  0
ENDSEC
  0
SECTION
  2
TABLES
  0
TABLE
  2
LTYPE
 70
     4
  0
LTYPE
  2
CONTINUOUS
 70
    64
  3
Solid line
 72
    65
 73
     0
 40
0.000000
  0
LTYPE
  2
DASHED
 70
    64
  3
__ __ __ __ __ __ __ __ __ __ __ __ __ __ __
 72
    65
 73
     2
 40
3.500000
 49
2.000000
 49
-1.500000
  0
LTYPE
  2
CENTER
 70
    64
  3
____ _ ____ _ ____ _ ____ _ ____ _ ____ _ ____
 72
    65
 73
     4
 40
17.500000
 49
13.000000
 49
-1.500000
 49
1.500000
 49
-1.500000
  0
LTYPE
  2
PHANTOM
 70
    64
  3
_____ _ _ _____ _ _ _____ _ _ _____ _ _ ____  
 72
    65
 73
     6
 40
15.500000
 49
8.000000
 49
-1.500000
 49
1.500000
 49
-1.500000
 49
1.500000
 49
-1.500000
  0
LTYPE
  2
DASHED1
 70
    64
  3
__ __ __ __ __ __ __ __ __ __ __ __ __ __ __
 72
    65
 73
     2
 40
1.500000
 49
1.000000
 49
-0.500000
  0
LTYPE
  2
DASHED2
 70
    64
  3
__ __ __ __ __ __ __ __ __ __ __ __ __ __ __
 72
    65
 73
     2
 40
3.500000
 49
2.500000
 49
-1.000000
  0
LTYPE
  2
DASHED3
 70
    64
  3
__ __ __ __ __ __ __ __ __ __ __ __ __ __ __
 72
    65
 73
     2
 40
6.000000
 49
4.000000
 49
-2.000000
  0
LTYPE
  2
DASHED4
 70
    64
  3
__ __ __ __ __ __ __ __ __ __ __ __ __ __ __
 72
    65
 73
     2
 40
12.000000
 49
10.000000
 49
-2.000000
  0
LTYPE
  2
DASHED5
 70
    64
  3
__ __ __ __ __ __ __ __ __ __ __ __ __ __ __
 72
    65
 73
     2
 40
17.000000
 49
15.000000
 49
-2.000000
  0
LTYPE
  2
DASHED6
 70
    64
  3
__ __ __ __ __ __ __ __ __ __ __ __ __ __ __
 72
    65
 73
     2
 40
29.000000
 49
27.000000
 49
-2.000000
  0
LTYPE
  2
PHANTOM1
 70
    64
  3
_____ _ _ _____ _ _ _____ _ _ _____ _ _ ____  
 72
    65
 73
     6
 40
31.000000
 49
25.000000
 49
-1.500000
 49
1.000000
 49
-1.000000
 49
1.000000
 49
-1.500000
  0
LTYPE
  2
PHANTOM2
 70
    64
  3
_____ _ _ _____ _ _ _____ _ _ _____ _ _ ____  
 72
    65
 73
     6
 40
36.000000
 49
27.000000
 49
-1.500000
 49
2.500000
 49
-1.000000
 49
2.500000
 49
-1.500000
  0
LTYPE
  2
PHANTOM3
 70
    64
  3
_____ _ _ _____ _ _ _____ _ _ _____ _ _ ____  
 72
    65
 73
     6
 40
78.000000
 49
64.000000
 49
-2.000000
 49
4.000000
 49
-2.000000
 49
4.000000
 49
-2.000000
  0
LTYPE
  2
CENTER1
 70
    64
  3
____ _ ____ _ ____ _ ____ _ ____ _ ____ _ ____
 72
    65
 73
     4
 40
19.000000
 49
14.000000
 49
-1.000000
 49
3.000000
 49
-1.000000
  0
LTYPE
  2
CENTER2
 70
    64
  3
____ _ ____ _ ____ _ ____ _ ____ _ ____ _ ____
 72
    65
 73
     4
 40
28.500000
 49
25.000000
 49
-1.000000
 49
1.500000
 49
-1.000000
  0
LTYPE
  2
CENTER3
 70
    64
  3
____ _ ____ _ ____ _ ____ _ ____ _ ____ _ ____
 72
    65
 73
     4
 40
31.500000
 49
27.000000
 49
-1.000000
 49
2.500000
 49
-1.000000
  0
LTYPE
  2
CENTER4
 70
    64
  3
____ _ ____ _ ____ _ ____ _ ____ _ ____ _ ____
 72
    65
 73
     4
 40
50.000000
 49
45.000000
 49
-1.000000
 49
3.000000
 49
-1.000000
  0
LTYPE
  2
CENTER5
 70
    64
  3
____ _ ____ _ ____ _ ____ _ ____ _ ____ _ ____
 72
    65
 73
     4
 40
100.000000
 49
92.000000
 49
-2.000000
 49
4.000000
 49
-2.000000
  0
LTYPE
  2
SBK1
 70
    64
  3
______ _ _ _ ______ _ _ _ ______ _ _ _ _____  
 72
    65
 73
     8
 40
60.500000
 49
45.000000
 49
-2.000000
 49
2.500000
 49
-2.000000
 49
2.500000
 49
-2.000000
 49
2.500000
 49
-2.000000
  0
LTYPE
  2
SBK2
 70
    64
  3
______ _ _ _ ______ _ _ _ ______ _ _ _ _____  
 72
    65
 73
     8
 40
84.000000
 49
64.000000
 49
-2.000000
 49
4.000000
 49
-2.000000
 49
4.000000
 49
-2.000000
 49
4.000000
 49
-2.000000
  0
LTYPE
  2
STCH
 70
    64
  3
__ __ __ __ __ __ __ __ __ __ __ __ __ __ __
 72
    65
 73
     2
 40
3.000000
 49
1.000000
 49
-2.000000
  0
LTYPE
  2
MTCH
 70
    64
  3
_____ _ _ _____ _ _ _____ _ _ _____ _ _ ____  
 72
    65
 73
     6
 40
80.000000
 49
66.000000
 49
-2.000000
 49
4.000000
 49
-2.000000
 49
4.000000
 49
-2.000000
  0
ENDTAB
  0
TABLE
  2
LAYER
 70
     1
  0
LAYER
  2
0
 70
     0
 62
     7
  6
CONTINUOUS
  0
ENDTAB
  0
TABLE
  2
STYLE
 70
     1
  0
STYLE
  2
STANDARD
 70
     0
 40
0.000000
 41
1.000000
 50
0.000000
 71
     0
 42
0.200000
  3
txt
  4
BIGFONT
  0
ENDTAB
  0
TABLE
  2
VIEW
 70
     0
  0
ENDTAB
  0
ENDSEC
  0
SECTION
  2
BLOCKS
  0
ENDSEC
  0
SECTION
  2
ENTITIES
  0
LINE
  8
0
 10
55.000809
 20
-12.000006
 11
66.000809
 21
-12.000006
  0
LINE
  8
0
 10
-9.999649
 20
-11.800009
 11
55.000824
 21
-11.800009
  0
LINE
  8
0
 10
-68.000015
 20
-12.000006
 11
-9.999649
 21
-12.000006
  0
LINE
  8
0
 10
-68.000015
 20
71.999992
 11
-9.999649
 21
71.999992
  0
LINE
  8
0
 10
-68.000015
 20
71.999992
 11
-68.000015
 21
-12.000006
  0
LINE
  8
0
 10
-9.999649
 20
71.799995
 11
55.000824
 21
71.799995
  0
LINE
  8
0
 62
     4
 10
66.000824
 20
95.000130
 11
66.000824
 21
72.000000
  0
LINE
  8
0
 10
55.000809
 20
72.000000
 11
66.000809
 21
72.000000
  0
LINE
  8
0
 10
-75.000015
 20
71.000000
 11
-75.000015
 21
-11.000013
  0
LINE
  8
0
 10
-85.000015
 20
71.000000
 11
-85.000015
 21
-11.000013
  0
LINE
  8
0
 10
-85.000015
 20
71.000000
 11
-75.000015
 21
71.000000
  0
LINE
  8
0
 10
-70.000015
 20
33.999989
 11
-68.000015
 21
33.999989
  0
LINE
  8
0
 62
     2
 10
-70.000023
 20
33.500034
 11
-69.133995
 21
34.000034
  0
LINE
  8
0
  6
CENTER
 62
     2
 10
-76.710693
 20
58.499992
 11
-65.022270
 21
58.499992
  0
LINE
  8
0
 10
-75.000015
 20
64.499992
 11
-68.000015
 21
64.499992
  0
LINE
  8
0
 10
-75.000015
 20
52.499992
 11
-68.000015
 21
52.499992
  0
LINE
  8
0
  6
CENTER
 62
     2
 10
-84.166420
 20
50.999992
 11
-76.051315
 21
50.999992
  0
LINE
  8
0
  6
CENTER
 62
     2
 10
-80.000015
 20
54.717094
 11
-80.000015
 21
46.893341
  0
LINE
  8
0
  6
CENTER
 62
     2
 10
-61.500008
 20
49.150471
 11
-61.500008
 21
35.666279
  0
LINE
  8
0
  6
CENTER
 62
     2
 10
-22.999638
 20
49.264076
 11
-22.999638
 21
35.456814
  0
LINE
  8
0
  6
CENTER
 62
     2
 10
-70.779327
 20
42.499989
 11
-52.680435
 21
42.499989
  0
LINE
  8
0
 10
-15.997635
 20
41.999996
 11
66.000809
 21
41.999996
  0
LINE
  8
0
 10
-13.999619
 20
39.999992
 11
66.000809
 21
39.999992
  0
LINE
  8
0
 10
-9.997635
 20
31.499992
 11
55.000824
 21
31.499992
  0
LINE
  8
0
 10
-9.997635
 20
33.374992
 11
55.000824
 21
33.374992
  0
LINE
  8
0
 10
-9.997635
 20
37.624996
 11
55.000824
 21
37.624996
  0
LINE
  8
0
 10
33.790810
 20
31.249989
 11
34.540810
 21
31.249989
  0
LINE
  8
0
 10
35.540802
 20
31.249989
 11
36.290810
 21
31.249989
  0
LINE
  8
0
  6
CENTER
 62
     2
 10
58.525528
 20
35.499989
 11
67.518814
 21
35.499989
  0
LINE
  8
0
 10
63.251724
 20
37.249992
 11
66.000824
 21
37.249992
  0
LINE
  8
0
 10
63.251724
 20
33.749992
 11
66.000824
 21
33.749992
  0
LINE
  8
0
 10
-85.000015
 20
-11.000013
 11
-75.000015
 21
-11.000013
  0
LINE
  8
0
 10
-70.000015
 20
25.999990
 11
-68.000015
 21
25.999990
  0
LINE
  8
0
 62
     2
 10
-70.000008
 20
26.500010
 11
-69.133987
 21
26.000008
  0
LINE
  8
0
  6
CENTER
 62
     2
 10
-76.710693
 20
1.499989
 11
-65.022270
 21
1.499989
  0
LINE
  8
0
 10
-75.000015
 20
-4.500006
 11
-68.000015
 21
-4.500006
  0
LINE
  8
0
 10
-75.000015
 20
7.499990
 11
-68.000015
 21
7.499990
  0
LINE
  8
0
  6
CENTER
 62
     2
 10
-83.832985
 20
8.999990
 11
-76.160019
 21
8.999990
  0
LINE
  8
0
  6
CENTER
 62
     2
 10
-80.000015
 20
4.825754
 11
-80.000015
 21
13.195791
  0
LINE
  8
0
  6
CENTER
 62
     2
 10
-61.500008
 20
10.586950
 11
-61.500008
 21
24.174675
  0
LINE
  8
0
  6
CENTER
 62
     2
 10
-22.999638
 20
9.796152
 11
-22.999638
 21
25.013525
  0
LINE
  8
0
  6
CENTER
 62
     2
 10
-71.102493
 20
17.499992
 11
-51.859570
 21
17.499992
  0
LINE
  8
0
 10
-15.999634
 20
17.999992
 11
66.000809
 21
17.999992
  0
LINE
  8
0
 10
-13.999619
 20
19.999992
 11
66.000809
 21
19.999992
  0
LINE
  8
0
 10
-9.997635
 20
28.499992
 11
55.000824
 21
28.499992
  0
LINE
  8
0
 10
-9.997635
 20
26.624990
 11
55.000824
 21
26.624990
  0
LINE
  8
0
 10
-9.997635
 20
22.374992
 11
55.000824
 21
22.374992
  0
LINE
  8
0
 10
33.790810
 20
28.749992
 11
34.540810
 21
28.749992
  0
LINE
  8
0
 10
35.540802
 20
28.749992
 11
36.290810
 21
28.749992
  0
LINE
  8
0
  6
CENTER
 62
     2
 10
58.984650
 20
24.499994
 11
67.623611
 21
24.499994
  0
LINE
  8
0
 10
63.251724
 20
22.749994
 11
66.000824
 21
22.749994
  0
LINE
  8
0
 10
63.251724
 20
26.249992
 11
66.000824
 21
26.249992
  0
LINE
  8
0
 10
-74.481857
 20
29.999992
 11
-70.518158
 21
29.999992
  0
LINE
  8
0
 10
-75.000015
 20
38.499989
 11
-70.000015
 21
38.499989
  0
LINE
  8
0
 10
-70.000008
 20
38.499989
 11
-70.000008
 21
21.499992
  0
LINE
  8
0
 10
-75.000015
 20
21.499992
 11
-70.000015
 21
21.499992
  0
LINE
  8
0
  6
CENTER
 62
     2
 10
-30.568893
 20
42.499989
 11
-16.143555
 21
42.499989
  0
LINE
  8
0
  6
CENTER
 62
     2
 10
-30.568893
 20
17.499992
 11
-16.143555
 21
17.499992
  0
LINE
  8
0
 62
     4
 10
-9.999649
 20
94.800133
 11
55.000824
 21
94.800133
  0
LINE
  8
0
 62
     4
 10
55.000809
 20
95.000130
 11
66.000809
 21
95.000130
  0
LINE
  8
0
 62
     4
 10
-9.999634
 20
95.000130
 11
-9.999634
 21
71.999992
  0
LINE
  8
0
 62
     4
 10
55.000824
 20
95.000130
 11
55.000824
 21
72.000000
  0
LINE
  8
0
  6
CENTER
 62
     1
 10
-37.840858
 20
80.999985
 11
79.422760
 21
80.999985
  0
LINE
  8
0
  6
CENTER
 62
     2
 10
-88.976120
 20
29.999992
 11
69.162689
 21
29.999992
  0
LINE
  8
0
  6
CENTER
 62
     2
 10
63.250870
 20
38.335911
 11
63.250870
 21
20.330326
  0
LINE
  8
0
 10
-15.999634
 20
41.999996
 11
-15.999634
 21
17.999992
  0
LINE
  8
0
 10
-13.999619
 20
39.999992
 11
-13.999619
 21
19.999992
  0
LINE
  8
0
 10
-13.999605
 20
40.000008
 11
-15.999617
 21
42.000011
  0
LINE
  8
0
 10
-15.999632
 20
17.999989
 11
-13.999617
 21
19.999990
  0
LINE
  8
0
 62
     4
 10
76.000809
 20
72.999947
 11
76.000809
 21
88.999954
  0
LINE
  8
0
 62
     4
 10
77.000824
 20
87.999954
 11
77.000824
 21
73.999954
  0
LINE
  8
0
 62
     4
 10
66.000824
 20
88.999954
 11
76.000809
 21
88.999954
  0
LINE
  8
0
 62
     1
 10
66.000824
 20
87.999954
 11
77.000824
 21
87.999954
  0
LINE
  8
0
 62
     1
 10
66.000824
 20
73.999954
 11
77.000824
 21
73.999954
  0
LINE
  8
0
 62
     4
 10
66.000824
 20
72.999954
 11
76.000809
 21
72.999954
  0
LINE
  8
0
 62
     4
 10
77.000824
 20
87.999924
 11
76.000824
 21
88.999924
  0
LINE
  8
0
 62
     4
 10
77.000809
 20
73.999969
 11
76.000809
 21
72.999969
  0
LINE
  8
0
 10
-9.999634
 20
71.999992
 11
-9.999634
 21
-12.000006
  0
LINE
  8
0
 10
55.000824
 20
72.000000
 11
55.000824
 21
-12.000006
  0
LINE
  8
0
 10
66.000824
 20
72.000000
 11
66.000824
 21
-12.000006
  0
LINE
  8
0
 62
     4
 10
-20.999634
 20
95.000130
 11
-20.999634
 21
72.000000
  0
LINE
  8
0
 62
     4
 10
-9.999619
 20
95.000130
 11
-20.999619
 21
95.000130
  0
LINE
  8
0
 62
     4
 10
-31.999636
 20
73.999969
 11
-30.999636
 21
72.999962
  0
LINE
  8
0
 62
     4
 10
-30.999619
 20
72.999947
 11
-30.999619
 21
88.999954
  0
LINE
  8
0
 62
     4
 10
-31.999634
 20
87.999954
 11
-31.999634
 21
73.999954
  0
LINE
  8
0
 62
     4
 10
-20.999634
 20
88.999954
 11
-30.999619
 21
88.999954
  0
LINE
  8
0
 62
     1
 10
-20.999634
 20
87.999954
 11
-31.999634
 21
87.999954
  0
LINE
  8
0
 62
     1
 10
-20.999634
 20
73.999954
 11
-31.999634
 21
73.999954
  0
LINE
  8
0
 62
     4
 10
-31.999626
 20
87.999931
 11
-30.999624
 21
88.999931
  0
LINE
  8
0
 62
     4
 10
-20.999634
 20
73.000023
 11
-30.999619
 21
73.000023
  0
LINE
  8
0
  6
PHANTOM
 62
     3
 10
22.500595
 20
107.270035
 11
22.500595
 21
-47.199532
  0
LINE
  8
0
 10
-169.524185
 20
72.000015
 11
-169.524185
 21
-11.999990
  0
LINE
  8
0
 10
-203.524155
 20
72.000015
 11
-203.524155
 21
-11.999990
  0
LINE
  8
0
 10
-203.524155
 20
72.000015
 11
-169.524185
 21
72.000015
  0
LINE
  8
0
 10
-173.524170
 20
71.000015
 11
-173.524170
 21
-10.999994
  0
LINE
  8
0
 10
-202.524155
 20
71.000015
 11
-202.524155
 21
-10.999994
  0
LINE
  8
0
 10
-202.524155
 20
71.000015
 11
-173.524170
 21
71.000015
  0
LINE
  8
0
 10
-167.524170
 20
40.000008
 11
-167.524170
 21
20.000191
  0
LINE
  8
0
 10
-169.524261
 20
41.999931
 11
-167.524261
 21
39.999943
  0
LINE
  8
0
  6
CENTER
 62
     2
 10
-193.052841
 20
47.000015
 11
-182.666824
 21
47.000015
  0
LINE
  8
0
  6
CENTER
 62
     2
 10
-195.255737
 20
58.500008
 11
-181.541733
 21
58.500008
  0
LINE
  8
0
 10
-185.714890
 20
58.500031
 11
-186.869583
 21
56.500046
  0
LINE
  8
0
 10
-186.869583
 20
60.499939
 11
-185.714890
 21
58.499950
  0
LINE
  8
0
 10
-189.178864
 20
60.500015
 11
-186.869461
 21
60.500015
  0
LINE
  8
0
 10
-190.333664
 20
58.500050
 11
-189.178970
 21
60.500038
  0
LINE
  8
0
 10
-189.179199
 20
56.499847
 11
-190.333878
 21
58.499809
  0
LINE
  8
0
 10
-186.869461
 20
56.499977
 11
-189.178864
 21
56.499977
  0
LINE
  8
0
  6
CENTER
 62
     2
 10
-188.024185
 20
75.792824
 11
-188.024185
 21
-15.108595
  0
LINE
  8
0
 10
-203.524155
 20
-11.999990
 11
-169.524185
 21
-11.999990
  0
LINE
  8
0
 10
-202.524155
 20
-10.999994
 11
-173.524170
 21
-10.999994
  0
LINE
  8
0
 10
-169.524261
 20
18.000153
 11
-167.524246
 21
20.000166
  0
LINE
  8
0
  6
CENTER
 62
     2
 10
-193.052841
 20
13.000010
 11
-182.401840
 21
13.000010
  0
LINE
  8
0
  6
CENTER
 62
     2
 10
-195.388245
 20
1.500006
 11
-179.972000
 21
1.500006
  0
LINE
  8
0
 10
-185.714813
 20
1.500043
 11
-186.869507
 21
3.500031
  0
LINE
  8
0
 10
-186.869324
 20
-0.500047
 11
-185.714630
 21
1.499941
  0
LINE
  8
0
 10
-189.178864
 20
-0.499998
 11
-186.869461
 21
-0.499998
  0
LINE
  8
0
 10
-190.333588
 20
1.500046
 11
-189.178879
 21
-0.499950
  0
LINE
  8
0
 10
-189.178833
 20
3.499940
 11
-190.333542
 21
1.499942
  0
LINE
  8
0
 10
-186.869461
 20
3.500040
 11
-189.178864
 21
3.500040
  0
LINE
  8
0
  6
CENTER
 62
     2
 10
-206.767715
 20
30.000010
 11
-164.391693
 21
30.000010
  0
LINE
  8
0
 10
-178.209290
 20
30.000063
 11
-183.116776
 21
21.500057
  0
LINE
  8
0
 10
-183.116776
 20
38.499962
 11
-178.209305
 21
29.999966
  0
LINE
  8
0
 10
-192.931641
 20
38.500004
 11
-183.116684
 21
38.500004
  0
LINE
  8
0
 10
-197.839157
 20
30.000050
 11
-192.931686
 21
38.500034
  0
LINE
  8
0
 10
-192.931961
 20
21.499893
 11
-197.839432
 21
29.999882
  0
LINE
  8
0
 10
-183.116684
 20
21.499983
 11
-192.931641
 21
21.499983
  0
LINE
  8
0
 62
     4
 10
-203.524200
 20
95.000145
 11
-169.524185
 21
95.000145
  0
LINE
  8
0
 62
     4
 10
-203.524200
 20
72.000015
 11
-203.524200
 21
95.000145
  0
LINE
  8
0
 62
     4
 10
-169.524185
 20
95.000145
 11
-169.524185
 21
72.000015
  0
LINE
  8
0
  6
CENTER
 62
     1
 10
-196.755188
 20
81.000008
 11
-176.018829
 21
81.000008
  0
LINE
  8
0
  6
CENTER
 62
     1
 10
-186.524200
 20
91.168793
 11
-186.524200
 21
72.296387
  0
LINE
  8
0
  6
CENTER
 62
     2
 10
159.822998
 20
29.999956
 11
201.361847
 21
29.999956
  0
LINE
  8
0
  6
CENTER
 62
     2
 10
175.062897
 20
13.149691
 11
175.062897
 21
20.864796
  0
LINE
  8
0
 10
164.562912
 20
71.999962
 11
164.562912
 21
40.199955
  0
LINE
  8
0
 10
198.562927
 20
71.999962
 11
198.562927
 21
-12.000044
  0
LINE
  8
0
 10
164.562912
 20
71.999962
 11
198.562927
 21
71.999962
  0
LINE
  8
0
  6
CENTER
 62
     2
 10
183.062912
 20
74.504845
 11
183.062912
 21
-15.629858
  0
LINE
  8
0
  6
CENTER
 62
     2
 10
168.368744
 20
52.499954
 11
176.680588
 21
52.499954
  0
LINE
  8
0
  6
CENTER
 62
     2
 10
193.562927
 20
59.706100
 11
193.562927
 21
48.541977
  0
LINE
  8
0
  6
CENTER
 62
     2
 10
172.562912
 20
59.115265
 11
172.562912
 21
48.363228
  0
LINE
  8
0
  6
CENTER
 62
     2
 10
189.371750
 20
52.499954
 11
198.305786
 21
52.499954
  0
LINE
  8
0
 10
167.162918
 20
41.199955
 11
167.162918
 21
18.799957
  0
LINE
  8
0
 10
165.462936
 20
41.199955
 11
165.462936
 21
40.199955
  0
LINE
  8
0
 10
164.562912
 20
40.199955
 11
165.462906
 21
40.199955
  0
LINE
  8
0
 10
165.462906
 20
41.199963
 11
167.162918
 21
41.199963
  0
LINE
  8
0
 10
162.562897
 20
39.999954
 11
162.562897
 21
19.999956
  0
LINE
  8
0
 10
162.562988
 20
39.999855
 11
164.562988
 21
41.999859
  0
LINE
  8
0
  6
CENTER
 62
     2
 10
165.212891
 20
38.201355
 11
165.212891
 21
33.017345
  0
LINE
  8
0
  6
CENTER
 62
     2
 10
160.950668
 20
35.499954
 11
168.279388
 21
35.499954
  0
LINE
  8
0
 10
162.562897
 20
37.249958
 11
167.162918
 21
37.249958
  0
LINE
  8
0
 10
162.562897
 20
33.749958
 11
167.162918
 21
33.749958
  0
LINE
  8
0
 10
164.562912
 20
-12.000044
 11
164.562912
 21
19.799953
  0
LINE
  8
0
 10
164.562912
 20
-12.000044
 11
198.562927
 21
-12.000044
  0
LINE
  8
0
  6
CENTER
 62
     2
 10
168.547485
 20
7.499956
 11
176.680588
 21
7.499956
  0
LINE
  8
0
  6
CENTER
 62
     2
 10
193.562927
 20
3.586622
 11
193.562927
 21
11.540953
  0
LINE
  8
0
  6
CENTER
 62
     2
 10
172.562912
 20
3.586622
 11
172.562912
 21
11.362200
  0
LINE
  8
0
  6
CENTER
 62
     2
 10
189.282394
 20
7.499956
 11
197.598175
 21
7.499956
  0
LINE
  8
0
 10
165.462936
 20
18.799957
 11
165.462936
 21
19.799953
  0
LINE
  8
0
 10
164.562912
 20
19.799953
 11
165.462906
 21
19.799953
  0
LINE
  8
0
 10
165.462906
 20
18.799957
 11
167.162918
 21
18.799957
  0
LINE
  8
0
 10
162.562851
 20
19.999924
 11
164.562851
 21
17.999918
  0
LINE
  8
0
  6
CENTER
 62
     2
 10
165.212891
 20
20.835897
 11
165.212891
 21
28.611475
  0
LINE
  8
0
 62
     2
 10
161.129410
 20
24.499956
 11
168.726242
 21
24.499956
  0
LINE
  8
0
 10
162.562897
 20
22.749958
 11
167.162918
 21
22.749958
  0
LINE
  8
0
 10
162.562897
 20
26.249958
 11
167.162918
 21
26.249958
  0
LINE
  8
0
  6
CENTER
 62
     2
 10
187.812912
 20
16.999958
 11
198.312912
 21
16.999958
  0
LINE
  8
0
  6
CENTER
 62
     2
 10
193.062927
 20
10.647205
 11
193.062927
 21
23.338379
  0
LINE
  8
0
 10
195.372437
 20
16.999933
 11
194.217728
 21
14.999929
  0
LINE
  8
0
 10
194.217972
 20
19.000109
 11
195.372665
 21
17.000111
  0
LINE
  8
0
 10
191.908203
 20
18.999962
 11
194.217606
 21
18.999962
  0
LINE
  8
0
 10
190.753571
 20
16.999912
 11
191.908264
 21
18.999899
  0
LINE
  8
0
 10
191.908585
 20
15.000153
 11
190.753906
 21
17.000130
  0
LINE
  8
0
 10
194.217606
 20
14.999978
 11
191.908234
 21
14.999978
  0
LINE
  8
0
  6
CENTER
 62
     2
 10
166.760025
 20
42.999954
 11
179.540543
 21
42.999954
  0
LINE
  8
0
  6
CENTER
 62
     2
 10
173.062912
 20
49.346344
 11
173.062912
 21
36.744553
  0
LINE
  8
0
 10
175.372360
 20
42.999928
 11
174.217667
 21
40.999939
  0
LINE
  8
0
 10
174.217957
 20
45.000099
 11
175.372635
 21
43.000122
  0
LINE
  8
0
 10
171.908203
 20
44.999962
 11
174.217606
 21
44.999962
  0
LINE
  8
0
 10
170.753555
 20
42.999905
 11
171.908249
 21
44.999889
  0
LINE
  8
0
 10
171.908585
 20
41.000107
 11
170.753891
 21
43.000095
  0
LINE
  8
0
 10
174.217606
 20
40.999981
 11
171.908234
 21
40.999981
  0
LINE
  8
0
  6
CENTER
 62
     2
 10
186.779907
 20
42.999954
 11
195.672012
 21
42.999954
  0
LINE
  8
0
  6
CENTER
 62
     2
 10
170.871231
 20
16.999958
 11
180.473541
 21
16.999958
  0
LINE
  8
0
  6
CENTER
 62
     2
 10
191.062912
 20
47.638763
 11
191.062912
 21
38.800163
  0
LINE
  8
0
 62
     4
 10
164.562912
 20
95.000092
 11
198.562927
 21
95.000092
  0
LINE
  8
0
 62
     4
 10
164.562912
 20
71.999962
 11
164.562912
 21
95.000092
  0
LINE
  8
0
 62
     4
 10
198.562927
 20
95.000092
 11
198.562927
 21
71.999962
  0
LINE
  8
0
  6
CENTER
 62
     1
 10
171.331924
 20
80.999954
 11
192.068283
 21
80.999954
  0
LINE
  8
0
  6
CENTER
 62
     1
 10
181.562912
 20
91.168739
 11
181.562912
 21
72.296333
  0
LINE
  8
0
 10
-85.000038
 20
-88.711472
 11
-75.000031
 21
-88.711472
  0
LINE
  8
0
  6
CENTER
 62
     2
 10
69.586998
 20
-103.211487
 11
-89.986282
 21
-103.211487
  0
LINE
  8
0
 10
-85.000038
 20
-88.711487
 11
-85.000038
 21
-117.711472
  0
LINE
  8
0
 10
-68.000031
 20
-118.711479
 11
-9.997658
 21
-118.711479
  0
LINE
  8
0
 10
55.000786
 20
-118.711479
 11
66.000786
 21
-118.711479
  0
LINE
  8
0
 10
-68.000031
 20
-84.711487
 11
-9.999649
 21
-84.711487
  0
LINE
  8
0
 10
55.000786
 20
-84.711487
 11
66.000786
 21
-84.711487
  0
LINE
  8
0
 10
-68.000031
 20
-84.711487
 11
-68.000031
 21
-118.711479
  0
LINE
  8
0
 10
-9.999649
 20
-82.711472
 11
-9.999649
 21
-118.711479
  0
LINE
  8
0
 10
55.000786
 20
-82.711472
 11
55.000786
 21
-118.711479
  0
LINE
  8
0
 10
66.000786
 20
-82.711472
 11
66.000786
 21
-118.711479
  0
LINE
  8
0
 10
-9.997658
 20
-118.511482
 11
55.000786
 21
-118.511482
  0
LINE
  8
0
 10
-9.999649
 20
-84.911484
 11
55.000786
 21
-84.911484
  0
LINE
  8
0
 10
-85.000038
 20
-117.711472
 11
-75.000031
 21
-117.711472
  0
LINE
  8
0
 10
-70.000031
 20
-95.804390
 11
-70.000031
 21
-97.211487
  0
LINE
  8
0
 10
-70.657494
 20
-93.396515
 11
-70.000023
 21
-95.850235
  0
LINE
  8
0
 10
-70.657501
 20
-93.396523
 11
-74.342560
 21
-93.396523
  0
LINE
  8
0
 10
-75.000031
 20
-88.711472
 11
-75.000031
 21
-117.711472
  0
LINE
  8
0
 10
-74.342628
 20
-93.396500
 11
-75.000092
 21
-95.850204
  0
LINE
  8
0
 10
-74.342705
 20
-113.026428
 11
-70.657509
 21
-113.026428
  0
LINE
  8
0
 10
-70.000031
 20
-110.618591
 11
-70.000031
 21
-109.211479
  0
LINE
  8
0
 10
-70.657555
 20
-113.026436
 11
-70.000084
 21
-110.572708
  0
LINE
  8
0
 10
-74.342796
 20
-113.026505
 11
-75.000259
 21
-110.572777
  0
LINE
  8
0
 10
-68.000031
 20
-97.211487
 11
-75.000031
 21
-97.211487
  0
LINE
  8
0
 10
-68.000031
 20
-109.211479
 11
-75.000031
 21
-109.211479
  0
LINE
  8
0
  6
CENTER
 62
     2
 10
-77.000031
 20
-113.211464
 11
-83.000031
 21
-113.211464
  0
LINE
  8
0
  6
CENTER
 62
     2
 10
-75.890831
 20
-93.211479
 11
-83.076599
 21
-93.211479
  0
LINE
  8
0
  6
CENTER
 62
     2
 10
-80.000031
 20
-89.345581
 11
-80.000031
 21
-97.300056
  0
LINE
  8
0
  6
CENTER
 62
     2
 10
-80.000031
 20
-109.104111
 11
-80.000031
 21
-117.092705
  0
LINE
  8
0
  6
CENTER
 62
     2
 10
-62.500031
 20
-86.691071
 11
-62.500031
 21
-94.319244
  0
LINE
  8
0
  6
CENTER
 62
     2
 10
-15.499649
 20
-86.359261
 11
-15.499649
 21
-94.319244
  0
LINE
  8
0
  6
CENTER
 62
     2
 10
-65.822296
 20
-113.211464
 11
-58.482834
 21
-113.211464
  0
LINE
  8
0
  6
CENTER
 62
     2
 10
-65.988205
 20
-90.211479
 11
-59.500031
 21
-90.211479
  0
LINE
  8
0
  6
CENTER
 62
     2
 10
-62.500031
 20
-109.104111
 11
-62.500031
 21
-117.092705
  0
LINE
  8
0
  6
CENTER
 62
     2
 10
-20.217102
 20
-90.211479
 11
-11.393875
 21
-90.211479
  0
LINE
  8
0
  6
CENTER
 62
     2
 10
-15.499649
 20
-108.627190
 11
-15.499649
 21
-117.331169
  0
LINE
  8
0
  6
CENTER
 62
     2
 10
-20.217102
 20
-113.211464
 11
-11.155411
 21
-113.211464
  0
LINE
  8
0
  6
CENTER
 62
     2
 10
64.368523
 20
-113.211464
 11
56.466454
 21
-113.211464
  0
LINE
  8
0
  6
CENTER
 62
     2
 10
64.368523
 20
-90.211479
 11
56.358971
 21
-90.211479
  0
LINE
  8
0
  6
CENTER
 62
     2
 10
60.500786
 20
-86.525154
 11
60.500786
 21
-94.124084
  0
LINE
  8
0
  6
CENTER
 62
     2
 10
60.500786
 20
-109.171501
 11
60.500786
 21
-117.232643
  0
LINE
  8
0
 10
-13.999619
 20
-82.711472
 11
-9.999649
 21
-82.711472
  0
LINE
  8
0
 10
-9.999649
 20
-82.911476
 11
55.000786
 21
-82.911476
  0
LINE
  8
0
 10
55.000786
 20
-82.711472
 11
66.000786
 21
-82.711472
  0
LINE
  8
0
  6
CENTER
 62
     1
 10
64.928734
 20
-101.711487
 11
78.394066
 21
-101.711487
  0
LINE
  8
0
 62
     4
 10
77.000786
 20
-94.711525
 11
77.000786
 21
-108.711525
  0
LINE
  8
0
 62
     4
 10
66.000786
 20
-93.711517
 11
76.000786
 21
-93.711517
  0
LINE
  8
0
 62
     1
 10
66.000786
 20
-94.711517
 11
77.000786
 21
-94.711517
  0
LINE
  8
0
 62
     1
 10
66.000786
 20
-108.711517
 11
77.000786
 21
-108.711517
  0
LINE
  8
0
 62
     4
 10
66.000786
 20
-109.711517
 11
76.000786
 21
-109.711517
  0
LINE
  8
0
 62
     4
 10
77.000755
 20
-94.711540
 11
76.000755
 21
-93.711533
  0
LINE
  8
0
 62
     4
 10
77.000771
 20
-108.711472
 11
76.000771
 21
-109.711472
  0
LINE
  8
0
 62
     4
 10
76.000786
 20
-109.711533
 11
76.000786
 21
-93.711525
  0
LINE
  8
0
 10
-15.999593
 20
-84.711487
 11
-13.999573
 21
-82.711472
  0
LINE
  8
0
  6
PHANTOM
 62
     3
 10
22.500572
 20
-47.198891
 11
22.500572
 21
-134.368759
  0
LINE
  8
0
 10
-281.250000
 20
195.500000
 11
282.099976
 21
195.500000
  0
LINE
  8
0
 10
-281.250000
 20
195.500000
 11
-281.250000
 21
-195.000000
  0
LINE
  8
0
 10
282.099976
 20
195.500000
 11
282.099976
 21
-195.000000
  0
LINE
  8
0
 10
-281.250000
 20
-195.000000
 11
282.099976
 21
-195.000000
  0
LINE
  8
0
 10
162.099976
 20
-175.000000
 11
162.099976
 21
-195.000000
  0
LINE
  8
0
 10
162.099976
 20
-175.000000
 11
282.099976
 21
-175.000000
  0
LINE
  8
0
 10
162.099976
 20
175.500000
 11
282.099976
 21
175.500000
  0
LINE
  8
0
 10
-281.250000
 20
175.500000
 11
-161.250000
 21
175.500000
  0
LINE
  8
0
 10
162.099976
 20
195.500000
 11
162.099976
 21
175.500000
  0
LINE
  8
0
 10
-161.250000
 20
195.500000
 11
-161.250000
 21
175.500000
  0
LINE
  8
0
 10
-271.250000
 20
-185.000000
 11
-67.250000
 21
-185.000000
  0
LINE
  8
0
 10
-271.250000
 20
-177.000000
 11
-67.250000
 21
-177.000000
  0
LINE
  8
0
 10
-271.250000
 20
-161.000000
 11
-271.250000
 21
-185.000000
  0
LINE
  8
0
 10
-221.250000
 20
-161.000000
 11
-221.250000
 21
-185.000000
  0
LINE
  8
0
 10
-199.250000
 20
-161.000000
 11
-199.250000
 21
-185.000000
  0
LINE
  8
0
 10
-177.250000
 20
-161.000000
 11
-177.250000
 21
-185.000000
  0
LINE
  8
0
 10
-155.250000
 20
-161.000000
 11
-155.250000
 21
-185.000000
  0
LINE
  8
0
 10
-133.250000
 20
-161.000000
 11
-133.250000
 21
-185.000000
  0
LINE
  8
0
 10
-111.250000
 20
-161.000000
 11
-111.250000
 21
-185.000000
  0
LINE
  8
0
 10
-271.250000
 20
-161.000000
 11
-67.250000
 21
-161.000000
  0
LINE
  8
0
 10
-271.250000
 20
-161.000031
 11
-221.250015
 21
-177.000031
  0
LINE
  8
0
 10
-89.250000
 20
-161.000000
 11
-89.250000
 21
-185.000000
  0
LINE
  8
0
 10
-67.250000
 20
-161.000000
 11
-67.250000
 21
-185.000000
  0
CIRCLE
  8
0
 10
-80.000015
 20
50.999992
 40
2.100000
  0
ARC
  8
0
 10
36.290810
 20
29.999992
 40
1.250000
 50
270.000000
 51
90.000000
  0
CIRCLE
  8
0
 10
-80.000015
 20
8.999990
 40
2.100000
  0
ARC
  8
0
 10
33.790794
 20
29.999992
 40
1.250000
 50
90.000000
 51
270.000000
  0
CIRCLE
  8
0
 62
     2
 10
-80.000015
 20
8.999990
 40
2.500000
  0
ARC
  8
0
 10
35.040817
 20
31.249989
 40
0.500000
 50
180.000000
 51
0.000000
  0
ARC
  8
0
 10
63.251724
 20
35.499989
 40
1.750000
 50
90.000000
 51
270.000000
  0
CIRCLE
  8
0
 10
-61.500008
 20
17.499992
 40
2.750000
  0
ARC
  8
0
 10
-87.688873
 20
25.749989
 40
17.688862
 50
346.097809
 51
13.902088
  0
ARC
  8
0
 10
-57.311146
 20
34.249996
 40
17.688864
 50
166.097824
 51
193.902100
  0
ARC
  8
0
 10
63.251724
 20
24.499994
 40
1.750000
 50
89.999878
 51
270.000000
  0
CIRCLE
  8
0
 10
-22.999638
 20
17.499992
 40
4.750000
  0
CIRCLE
  8
0
 10
-22.999638
 20
17.499992
 40
2.750000
  0
CIRCLE
  8
0
 10
-61.500008
 20
17.499992
 40
4.750000
  0
ARC
  8
0
 10
-87.688873
 20
34.249996
 40
17.688866
 50
346.097870
 51
13.902143
  0
ARC
  8
0
 10
35.040817
 20
28.749992
 40
0.500000
 50
0.000000
 51
180.000000
  0
ARC
  8
0
 10
-57.311146
 20
25.749989
 40
17.688862
 50
166.097885
 51
193.902161
  0
CIRCLE
  8
0
 62
     2
 10
-80.000015
 20
50.999992
 40
2.500000
  0
CIRCLE
  8
0
 10
-61.500008
 20
42.499989
 40
2.750000
  0
CIRCLE
  8
0
 10
-22.999638
 20
42.499989
 40
2.750000
  0
CIRCLE
  8
0
 10
-61.500008
 20
42.499989
 40
4.750000
  0
CIRCLE
  8
0
 10
-22.999638
 20
42.499989
 40
4.750000
  0
CIRCLE
  8
0
 10
-188.024185
 20
13.000010
 40
2.500000
  0
CIRCLE
  8
0
 10
-188.024185
 20
30.000010
 40
12.500001
  0
CIRCLE
  8
0
 10
-188.024185
 20
47.000015
 40
2.500000
  0
CIRCLE
  8
0
 62
     2
 10
-188.024185
 20
30.000010
 40
3.375000
  0
CIRCLE
  8
0
 62
     4
 10
-186.524200
 20
81.000008
 40
8.000000
  0
CIRCLE
  8
0
 62
     2
 10
-188.024185
 20
47.000015
 40
3.000000
  0
CIRCLE
  8
0
 10
-188.024185
 20
58.500008
 40
4.750000
  0
CIRCLE
  8
0
 62
     1
 10
-186.524200
 20
81.000008
 40
7.000000
  0
CIRCLE
  8
0
 10
-188.024185
 20
1.500006
 40
4.750000
  0
CIRCLE
  8
0
 62
     2
 10
-188.024185
 20
13.000010
 40
3.000000
  0
CIRCLE
  8
0
 10
-188.024185
 20
58.500008
 40
4.250000
  0
ARC
  8
0
 10
-188.024185
 20
30.000010
 40
4.000000
 50
0.000000
 51
179.999969
  0
CIRCLE
  8
0
 10
-188.024185
 20
1.500006
 40
4.250000
  0
ARC
  8
0
 10
-188.024185
 20
30.000010
 40
4.000000
 50
179.999969
 51
359.999939
  0
CIRCLE
  8
0
 10
193.562927
 20
52.499954
 40
2.100000
  0
CIRCLE
  8
0
 10
172.562912
 20
52.499954
 40
2.100000
  0
CIRCLE
  8
0
 10
191.062912
 20
42.999954
 40
2.100000
  0
CIRCLE
  8
0
 10
175.062897
 20
16.999958
 40
2.100000
  0
CIRCLE
  8
0
 10
193.562927
 20
7.499956
 40
2.100000
  0
CIRCLE
  8
0
 62
     2
 10
172.562912
 20
52.499954
 40
2.500000
  0
CIRCLE
  8
0
 62
     2
 10
193.562927
 20
52.499954
 40
2.500000
  0
CIRCLE
  8
0
 62
     2
 10
172.562912
 20
7.499956
 40
2.500000
  0
ARC
  8
0
 10
165.212891
 20
35.499954
 40
1.750000
 50
90.000000
 51
270.000000
  0
CIRCLE
  8
0
 62
     4
 10
181.562912
 20
80.999954
 40
8.000000
  0
CIRCLE
  8
0
 10
193.062927
 20
16.999958
 40
4.750000
  0
CIRCLE
  8
0
 10
193.062927
 20
16.999958
 40
4.250000
  0
CIRCLE
  8
0
 10
173.062912
 20
42.999954
 40
4.250000
  0
CIRCLE
  8
0
 10
173.062912
 20
42.999954
 40
4.750000
  0
ARC
  8
0
 10
165.212891
 20
24.499956
 40
1.750000
 50
90.000000
 51
270.000000
  0
CIRCLE
  8
0
 62
     2
 10
193.562927
 20
7.499956
 40
2.500000
  0
CIRCLE
  8
0
 62
     2
 10
175.062897
 20
16.999958
 40
2.500000
  0
CIRCLE
  8
0
 62
     2
 10
191.062912
 20
42.999954
 40
2.500000
  0
CIRCLE
  8
0
 62
     1
 10
181.562912
 20
80.999954
 40
7.000000
  0
CIRCLE
  8
0
 10
172.562912
 20
7.499956
 40
2.100000
  0
CIRCLE
  8
0
 10
60.500786
 20
-113.211464
 40
2.100000
  0
CIRCLE
  8
0
 10
-62.500031
 20
-113.211464
 40
2.100000
  0
CIRCLE
  8
0
 10
-80.000031
 20
-93.211479
 40
2.100000
  0
CIRCLE
  8
0
 10
60.500786
 20
-90.211479
 40
2.100000
  0
CIRCLE
  8
0
 10
-15.499649
 20
-90.211479
 40
2.100000
  0
CIRCLE
  8
0
 10
-15.499649
 20
-113.211464
 40
2.100000
  0
ARC
  8
0
 10
-75.078743
 20
-95.804375
 40
5.078920
 50
343.915894
 51
0.000000
  0
CIRCLE
  8
0
 62
     2
 10
-62.500031
 20
-113.211464
 40
2.500000
  0
ARC
  8
0
 10
-69.921310
 20
-95.804375
 40
5.078918
 50
180.000000
 51
196.084091
  0
CIRCLE
  8
0
 62
     2
 10
-62.500031
 20
-90.211479
 40
2.500000
  0
CIRCLE
  8
0
 62
     2
 10
-80.000031
 20
-93.211479
 40
2.500000
  0
ARC
  8
0
 10
-69.921310
 20
-110.618576
 40
5.078920
 50
163.915909
 51
180.000000
  0
ARC
  8
0
 10
-75.078743
 20
-110.618576
 40
5.078918
 50
359.999908
 51
16.084095
  0
CIRCLE
  8
0
 62
     2
 10
-80.000031
 20
-113.211464
 40
2.500000
  0
CIRCLE
  8
0
 62
     2
 10
-15.499649
 20
-113.211464
 40
2.500000
  0
CIRCLE
  8
0
 62
     2
 10
-15.499649
 20
-90.211479
 40
2.500000
  0
CIRCLE
  8
0
 62
     2
 10
60.500786
 20
-90.211479
 40
2.500000
  0
CIRCLE
  8
0
 62
     2
 10
60.500786
 20
-113.211464
 40
2.500000
  0
CIRCLE
  8
0
 10
-80.000031
 20
-113.211464
 40
2.100000
  0
CIRCLE
  8
0
 10
-62.500031
 20
-90.211479
 40
2.100000
  0
TEXT
  8
0
 10
196.250259
 20
180.830002
 40
6.300000
  1
Ver. 2.0
 50
0.000000
 41
1.052632
 51
0.000000
  7
STANDARD
  0
TEXT
  8
0
 10
167.564667
 20
-192.100006
 40
9.000000
  1
KOGANEI CORP.
 50
0.000000
 41
1.052632
 51
0.000000
  7
STANDARD
  0
TEXT
  8
0
 10
-262.849731
 20
180.830002
 40
6.300000
  1
AXIS CYLINDER
 50
0.000000
 41
1.052632
 51
0.000000
  7
STANDARD
  0
TEXT
  8
0
 10
-270.049988
 20
155.830002
 40
6.300000
  1
MODEL:XDAQ25*ST(25)-SSL
 50
0.000000
 41
1.052631
 51
0.000000
  7
STANDARD
  0
TEXT
  8
0
 10
-87.642860
 20
-160.050003
 40
4.500000
  1
(mm)
 50
0.000000
 41
1.052632
 51
0.000000
  7
STANDARD
  0
TEXT
  8
0
 10
-215.142853
 20
-172.050003
 40
4.500000
  1
25
 50
0.000000
 41
1.052632
 51
0.000000
  7
STANDARD
  0
TEXT
  8
0
 10
-193.142853
 20
-172.050003
 40
4.500000
  1
50
 50
0.000000
 41
1.052632
 51
0.000000
  7
STANDARD
  0
TEXT
  8
0
 10
-171.142853
 20
-172.050003
 40
4.500000
  1
75
 50
0.000000
 41
1.052632
 51
0.000000
  7
STANDARD
  0
TEXT
  8
0
 10
-151.392853
 20
-172.050003
 40
4.500000
  1
100
 50
0.000000
 41
1.052632
 51
0.000000
  7
STANDARD
  0
TEXT
  8
0
 10
-85.392853
 20
-172.050003
 40
4.500000
  1
175
 50
0.000000
 41
1.052632
 51
0.000000
  7
STANDARD
  0
TEXT
  8
0
 10
-212.892853
 20
-184.050003
 40
4.500000
  1
0
 50
0.000000
 41
1.052632
 51
0.000000
  7
STANDARD
  0
TEXT
  8
0
 10
-193.142853
 20
-184.050003
 40
4.500000
  1
25
 50
0.000000
 41
1.052632
 51
0.000000
  7
STANDARD
  0
TEXT
  8
0
 10
-171.142853
 20
-184.050003
 40
4.500000
  1
50
 50
0.000000
 41
1.052632
 51
0.000000
  7
STANDARD
  0
TEXT
  8
0
 10
-149.142853
 20
-184.050003
 40
4.500000
  1
75
 50
0.000000
 41
1.052632
 51
0.000000
  7
STANDARD
  0
TEXT
  8
0
 10
-85.392853
 20
-184.050003
 40
4.500000
  1
150
 50
0.000000
 41
1.052632
 51
0.000000
  7
STANDARD
  0
TEXT
  8
0
 10
-250.377258
 20
-168.050003
 40
4.500000
  1
STROKE
 50
0.000000
 41
1.052632
 51
0.000000
  7
STANDARD
  0
TEXT
  8
0
 10
-265.408447
 20
-176.050003
 40
4.500000
  1
TYPE
 50
0.000000
 41
1.052632
 51
0.000000
  7
STANDARD
  0
TEXT
  8
0
 10
-264.000000
 20
-182.699997
 40
4.500000
  1
XDAQ25
 50
0.000000
 41
1.052632
 51
0.000000
  7
STANDARD
  0
TEXT
  8
0
 10
-196.642853
 20
-159.050003
 40
4.500000
  1
STRETCH LIST
 50
0.000000
 41
1.052632
 51
0.000000
  7
STANDARD
  0
TEXT
  8
0
 10
-129.392853
 20
-172.050003
 40
4.500000
  1
125
 50
0.000000
 41
1.052632
 51
0.000000
  7
STANDARD
  0
TEXT
  8
0
 10
-129.392853
 20
-184.050003
 40
4.500000
  1
100
 50
0.000000
 41
1.052632
 51
0.000000
  7
STANDARD
  0
TEXT
  8
0
 10
-107.392853
 20
-172.050003
 40
4.500000
  1
150
 50
0.000000
 41
1.052632
 51
0.000000
  7
STANDARD
  0
TEXT
  8
0
 10
-107.392853
 20
-184.050003
 40
4.500000
  1
125
 50
0.000000
 41
1.052632
 51
0.000000
  7
STANDARD
  0
TEXT
  8
0
 62
     3
 10
-16.580517
 20
115.427719
 40
6.300000
  1
STRETCH LINE
 50
0.000000
 41
1.052632
 51
0.000000
  7
STANDARD
  0
ENDSEC
  0
EOF
