  0
SECTION
  2
HEADER
  0
ENDSEC
  0
SECTION
  2
TABLES
  0
TABLE
  2
LTYPE
 70
     4
  0
LTYPE
  2
CONTINUOUS
 70
    64
  3
Solid line
 72
    65
 73
     0
 40
0.000000
  0
LTYPE
  2
DASHED
 70
    64
  3
__ __ __ __ __ __ __ __ __ __ __ __ __ __ __
 72
    65
 73
     2
 40
3.500000
 49
2.000000
 49
-1.500000
  0
LTYPE
  2
CENTER
 70
    64
  3
____ _ ____ _ ____ _ ____ _ ____ _ ____ _ ____
 72
    65
 73
     4
 40
17.500000
 49
13.000000
 49
-1.500000
 49
1.500000
 49
-1.500000
  0
LTYPE
  2
PHANTOM
 70
    64
  3
_____ _ _ _____ _ _ _____ _ _ _____ _ _ ____  
 72
    65
 73
     6
 40
15.500000
 49
8.000000
 49
-1.500000
 49
1.500000
 49
-1.500000
 49
1.500000
 49
-1.500000
  0
ENDTAB
  0
TABLE
  2
LAYER
 70
     1
  0
LAYER
  2
0
 70
     0
 62
     7
  6
CONTINUOUS
  0
ENDTAB
  0
TABLE
  2
STYLE
 70
     1
  0
STYLE
  2
STANDARD
 70
     0
 40
0.000000
 41
1.000000
 50
0.000000
 71
     0
 42
0.200000
  3
txt
  4
BIGFONT
  0
ENDTAB
  0
TABLE
  2
VIEW
 70
     0
  0
ENDTAB
  0
ENDSEC
  0
SECTION
  2
BLOCKS
  0
ENDSEC
  0
SECTION
  2
ENTITIES
  0
LINE
  8
0
  6
CONTINUOUS
 62
7
 10
-281.250000
 20
195.500000
 11
282.100006
 21
195.500000
  0
LINE
  8
0
  6
CONTINUOUS
 62
7
 10
-281.250000
 20
195.500000
 11
-281.250000
 21
-195.000000
  0
LINE
  8
0
  6
CONTINUOUS
 62
7
 10
282.100006
 20
195.500000
 11
282.100006
 21
-195.000000
  0
LINE
  8
0
  6
CONTINUOUS
 62
7
 10
-281.250000
 20
-195.000000
 11
282.100006
 21
-195.000000
  0
LINE
  8
0
  6
CONTINUOUS
 62
7
 10
162.100006
 20
-175.000000
 11
162.100006
 21
-195.000000
  0
LINE
  8
0
  6
CONTINUOUS
 62
7
 10
162.100006
 20
-175.000000
 11
282.100006
 21
-175.000000
  0
LINE
  8
0
  6
CONTINUOUS
 62
7
 10
162.100006
 20
175.500000
 11
282.100006
 21
175.500000
  0
LINE
  8
0
  6
CONTINUOUS
 62
7
 10
-281.250000
 20
175.500000
 11
-161.250000
 21
175.500000
  0
LINE
  8
0
  6
CONTINUOUS
 62
7
 10
162.100006
 20
195.500000
 11
162.100006
 21
175.500000
  0
LINE
  8
0
  6
CONTINUOUS
 62
7
 10
-161.250000
 20
195.500000
 11
-161.250000
 21
175.500000
  0
LINE
  8
0
  6
CONTINUOUS
 62
7
 10
-271.250000
 20
-185.000000
 11
42.750000
 21
-185.000000
  0
LINE
  8
0
  6
CONTINUOUS
 62
7
 10
-271.250000
 20
-177.000000
 11
42.750000
 21
-177.000000
  0
LINE
  8
0
  6
CONTINUOUS
 62
7
 10
-271.250000
 20
-161.000000
 11
-271.250000
 21
-185.000000
  0
LINE
  8
0
  6
CONTINUOUS
 62
7
 10
-221.250000
 20
-161.000000
 11
-221.250000
 21
-185.000000
  0
LINE
  8
0
  6
CONTINUOUS
 62
7
 10
-199.250000
 20
-161.000000
 11
-199.250000
 21
-185.000000
  0
LINE
  8
0
  6
CONTINUOUS
 62
7
 10
-177.250000
 20
-161.000000
 11
-177.250000
 21
-185.000000
  0
LINE
  8
0
  6
CONTINUOUS
 62
7
 10
-155.250000
 20
-161.000000
 11
-155.250000
 21
-185.000000
  0
LINE
  8
0
  6
CONTINUOUS
 62
7
 10
-133.250000
 20
-161.000000
 11
-133.250000
 21
-185.000000
  0
LINE
  8
0
  6
CONTINUOUS
 62
7
 10
-111.250000
 20
-161.000000
 11
-111.250000
 21
-185.000000
  0
LINE
  8
0
  6
CONTINUOUS
 62
7
 10
-271.250000
 20
-161.000000
 11
42.750000
 21
-161.000000
  0
LINE
  8
0
  6
CONTINUOUS
 62
7
 10
-271.250000
 20
-161.000000
 11
-221.250000
 21
-177.000000
  0
LINE
  8
0
  6
CONTINUOUS
 62
7
 10
-89.250000
 20
-161.000000
 11
-89.250000
 21
-185.000000
  0
LINE
  8
0
  6
CONTINUOUS
 62
7
 10
-67.250000
 20
-161.000000
 11
-67.250000
 21
-185.000000
  0
LINE
  8
0
  6
CONTINUOUS
 62
7
 10
-45.250000
 20
-161.000000
 11
-45.250000
 21
-185.000000
  0
LINE
  8
0
  6
CONTINUOUS
 62
7
 10
-23.250000
 20
-161.000000
 11
-23.250000
 21
-185.000000
  0
LINE
  8
0
  6
CONTINUOUS
 62
7
 10
-1.250000
 20
-161.000000
 11
-1.250000
 21
-185.000000
  0
LINE
  8
0
  6
CONTINUOUS
 62
7
 10
20.750000
 20
-161.000000
 11
20.750000
 21
-185.000000
  0
LINE
  8
0
  6
CONTINUOUS
 62
7
 10
42.750000
 20
-161.000000
 11
42.750000
 21
-185.000000
  0
TEXT
  8
0
 62
7
 10
199.780289
 20
183.925003
 40
6.300000
  1
Ver. 2.0
 50
0.000000
 41
0.904874
 51
0.000000
  7
STANDARD
  0
TEXT
  8
0
 62
7
 10
172.714691
 20
-187.250000
 40
9.000000
  1
KOGANEI CORP.
 50
0.000000
 41
0.771524
 51
0.000000
  7
STANDARD
  0
TEXT
  8
0
 62
7
 10
-259.319733
 20
183.925003
 40
6.300000
  1
AXIS CYLINDER
 50
0.000000
 41
0.794216
 51
0.000000
  7
STANDARD
  0
TEXT
  8
0
 62
7
 10
-222.025848
 20
-46.583302
 40
4.500000
  1
D-2
 50
0.000000
 41
0.928573
 51
0.000000
  7
STANDARD
  0
TEXT
  8
0
 62
7
 10
-9.916673
 20
-44.583302
 40
4.500000
  1
D-1
 50
0.000000
 41
0.928573
 51
0.000000
  7
STANDARD
  0
TEXT
  8
0
 62
7
 10
-5.583333
 20
-141.250000
 40
4.500000
  1
D-4
 50
0.000000
 41
0.928573
 51
0.000000
  7
STANDARD
  0
TEXT
  8
0
 62
7
 10
202.750000
 20
-44.583302
 40
4.500000
  1
D-3
 50
0.000000
 41
0.928573
 51
0.000000
  7
STANDARD
  0
TEXT
  8
0
 62
7
 10
-269.399994
 20
157.350006
 40
6.300000
  1
MODEL:XDAQ40*ST(25)-SSL
 50
0.000000
 41
0.787457
 51
0.000000
  7
STANDARD
  0
TEXT
  8
0
 62
7
 10
24.807144
 20
-158.125000
 40
4.500000
  1
(mm)
 50
0.000000
 41
0.964287
 51
0.000000
  7
STANDARD
  0
TEXT
  8
0
 62
7
 10
-212.692856
 20
-170.125000
 40
4.500000
  1
25
 50
0.000000
 41
1.142859
 51
0.000000
  7
STANDARD
  0
TEXT
  8
0
 62
7
 10
-190.692856
 20
-170.125000
 40
4.500000
  1
50
 50
0.000000
 41
1.142859
 51
0.000000
  7
STANDARD
  0
TEXT
  8
0
 62
7
 10
-168.692856
 20
-170.125000
 40
4.500000
  1
75
 50
0.000000
 41
1.142859
 51
0.000000
  7
STANDARD
  0
TEXT
  8
0
 62
7
 10
-148.942856
 20
-170.125000
 40
4.500000
  1
100
 50
0.000000
 41
1.238097
 51
0.000000
  7
STANDARD
  0
TEXT
  8
0
 62
7
 10
27.057144
 20
-170.125000
 40
4.500000
  1
300
 50
0.000000
 41
1.012988
 51
0.000000
  7
STANDARD
  0
TEXT
  8
0
 62
7
 10
-210.442856
 20
-182.125000
 40
4.500000
  1
0
 50
0.000000
 41
0.820000
 51
0.000000
  7
STANDARD
  0
TEXT
  8
0
 62
7
 10
-190.692856
 20
-182.125000
 40
4.500000
  1
25
 50
0.000000
 41
1.142859
 51
0.000000
  7
STANDARD
  0
TEXT
  8
0
 62
7
 10
-168.692856
 20
-182.125000
 40
4.500000
  1
50
 50
0.000000
 41
1.142859
 51
0.000000
  7
STANDARD
  0
TEXT
  8
0
 62
7
 10
-146.692856
 20
-182.125000
 40
4.500000
  1
75
 50
0.000000
 41
1.142859
 51
0.000000
  7
STANDARD
  0
TEXT
  8
0
 62
7
 10
27.057144
 20
-182.125000
 40
4.500000
  1
275
 50
0.000000
 41
0.928573
 51
0.000000
  7
STANDARD
  0
TEXT
  8
0
 62
7
 10
-247.926849
 20
-166.125000
 40
4.500000
  1
STROKE
 50
0.000000
 41
0.800001
 51
0.000000
  7
STANDARD
  0
TEXT
  8
0
 62
7
 10
-262.958832
 20
-174.125000
 40
4.500000
  1
TYPE
 50
0.000000
 41
0.857144
 51
0.000000
  7
STANDARD
  0
TEXT
  8
0
 62
7
 10
-264.250000
 20
-182.125000
 40
4.500000
  1
XDAQ40
 50
0.000000
 41
0.800001
 51
0.000000
  7
STANDARD
  0
TEXT
  8
0
 62
7
 10
-139.192856
 20
-157.125000
 40
4.500000
  1
STRETCH LIST
 50
0.000000
 41
0.776787
 51
0.000000
  7
STANDARD
  0
TEXT
  8
0
 62
7
 10
-126.942856
 20
-170.125000
 40
4.500000
  1
125
 50
0.000000
 41
1.114287
 51
0.000000
  7
STANDARD
  0
TEXT
  8
0
 62
7
 10
-126.942856
 20
-182.125000
 40
4.500000
  1
100
 50
0.000000
 41
1.238097
 51
0.000000
  7
STANDARD
  0
TEXT
  8
0
 62
7
 10
-104.942856
 20
-170.125000
 40
4.500000
  1
150
 50
0.000000
 41
1.114287
 51
0.000000
  7
STANDARD
  0
TEXT
  8
0
 62
7
 10
-104.942856
 20
-182.125000
 40
4.500000
  1
125
 50
0.000000
 41
1.114287
 51
0.000000
  7
STANDARD
  0
TEXT
  8
0
 62
7
 10
-82.942856
 20
-170.125000
 40
4.500000
  1
175
 50
0.000000
 41
1.114287
 51
0.000000
  7
STANDARD
  0
TEXT
  8
0
 62
7
 10
-82.942856
 20
-182.125000
 40
4.500000
  1
150
 50
0.000000
 41
1.114287
 51
0.000000
  7
STANDARD
  0
TEXT
  8
0
 62
7
 10
-60.942856
 20
-170.125000
 40
4.500000
  1
200
 50
0.000000
 41
1.012988
 51
0.000000
  7
STANDARD
  0
TEXT
  8
0
 62
7
 10
-60.942856
 20
-182.125000
 40
4.500000
  1
175
 50
0.000000
 41
1.114287
 51
0.000000
  7
STANDARD
  0
TEXT
  8
0
 62
7
 10
-38.942856
 20
-170.125000
 40
4.500000
  1
225
 50
0.000000
 41
0.928573
 51
0.000000
  7
STANDARD
  0
TEXT
  8
0
 62
7
 10
-38.942856
 20
-182.125000
 40
4.500000
  1
200
 50
0.000000
 41
1.012988
 51
0.000000
  7
STANDARD
  0
TEXT
  8
0
 62
7
 10
-16.942856
 20
-170.125000
 40
4.500000
  1
250
 50
0.000000
 41
0.928573
 51
0.000000
  7
STANDARD
  0
TEXT
  8
0
 62
7
 10
-16.942856
 20
-182.125000
 40
4.500000
  1
225
 50
0.000000
 41
0.928573
 51
0.000000
  7
STANDARD
  0
TEXT
  8
0
 62
7
 10
5.057145
 20
-170.125000
 40
4.500000
  1
275
 50
0.000000
 41
0.928573
 51
0.000000
  7
STANDARD
  0
TEXT
  8
0
 62
7
 10
5.057145
 20
-182.125000
 40
4.500000
  1
250
 50
0.000000
 41
0.928573
 51
0.000000
  7
STANDARD
  0
TEXT
  8
0
 62
3
 10
5.503700
 20
152.035995
 40
6.300000
  1
STRETCH LINE
 50
0.000000
 41
0.776787
 51
0.000000
  7
STANDARD
  0
POINT
  8
0
  62
7
  10
-100.000000
  20
35.000000
  30
0.0
  0
POINT
  8
0
  62
7
  10
91.000000
  20
35.000000
  30
0.0
  0
LINE
  8
0
  6
CENTER
 62
7
 10
-105.071999
 20
35.000000
 11
95.622398
 21
35.000000
  0
LINE
  8
0
  6
CONTINUOUS
 62
7
 10
-100.000000
 20
96.000000
 11
-100.000000
 21
-26.000000
  0
LINE
  8
0
  6
CENTER
 62
7
 10
-100.128998
 20
65.000000
 11
-86.064301
 21
65.000000
  0
LINE
  8
0
  6
CONTINUOUS
 62
7
 10
-75.000000
 20
97.000000
 11
-75.000000
 21
-27.000000
  0
LINE
  8
0
  6
CONTINUOUS
 62
7
 10
-85.000000
 20
96.000000
 11
-85.000000
 21
-26.000000
  0
LINE
  8
0
  6
CONTINUOUS
 62
7
 10
75.000000
 20
97.000000
 11
91.000000
 21
97.000000
  0
LINE
  8
0
  6
CONTINUOUS
 62
7
 10
6.000050
 20
96.800003
 11
75.000000
 21
96.800003
  0
LINE
  8
0
  6
CONTINUOUS
 62
7
 10
-75.000000
 20
97.000000
 11
6.000050
 21
97.000000
  0
LINE
  8
0
  6
CONTINUOUS
 62
7
 10
-100.000000
 20
96.000000
 11
-85.000000
 21
96.000000
  0
LINE
  8
0
  6
CONTINUOUS
 62
7
 10
-77.000000
 20
46.000000
 11
-77.000000
 21
24.000000
  0
LINE
  8
0
  6
CONTINUOUS
 62
7
 10
-77.000000
 20
46.000000
 11
-85.000000
 21
46.000000
  0
LINE
  8
0
  6
CONTINUOUS
 62
7
 10
-77.000000
 20
42.000000
 11
-75.000000
 21
42.000000
  0
LINE
  8
0
  6
CONTINUOUS
 62
7
 10
-77.000000
 20
41.000099
 11
-75.267899
 21
42.000099
  0
LINE
  8
0
  6
CENTER
 62
7
 10
-92.500000
 20
72.943703
 11
-92.500000
 21
58.529701
  0
LINE
  8
0
  6
CENTER
 62
7
 10
-12.500000
 20
64.108498
 11
-12.500000
 21
44.242802
  0
LINE
  8
0
  6
CENTER
 62
7
 10
-76.989304
 20
53.500000
 11
-56.344501
 21
53.500000
  0
LINE
  8
0
  6
CONTINUOUS
 62
7
 10
0.000046
 20
47.000000
 11
0.000046
 21
23.000000
  0
LINE
  8
0
  6
CONTINUOUS
 62
7
 10
0.000046
 20
47.000000
 11
91.000000
 21
47.000000
  0
LINE
  8
0
  6
CONTINUOUS
 62
7
 10
2.000050
 20
45.000000
 11
91.000000
 21
45.000000
  0
LINE
  8
0
  6
CONTINUOUS
 62
7
 10
2.000050
 20
45.000000
 11
2.000050
 21
25.000000
  0
LINE
  8
0
  6
CONTINUOUS
 62
7
 10
0.000015
 20
47.000000
 11
2.000010
 21
45.000000
  0
LINE
  8
0
  6
CENTER
 62
7
 10
-87.594902
 20
77.000000
 11
-72.010300
 21
77.000000
  0
LINE
  8
0
  6
CONTINUOUS
 62
7
 10
-85.000000
 20
87.000000
 11
-75.000000
 21
87.000000
  0
LINE
  8
0
  6
CONTINUOUS
 62
7
 10
-85.000000
 20
67.000000
 11
-75.000000
 21
67.000000
  0
LINE
  8
0
  6
CONTINUOUS
 62
7
 10
6.000050
 20
36.500000
 11
75.000000
 21
36.500000
  0
LINE
  8
0
  6
CONTINUOUS
 62
7
 10
6.000050
 20
38.375000
 11
75.000000
 21
38.375000
  0
LINE
  8
0
  6
CONTINUOUS
 62
7
 10
6.000050
 20
42.625000
 11
75.000000
 21
42.625000
  0
LINE
  8
0
  6
CENTER
 62
7
 10
84.623199
 20
40.500000
 11
91.719704
 21
40.500000
  0
LINE
  8
0
  6
CONTINUOUS
 62
7
 10
88.250000
 20
42.250000
 11
91.000000
 21
42.250000
  0
LINE
  8
0
  6
CONTINUOUS
 62
7
 10
88.250000
 20
38.750000
 11
91.000000
 21
38.750000
  0
LINE
  8
0
  6
CONTINUOUS
 62
7
 10
51.750000
 20
36.250000
 11
52.500000
 21
36.250000
  0
LINE
  8
0
  6
CONTINUOUS
 62
7
 10
53.500000
 20
36.250000
 11
54.250000
 21
36.250000
  0
LINE
  8
0
  6
CONTINUOUS
 62
7
 10
75.000000
 20
-27.000000
 11
91.000000
 21
-27.000000
  0
LINE
  8
0
  6
CONTINUOUS
 62
7
 10
6.000050
 20
-26.799999
 11
75.000000
 21
-26.799999
  0
LINE
  8
0
  6
CONTINUOUS
 62
7
 10
-75.000000
 20
-27.000000
 11
6.000050
 21
-27.000000
  0
LINE
  8
0
  6
CONTINUOUS
 62
7
 10
-100.000000
 20
-26.000000
 11
-85.000000
 21
-26.000000
  0
LINE
  8
0
  6
CONTINUOUS
 62
7
 10
-77.000000
 20
24.000000
 11
-85.000000
 21
24.000000
  0
LINE
  8
0
  6
CONTINUOUS
 62
7
 10
-77.000000
 20
28.000000
 11
-75.000000
 21
28.000000
  0
LINE
  8
0
  6
CONTINUOUS
 62
7
 10
-77.000000
 20
29.000000
 11
-75.267899
 21
28.000000
  0
LINE
  8
0
  6
CENTER
 62
7
 10
-101.482002
 20
4.999980
 11
-86.386299
 21
4.999980
  0
LINE
  8
0
  6
CENTER
 62
7
 10
-92.500000
 20
-1.359620
 11
-92.500000
 21
11.841800
  0
LINE
  8
0
  6
CENTER
 62
7
 10
-66.000000
 20
7.281320
 11
-66.000000
 21
26.300301
  0
LINE
  8
0
  6
CENTER
 62
7
 10
-12.500000
 20
7.101890
 11
-12.500000
 21
25.941500
  0
LINE
  8
0
  6
CENTER
 62
7
 10
-76.568604
 20
16.500000
 11
-56.716900
 21
16.500000
  0
LINE
  8
0
  6
CONTINUOUS
 62
7
 10
0.000046
 20
23.000000
 11
91.000000
 21
23.000000
  0
LINE
  8
0
  6
CONTINUOUS
 62
7
 10
2.000050
 20
25.000000
 11
91.000000
 21
25.000000
  0
LINE
  8
0
  6
CONTINUOUS
 62
7
 10
0.000023
 20
23.000000
 11
2.000030
 21
25.000000
  0
LINE
  8
0
  6
CENTER
 62
7
 10
-87.594902
 20
-7.000020
 11
-72.010300
 21
-7.000020
  0
LINE
  8
0
  6
CONTINUOUS
 62
7
 10
-85.000000
 20
-17.000000
 11
-75.000000
 21
-17.000000
  0
LINE
  8
0
  6
CONTINUOUS
 62
7
 10
-85.000000
 20
2.999980
 11
-75.000000
 21
2.999980
  0
LINE
  8
0
  6
CONTINUOUS
 62
7
 10
6.000050
 20
33.500000
 11
75.000000
 21
33.500000
  0
LINE
  8
0
  6
CONTINUOUS
 62
7
 10
6.000050
 20
31.625000
 11
75.000000
 21
31.625000
  0
LINE
  8
0
  6
CONTINUOUS
 62
7
 10
6.000050
 20
27.375000
 11
75.000000
 21
27.375000
  0
LINE
  8
0
  6
CENTER
 62
7
 10
84.497101
 20
29.500000
 11
91.719704
 21
29.500000
  0
LINE
  8
0
  6
CENTER
 62
7
 10
88.250000
 20
26.505699
 11
88.250000
 21
43.062599
  0
LINE
  8
0
  6
CONTINUOUS
 62
7
 10
88.250000
 20
27.750000
 11
91.000000
 21
27.750000
  0
LINE
  8
0
  6
CONTINUOUS
 62
7
 10
88.250000
 20
31.250000
 11
91.000000
 21
31.250000
  0
LINE
  8
0
  6
CONTINUOUS
 62
7
 10
51.750000
 20
33.750000
 11
52.500000
 21
33.750000
  0
LINE
  8
0
  6
CONTINUOUS
 62
7
 10
53.500000
 20
33.750000
 11
54.250000
 21
33.750000
  0
LINE
  8
0
  6
CONTINUOUS
 62
7
 10
-78.024498
 20
35.000000
 11
-83.975403
 21
35.000000
  0
LINE
  8
0
  6
CENTER
 62
7
 10
-22.824800
 20
53.500000
 11
-2.619520
 21
53.500000
  0
LINE
  8
0
  6
CENTER
 62
7
 10
-22.079901
 20
16.500000
 11
-3.337220
 21
16.500000
  0
LINE
  8
0
  6
CONTINUOUS
 62
7
 10
6.000050
 20
127.800003
 11
75.000000
 21
127.800003
  0
LINE
  8
0
  6
CONTINUOUS
 62
7
 10
75.000000
 20
128.000000
 11
91.000000
 21
128.000000
  0
LINE
  8
0
  6
CONTINUOUS
 62
7
 10
6.000050
 20
128.000000
 11
6.000050
 21
97.000000
  0
LINE
  8
0
  6
CONTINUOUS
 62
7
 10
75.000000
 20
128.000000
 11
75.000000
 21
97.000000
  0
LINE
  8
0
  6
CONTINUOUS
 62
7
 10
91.000000
 20
128.000000
 11
91.000000
 21
97.000000
  0
LINE
  8
0
  6
CENTER
 62
7
 10
-36.872398
 20
110.000000
 11
113.940002
 21
110.000000
  0
LINE
  8
0
  6
CONTINUOUS
 62
7
 10
91.000000
 20
121.000000
 11
107.000000
 21
121.000000
  0
LINE
  8
0
  6
CONTINUOUS
 62
7
 10
91.000000
 20
99.000000
 11
107.000000
 21
99.000000
  0
LINE
  8
0
  6
CONTINUOUS
 62
7
 10
91.000000
 20
120.000000
 11
108.000000
 21
120.000000
  0
LINE
  8
0
  6
CONTINUOUS
 62
7
 10
91.000000
 20
100.000000
 11
108.000000
 21
100.000000
  0
LINE
  8
0
  6
CONTINUOUS
 62
7
 10
108.000000
 20
120.000000
 11
108.000000
 21
100.000000
  0
LINE
  8
0
  6
CONTINUOUS
 62
7
 10
107.000000
 20
121.000000
 11
108.000000
 21
120.000000
  0
LINE
  8
0
  6
CONTINUOUS
 62
7
 10
108.000000
 20
100.000000
 11
107.000000
 21
99.000000
  0
LINE
  8
0
  6
CONTINUOUS
 62
7
 10
107.000000
 20
99.000000
 11
107.000000
 21
121.000000
  0
LINE
  8
0
  6
CENTER
 62
7
 10
-66.000000
 20
62.608700
 11
-66.000000
 21
44.507500
  0
LINE
  8
0
  6
CONTINUOUS
 62
7
 10
6.000050
 20
97.000000
 11
6.000050
 21
-27.000000
  0
LINE
  8
0
  6
CONTINUOUS
 62
7
 10
75.000000
 20
97.000000
 11
75.000000
 21
-26.799999
  0
LINE
  8
0
  6
CONTINUOUS
 62
7
 10
91.000000
 20
97.000000
 11
91.000000
 21
-27.000000
  0
LINE
  8
0
  6
CONTINUOUS
 62
7
 10
-26.999901
 20
100.000000
 11
-25.999901
 21
99.000000
  0
LINE
  8
0
  6
CONTINUOUS
 62
7
 10
6.000050
 20
128.000000
 11
-9.999950
 21
128.000000
  0
LINE
  8
0
  6
CONTINUOUS
 62
7
 10
-25.999901
 20
121.000000
 11
-26.999901
 21
120.000000
  0
LINE
  8
0
  6
CONTINUOUS
 62
7
 10
-9.999950
 20
128.000000
 11
-9.999950
 21
97.000000
  0
LINE
  8
0
  6
CONTINUOUS
 62
7
 10
-26.000000
 20
99.000000
 11
-26.000000
 21
121.000000
  0
LINE
  8
0
  6
CONTINUOUS
 62
7
 10
-9.999950
 20
121.000000
 11
-26.000000
 21
121.000000
  0
LINE
  8
0
  6
CONTINUOUS
 62
7
 10
-9.999950
 20
99.000000
 11
-26.000000
 21
99.000000
  0
LINE
  8
0
  6
CONTINUOUS
 62
7
 10
-9.999950
 20
120.000000
 11
-27.000000
 21
120.000000
  0
LINE
  8
0
  6
CONTINUOUS
 62
7
 10
-9.999950
 20
100.000000
 11
-27.000000
 21
100.000000
  0
LINE
  8
0
  6
CONTINUOUS
 62
7
 10
-27.000000
 20
120.000000
 11
-27.000000
 21
100.000000
  0
LINE
  8
0
  6
PHANTOM
 62
7
 10
40.500000
 20
140.934998
 11
40.500000
 21
-47.255199
  0
CIRCLE
  8
0
  6
CONTINUOUS
 62
7
 10
-92.500000
 20
65.000000
 40
3.375000
  0
CIRCLE
  8
0
  6
CONTINUOUS
 62
7
 10
-92.500000
 20
4.999980
 40
3.375000
  0
CIRCLE
  8
0
  6
CONTINUOUS
 62
7
 10
-66.000000
 20
16.500000
 40
4.500000
  0
CIRCLE
  8
0
  6
CONTINUOUS
 62
7
 10
-12.500000
 20
16.500000
 40
4.500000
  0
CIRCLE
  8
0
  6
CONTINUOUS
 62
7
 10
-66.000000
 20
16.500000
 40
7.000000
  0
ARC
  8
0
  6
CONTINUOUS
 62
7
 10
53.000000
 20
33.750000
 40
0.500000
 50
0.000000
 51
180.000000
  0
CIRCLE
  8
0
  6
CONTINUOUS
 62
7
 10
-12.500000
 20
16.500000
 40
7.000000
  0
ARC
  8
0
  6
CONTINUOUS
 62
7
 10
88.250000
 20
29.500000
 40
1.750000
 50
90.000000
 51
270.000000
  0
ARC
  8
0
  6
CONTINUOUS
 62
7
 10
-92.275398
 20
40.500000
 40
15.275400
 50
338.895996
 51
21.103600
  0
ARC
  8
0
  6
CONTINUOUS
 62
7
 10
-69.724503
 20
40.500000
 40
15.275400
 50
158.895996
 51
201.104004
  0
CIRCLE
  8
0
  6
CONTINUOUS
 62
7
 10
-92.500000
 20
65.000000
 40
4.000000
  0
CIRCLE
  8
0
  6
CONTINUOUS
 62
7
 10
-66.000000
 20
53.500000
 40
4.500000
  0
CIRCLE
  8
0
  6
CONTINUOUS
 62
7
 10
-12.500000
 20
53.500000
 40
4.500000
  0
CIRCLE
  8
0
  6
CONTINUOUS
 62
7
 10
-12.500000
 20
53.500000
 40
7.000000
  0
CIRCLE
  8
0
  6
CONTINUOUS
 62
7
 10
-66.000000
 20
53.500000
 40
7.000000
  0
ARC
  8
0
  6
CONTINUOUS
 62
7
 10
88.250000
 20
40.500000
 40
1.750000
 50
90.000000
 51
270.000000
  0
ARC
  8
0
  6
CONTINUOUS
 62
7
 10
54.250000
 20
35.000000
 40
1.250000
 50
270.000000
 51
90.000000
  0
ARC
  8
0
  6
CONTINUOUS
 62
7
 10
51.750000
 20
35.000000
 40
1.250000
 50
90.000000
 51
270.000000
  0
ARC
  8
0
  6
CONTINUOUS
 62
7
 10
53.000000
 20
36.250000
 40
0.500000
 50
180.000000
 51
0.000000
  0
ARC
  8
0
  6
CONTINUOUS
 62
7
 10
-92.275398
 20
29.500000
 40
15.275400
 50
338.895996
 51
21.103600
  0
ARC
  8
0
  6
CONTINUOUS
 62
7
 10
-69.724503
 20
29.500000
 40
15.275400
 50
158.895996
 51
201.104004
  0
CIRCLE
  8
0
  6
CONTINUOUS
 62
7
 10
-92.500000
 20
4.999980
 40
4.000000
  0
POINT
  8
0
  62
7
  10
-217.000000
  20
35.000000
  30
0.0
  0
POINT
  8
0
  62
7
  10
-189.000000
  20
35.000000
  30
0.0
  0
LINE
  8
0
  6
CENTER
 62
7
 10
-243.494995
 20
35.000000
 11
-185.593994
 21
35.000000
  0
LINE
  8
0
  6
CONTINUOUS
 62
7
 10
-240.000000
 20
97.000000
 11
-191.000000
 21
97.000000
  0
LINE
  8
0
  6
CONTINUOUS
 62
7
 10
-191.000000
 20
97.000000
 11
-191.000000
 21
-27.000000
  0
LINE
  8
0
  6
CONTINUOUS
 62
7
 10
-240.000000
 20
97.000000
 11
-240.000000
 21
-27.000000
  0
LINE
  8
0
  6
CONTINUOUS
 62
7
 10
-239.000000
 20
96.000000
 11
-195.000000
 21
96.000000
  0
LINE
  8
0
  6
CONTINUOUS
 62
7
 10
-239.000000
 20
96.000000
 11
-239.000000
 21
-26.000000
  0
LINE
  8
0
  6
CONTINUOUS
 62
7
 10
-195.000000
 20
96.000000
 11
-195.000000
 21
-26.000000
  0
LINE
  8
0
  6
CONTINUOUS
 62
7
 10
-210.649002
 20
45.999901
 11
-204.298004
 21
34.999901
  0
LINE
  8
0
  6
CONTINUOUS
 62
7
 10
-229.701996
 20
35.000000
 11
-223.350998
 21
46.000000
  0
LINE
  8
0
  6
CONTINUOUS
 62
7
 10
-223.350998
 20
46.000000
 11
-210.649002
 21
46.000000
  0
LINE
  8
0
  6
CENTER
 62
7
 10
-224.427002
 20
59.000000
 11
-209.000000
 21
59.000000
  0
LINE
  8
0
  6
CENTER
 62
7
 10
-226.960999
 20
77.000000
 11
-206.539001
 21
77.000000
  0
LINE
  8
0
  6
CONTINUOUS
 62
7
 10
-213.535995
 20
77.000000
 11
-215.268005
 21
74.000000
  0
LINE
  8
0
  6
CONTINUOUS
 62
7
 10
-215.268005
 20
79.999901
 11
-213.535995
 21
76.999901
  0
LINE
  8
0
  6
CONTINUOUS
 62
7
 10
-218.731995
 20
80.000000
 11
-215.268005
 21
80.000000
  0
LINE
  8
0
  6
CONTINUOUS
 62
7
 10
-220.464005
 20
77.000000
 11
-218.731995
 21
80.000000
  0
LINE
  8
0
  6
CONTINUOUS
 62
7
 10
-218.731995
 20
73.999802
 11
-220.464005
 21
76.999802
  0
LINE
  8
0
  6
CONTINUOUS
 62
7
 10
-215.268005
 20
73.999901
 11
-218.731995
 21
73.999901
  0
LINE
  8
0
  6
CONTINUOUS
 62
7
 10
-189.000000
 20
45.000000
 11
-189.000000
 21
25.000000
  0
LINE
  8
0
  6
CONTINUOUS
 62
7
 10
-191.000000
 20
46.999901
 11
-189.000000
 21
44.999901
  0
LINE
  8
0
  6
CONTINUOUS
 62
7
 10
-240.000000
 20
-27.000000
 11
-191.000000
 21
-27.000000
  0
LINE
  8
0
  6
CONTINUOUS
 62
7
 10
-239.000000
 20
-26.000000
 11
-195.000000
 21
-26.000000
  0
LINE
  8
0
  6
CENTER
 62
7
 10
-217.000000
 20
-32.849800
 11
-217.000000
 21
104.712997
  0
LINE
  8
0
  6
CONTINUOUS
 62
7
 10
-210.649002
 20
23.999901
 11
-204.298004
 21
34.999901
  0
LINE
  8
0
  6
CONTINUOUS
 62
7
 10
-229.701996
 20
35.000000
 11
-223.350998
 21
24.000000
  0
LINE
  8
0
  6
CONTINUOUS
 62
7
 10
-223.350998
 20
24.000000
 11
-210.649002
 21
24.000000
  0
LINE
  8
0
  6
CENTER
 62
7
 10
-224.427002
 20
11.000000
 11
-209.000000
 21
11.000000
  0
LINE
  8
0
  6
CENTER
 62
7
 10
-226.960999
 20
-7.000020
 11
-205.365005
 21
-7.000020
  0
LINE
  8
0
  6
CONTINUOUS
 62
7
 10
-213.535995
 20
-6.999990
 11
-215.268005
 21
-3.999980
  0
LINE
  8
0
  6
CONTINUOUS
 62
7
 10
-215.268005
 20
-9.999730
 11
-213.535995
 21
-6.999750
  0
LINE
  8
0
  6
CONTINUOUS
 62
7
 10
-218.731995
 20
-10.000000
 11
-215.268005
 21
-10.000000
  0
LINE
  8
0
  6
CONTINUOUS
 62
7
 10
-220.464005
 20
-6.999970
 11
-218.731995
 21
-9.999970
  0
LINE
  8
0
  6
CONTINUOUS
 62
7
 10
-218.731995
 20
-4.000030
 11
-220.464005
 21
-7.000040
  0
LINE
  8
0
  6
CONTINUOUS
 62
7
 10
-215.268005
 20
-3.999980
 11
-218.731995
 21
-3.999980
  0
LINE
  8
0
  6
CONTINUOUS
 62
7
 10
-191.000000
 20
23.000200
 11
-189.000000
 21
25.000200
  0
LINE
  8
0
  6
CONTINUOUS
 62
7
 10
-240.000000
 20
128.000000
 11
-191.000000
 21
128.000000
  0
LINE
  8
0
  6
CONTINUOUS
 62
7
 10
-240.000000
 20
128.000000
 11
-240.000000
 21
97.000000
  0
LINE
  8
0
  6
CONTINUOUS
 62
7
 10
-191.000000
 20
97.000000
 11
-191.000000
 21
128.000000
  0
LINE
  8
0
  6
CENTER
 62
7
 10
-228.742996
 20
110.000000
 11
-199.688004
 21
110.000000
  0
LINE
  8
0
  6
CENTER
 62
7
 10
-215.500000
 20
123.612000
 11
-215.500000
 21
97.705803
  0
CIRCLE
  8
0
  6
CONTINUOUS
 62
7
 10
-217.000000
 20
11.000000
 40
4.250000
  0
CIRCLE
  8
0
  6
CONTINUOUS
 62
7
 10
-217.000000
 20
59.000000
 40
4.250000
  0
CIRCLE
  8
0
  6
CONTINUOUS
 62
7
 10
-217.000000
 20
35.000000
 40
6.000000
  0
CIRCLE
  8
0
  6
CONTINUOUS
 62
7
 10
-217.000000
 20
11.000000
 40
5.000000
  0
CIRCLE
  8
0
  6
CONTINUOUS
 62
7
 10
-215.500000
 20
110.000000
 40
10.000000
  0
CIRCLE
  8
0
  6
CONTINUOUS
 62
7
 10
-217.000000
 20
-7.000020
 40
7.000000
  0
CIRCLE
  8
0
  6
CONTINUOUS
 62
7
 10
-215.500000
 20
110.000000
 40
11.000000
  0
CIRCLE
  8
0
  6
CONTINUOUS
 62
7
 10
-217.000000
 20
-7.000020
 40
6.500000
  0
CIRCLE
  8
0
  6
CONTINUOUS
 62
7
 10
-217.000000
 20
35.000000
 40
16.000000
  0
CIRCLE
  8
0
  6
CONTINUOUS
 62
7
 10
-217.000000
 20
35.000000
 40
7.000000
  0
CIRCLE
  8
0
  6
CONTINUOUS
 62
7
 10
-217.000000
 20
59.000000
 40
5.000000
  0
CIRCLE
  8
0
  6
CONTINUOUS
 62
7
 10
-217.000000
 20
77.000000
 40
7.000000
  0
CIRCLE
  8
0
  6
CONTINUOUS
 62
7
 10
-217.000000
 20
77.000000
 40
6.500000
  0
POINT
  8
0
  62
7
  10
210.000000
  20
35.000000
  30
0.0
  0
POINT
  8
0
  62
7
  10
233.000000
  20
35.000000
  30
0.0
  0
LINE
  8
0
  6
CENTER
 62
7
 10
194.000000
 20
-4.439450
 11
194.000000
 21
8.724000
  0
LINE
  8
0
  6
CONTINUOUS
 62
7
 10
184.000000
 20
97.000000
 11
233.000000
 21
97.000000
  0
LINE
  8
0
  6
CONTINUOUS
 62
7
 10
184.000000
 20
97.000000
 11
184.000000
 21
45.200001
  0
LINE
  8
0
  6
CONTINUOUS
 62
7
 10
233.000000
 20
97.000000
 11
233.000000
 21
-27.000000
  0
LINE
  8
0
  6
CENTER
 62
7
 10
180.291000
 20
35.000000
 11
236.188995
 21
35.000000
  0
LINE
  8
0
  6
CENTER
 62
7
 10
187.763000
 20
68.000000
 11
200.481995
 21
68.000000
  0
LINE
  8
0
  6
CENTER
 62
7
 10
226.000000
 20
75.305397
 11
226.000000
 21
61.525700
  0
LINE
  8
0
  6
CENTER
 62
7
 10
194.000000
 20
76.136597
 11
194.000000
 21
63.500000
  0
LINE
  8
0
  6
CENTER
 62
7
 10
210.000000
 20
100.127998
 11
210.000000
 21
-34.273998
  0
LINE
  8
0
  6
CENTER
 62
7
 10
219.266006
 20
68.000000
 11
232.395004
 21
68.000000
  0
LINE
  8
0
  6
CONTINUOUS
 62
7
 10
184.000000
 20
45.200001
 11
184.899994
 21
45.200001
  0
LINE
  8
0
  6
CONTINUOUS
 62
7
 10
184.899994
 20
46.200001
 11
186.600006
 21
46.200001
  0
LINE
  8
0
  6
CONTINUOUS
 62
7
 10
184.899994
 20
46.200001
 11
184.899994
 21
45.200001
  0
LINE
  8
0
  6
CONTINUOUS
 62
7
 10
182.000000
 20
44.799999
 11
182.000000
 21
25.199800
  0
LINE
  8
0
  6
CONTINUOUS
 62
7
 10
182.000000
 20
44.799900
 11
184.000000
 21
46.799900
  0
LINE
  8
0
  6
CENTER
 62
7
 10
180.925003
 20
40.500000
 11
188.649994
 21
40.500000
  0
LINE
  8
0
  6
CENTER
 62
7
 10
184.649994
 20
42.752800
 11
184.649994
 21
27.068199
  0
LINE
  8
0
  6
CONTINUOUS
 62
7
 10
182.000000
 20
42.250000
 11
186.600006
 21
42.250000
  0
LINE
  8
0
  6
CONTINUOUS
 62
7
 10
182.000000
 20
38.750000
 11
186.600006
 21
38.750000
  0
LINE
  8
0
  6
CONTINUOUS
 62
7
 10
184.000000
 20
-27.000000
 11
233.000000
 21
-27.000000
  0
LINE
  8
0
  6
CONTINUOUS
 62
7
 10
184.000000
 20
-27.000000
 11
184.000000
 21
24.799999
  0
LINE
  8
0
  6
CENTER
 62
7
 10
187.171005
 20
2.000000
 11
200.039001
 21
2.000000
  0
LINE
  8
0
  6
CENTER
 62
7
 10
226.000000
 20
-4.439450
 11
226.000000
 21
6.500000
  0
LINE
  8
0
  6
CENTER
 62
7
 10
219.117996
 20
2.000000
 11
231.903000
 21
2.000000
  0
LINE
  8
0
  6
CONTINUOUS
 62
7
 10
184.000000
 20
24.799999
 11
184.899994
 21
24.799999
  0
LINE
  8
0
  6
CONTINUOUS
 62
7
 10
184.899994
 20
23.799999
 11
186.600006
 21
23.799999
  0
LINE
  8
0
  6
CONTINUOUS
 62
7
 10
186.600006
 20
23.799999
 11
186.600006
 21
46.200001
  0
LINE
  8
0
  6
CONTINUOUS
 62
7
 10
184.899994
 20
23.799999
 11
184.899994
 21
24.799999
  0
LINE
  8
0
  6
CONTINUOUS
 62
7
 10
182.000000
 20
25.199900
 11
184.000000
 21
23.199900
  0
LINE
  8
0
  6
CENTER
 62
7
 10
181.061996
 20
29.500000
 11
189.242004
 21
29.500000
  0
LINE
  8
0
  6
CONTINUOUS
 62
7
 10
182.000000
 20
27.750000
 11
186.600006
 21
27.750000
  0
LINE
  8
0
  6
CONTINUOUS
 62
7
 10
182.000000
 20
31.250000
 11
186.600006
 21
31.250000
  0
LINE
  8
0
  6
CENTER
 62
7
 10
190.869003
 20
14.000000
 11
206.792007
 21
14.000000
  0
LINE
  8
0
  6
CENTER
 62
7
 10
212.906006
 20
56.000000
 11
227.811005
 21
56.000000
  0
LINE
  8
0
  6
CENTER
 62
7
 10
221.000000
 20
65.332001
 11
221.000000
 21
48.066502
  0
LINE
  8
0
  6
CENTER
 62
7
 10
199.000000
 20
6.505450
 11
199.000000
 21
23.775900
  0
LINE
  8
0
  6
CENTER
 62
7
 10
216.186996
 20
14.000000
 11
233.376999
 21
14.000000
  0
LINE
  8
0
  6
CENTER
 62
7
 10
185.544006
 20
56.000000
 11
204.919006
 21
56.000000
  0
LINE
  8
0
  6
CENTER
 62
7
 10
225.000000
 20
6.500000
 11
225.000000
 21
24.253901
  0
LINE
  8
0
  6
CENTER
 62
7
 10
195.000000
 20
63.500000
 11
195.000000
 21
45.552101
  0
LINE
  8
0
  6
CONTINUOUS
 62
7
 10
226.731995
 20
17.000000
 11
228.464005
 21
14.000000
  0
LINE
  8
0
  6
CONTINUOUS
 62
7
 10
221.535995
 20
14.000100
 11
223.268005
 21
11.000100
  0
LINE
  8
0
  6
CONTINUOUS
 62
7
 10
221.535995
 20
14.000000
 11
223.268005
 21
17.000000
  0
LINE
  8
0
  6
CONTINUOUS
 62
7
 10
226.731995
 20
10.999900
 11
228.464005
 21
13.999900
  0
LINE
  8
0
  6
CONTINUOUS
 62
7
 10
223.268005
 20
17.000000
 11
226.731995
 21
17.000000
  0
LINE
  8
0
  6
CONTINUOUS
 62
7
 10
223.268005
 20
11.000000
 11
226.731995
 21
11.000000
  0
LINE
  8
0
  6
CONTINUOUS
 62
7
 10
196.731995
 20
53.000000
 11
198.464005
 21
56.000000
  0
LINE
  8
0
  6
CONTINUOUS
 62
7
 10
191.535995
 20
55.999901
 11
193.268005
 21
58.999901
  0
LINE
  8
0
  6
CONTINUOUS
 62
7
 10
196.731995
 20
59.000000
 11
198.464005
 21
56.000000
  0
LINE
  8
0
  6
CONTINUOUS
 62
7
 10
191.535995
 20
56.000099
 11
193.268005
 21
53.000099
  0
LINE
  8
0
  6
CONTINUOUS
 62
7
 10
193.268005
 20
59.000000
 11
196.731995
 21
59.000000
  0
LINE
  8
0
  6
CONTINUOUS
 62
7
 10
193.268005
 20
53.000000
 11
196.731995
 21
53.000000
  0
LINE
  8
0
  6
CONTINUOUS
 62
7
 10
184.000000
 20
128.000000
 11
233.000000
 21
128.000000
  0
LINE
  8
0
  6
CONTINUOUS
 62
7
 10
184.000000
 20
128.000000
 11
184.000000
 21
97.000000
  0
LINE
  8
0
  6
CONTINUOUS
 62
7
 10
233.000000
 20
97.000000
 11
233.000000
 21
128.000000
  0
LINE
  8
0
  6
CENTER
 62
7
 10
195.257004
 20
110.000000
 11
224.311996
 21
110.000000
  0
LINE
  8
0
  6
CENTER
 62
7
 10
208.500000
 20
123.612000
 11
208.500000
 21
97.705803
  0
CIRCLE
  8
0
  6
CONTINUOUS
 62
7
 10
226.000000
 20
2.000000
 40
3.375000
  0
CIRCLE
  8
0
  6
CONTINUOUS
 62
7
 10
194.000000
 20
68.000000
 40
3.375000
  0
CIRCLE
  8
0
  6
CONTINUOUS
 62
7
 10
225.000000
 20
14.000000
 40
6.500000
  0
CIRCLE
  8
0
  6
CONTINUOUS
 62
7
 10
194.000000
 20
2.000000
 40
3.375000
  0
CIRCLE
  8
0
  6
CONTINUOUS
 62
7
 10
226.000000
 20
68.000000
 40
3.375000
  0
CIRCLE
  8
0
  6
CONTINUOUS
 62
7
 10
221.000000
 20
56.000000
 40
4.283000
  0
CIRCLE
  8
0
  6
CONTINUOUS
 62
7
 10
199.000000
 20
14.000000
 40
4.864000
  0
CIRCLE
  8
0
  6
CONTINUOUS
 62
7
 10
199.000000
 20
14.000000
 40
4.283000
  0
CIRCLE
  8
0
  6
CONTINUOUS
 62
7
 10
221.000000
 20
56.000000
 40
4.864000
  0
CIRCLE
  8
0
  6
CONTINUOUS
 62
7
 10
208.500000
 20
110.000000
 40
11.000000
  0
CIRCLE
  8
0
  6
CONTINUOUS
 62
7
 10
208.500000
 20
110.000000
 40
10.000000
  0
CIRCLE
  8
0
  6
CONTINUOUS
 62
7
 10
226.000000
 20
68.000000
 40
4.000000
  0
CIRCLE
  8
0
  6
CONTINUOUS
 62
7
 10
194.000000
 20
68.000000
 40
4.000000
  0
ARC
  8
0
  6
CONTINUOUS
 62
7
 10
184.649994
 20
40.500000
 40
1.750000
 50
90.000000
 51
270.000000
  0
CIRCLE
  8
0
  6
CONTINUOUS
 62
7
 10
226.000000
 20
2.000000
 40
4.000000
  0
CIRCLE
  8
0
  6
CONTINUOUS
 62
7
 10
194.000000
 20
2.000000
 40
4.000000
  0
ARC
  8
0
  6
CONTINUOUS
 62
7
 10
184.649994
 20
29.500000
 40
1.750000
 50
90.000000
 51
270.000000
  0
CIRCLE
  8
0
  6
CONTINUOUS
 62
7
 10
195.000000
 20
56.000000
 40
7.000000
  0
CIRCLE
  8
0
  6
CONTINUOUS
 62
7
 10
225.000000
 20
14.000000
 40
7.000000
  0
CIRCLE
  8
0
  6
CONTINUOUS
 62
7
 10
195.000000
 20
56.000000
 40
6.500000
  0
POINT
  8
0
  62
7
  10
-99.999901
  20
-102.000000
  30
0.0
  0
POINT
  8
0
  62
7
  10
91.000099
  20
-102.000000
  30
0.0
  0
LINE
  8
0
  6
CONTINUOUS
 62
7
 10
91.000099
 20
-74.000000
 11
91.000099
 21
-125.000000
  0
LINE
  8
0
  6
CONTINUOUS
 62
7
 10
75.000099
 20
-74.000000
 11
75.000099
 21
-125.000000
  0
LINE
  8
0
  6
CONTINUOUS
 62
7
 10
6.000070
 20
-74.000000
 11
6.000070
 21
-125.000000
  0
LINE
  8
0
  6
CONTINUOUS
 62
7
 10
-74.999901
 20
-76.000000
 11
-74.999901
 21
-125.000000
  0
LINE
  8
0
  6
CONTINUOUS
 62
7
 10
-99.999901
 20
-80.000000
 11
-99.999901
 21
-124.000000
  0
LINE
  8
0
  6
CONTINUOUS
 62
7
 10
-74.999901
 20
-76.000000
 11
6.000070
 21
-76.000000
  0
LINE
  8
0
  6
CONTINUOUS
 62
7
 10
-74.999901
 20
-125.000000
 11
6.000070
 21
-125.000000
  0
LINE
  8
0
  6
CENTER
 62
7
 10
-107.127998
 20
-102.000000
 11
94.403603
 21
-102.000000
  0
LINE
  8
0
  6
CONTINUOUS
 62
7
 10
-99.999901
 20
-124.000000
 11
-84.999901
 21
-124.000000
  0
LINE
  8
0
  6
CONTINUOUS
 62
7
 10
-99.999901
 20
-80.000000
 11
-84.999901
 21
-80.000000
  0
LINE
  8
0
  6
CONTINUOUS
 62
7
 10
-84.999901
 20
-80.000000
 11
-84.999901
 21
-124.000000
  0
LINE
  8
0
  6
CONTINUOUS
 62
7
 10
-77.850800
 20
-89.298302
 11
-77.126900
 21
-92.000000
  0
LINE
  8
0
  6
CONTINUOUS
 62
7
 10
-77.850800
 20
-114.702003
 11
-77.126900
 21
-112.000000
  0
LINE
  8
0
  6
CONTINUOUS
 62
7
 10
-77.850800
 20
-89.298302
 11
-84.149101
 21
-89.298302
  0
LINE
  8
0
  6
CONTINUOUS
 62
7
 10
-84.149200
 20
-89.298302
 11
-84.873100
 21
-92.000000
  0
LINE
  8
0
  6
CONTINUOUS
 62
7
 10
-77.850800
 20
-114.702003
 11
-84.149101
 21
-114.702003
  0
LINE
  8
0
  6
CONTINUOUS
 62
7
 10
-84.149300
 20
-114.702003
 11
-84.873199
 21
-112.000000
  0
LINE
  8
0
  6
CONTINUOUS
 62
7
 10
-84.999901
 20
-112.000000
 11
-74.999901
 21
-112.000000
  0
LINE
  8
0
  6
CONTINUOUS
 62
7
 10
-84.999901
 20
-92.000000
 11
-74.999901
 21
-92.000000
  0
LINE
  8
0
  6
CONTINUOUS
 62
7
 10
75.000099
 20
-125.000000
 11
91.000099
 21
-125.000000
  0
LINE
  8
0
  6
CONTINUOUS
 62
7
 10
75.000099
 20
-76.000000
 11
91.000099
 21
-76.000000
  0
LINE
  8
0
  6
CONTINUOUS
 62
7
 10
6.000070
 20
-124.800003
 11
75.000099
 21
-124.800003
  0
LINE
  8
0
  6
CONTINUOUS
 62
7
 10
6.000070
 20
-76.199997
 11
75.000099
 21
-76.199997
  0
LINE
  8
0
  6
CENTER
 62
7
 10
-66.999901
 20
-78.397301
 11
-66.999901
 21
-90.096100
  0
LINE
  8
0
  6
CENTER
 62
7
 10
-1.999930
 20
-77.878197
 11
-1.999930
 21
-90.096100
  0
LINE
  8
0
  6
CENTER
 62
7
 10
-72.438004
 20
-117.000000
 11
-61.223598
 21
-117.000000
  0
LINE
  8
0
  6
CENTER
 62
7
 10
83.000099
 20
-77.618698
 11
83.000099
 21
-90.944504
  0
LINE
  8
0
  6
CENTER
 62
7
 10
-8.599150
 20
-84.000000
 11
4.552190
 21
-84.000000
  0
LINE
  8
0
  6
CENTER
 62
7
 10
-66.999901
 20
-110.830002
 11
-66.999901
 21
-123.186996
  0
LINE
  8
0
  6
CENTER
 62
7
 10
-9.447620
 20
-117.000000
 11
4.552190
 21
-117.000000
  0
LINE
  8
0
  6
CENTER
 62
7
 10
-1.999930
 20
-110.035004
 11
-1.999930
 21
-123.186996
  0
LINE
  8
0
  6
CENTER
 62
7
 10
75.853302
 20
-84.000000
 11
89.689201
 21
-84.000000
  0
LINE
  8
0
  6
CENTER
 62
7
 10
76.277603
 20
-117.000000
 11
89.902901
 21
-117.000000
  0
LINE
  8
0
  6
CENTER
 62
7
 10
83.000099
 20
-109.611000
 11
83.000099
 21
-123.611000
  0
LINE
  8
0
  6
CENTER
 62
7
 10
-72.806602
 20
-84.000000
 11
-61.304600
 21
-84.000000
  0
LINE
  8
0
  6
CENTER
 62
7
 10
-92.499901
 20
-81.265099
 11
-92.499901
 21
-93.577103
  0
LINE
  8
0
  6
CENTER
 62
7
 10
-99.050598
 20
-116.500000
 11
-86.234497
 21
-116.500000
  0
LINE
  8
0
  6
CENTER
 62
7
 10
-98.564697
 20
-87.500000
 11
-86.234497
 21
-87.500000
  0
LINE
  8
0
  6
CENTER
 62
7
 10
-92.499901
 20
-110.586998
 11
-92.499901
 21
-122.413002
  0
LINE
  8
0
  6
CONTINUOUS
 62
7
 10
6.000070
 20
-74.199997
 11
75.000099
 21
-74.199997
  0
LINE
  8
0
  6
CONTINUOUS
 62
7
 10
75.000099
 20
-74.000000
 11
91.000099
 21
-74.000000
  0
LINE
  8
0
  6
CONTINUOUS
 62
7
 10
2.000070
 20
-74.000000
 11
6.000070
 21
-74.000000
  0
LINE
  8
0
  6
CONTINUOUS
 62
7
 10
0.000168
 20
-76.000099
 11
2.000160
 21
-74.000099
  0
LINE
  8
0
  6
CONTINUOUS
 62
7
 10
108.000000
 20
-90.500000
 11
108.000000
 21
-110.500000
  0
LINE
  8
0
  6
CONTINUOUS
 62
7
 10
91.000099
 20
-89.500000
 11
107.000000
 21
-89.500000
  0
LINE
  8
0
  6
CONTINUOUS
 62
7
 10
91.000099
 20
-111.500000
 11
107.000000
 21
-111.500000
  0
LINE
  8
0
  6
CONTINUOUS
 62
7
 10
107.000000
 20
-89.499901
 11
108.000000
 21
-90.500000
  0
LINE
  8
0
  6
CONTINUOUS
 62
7
 10
108.000000
 20
-110.500000
 11
107.000000
 21
-111.500000
  0
LINE
  8
0
  6
CONTINUOUS
 62
7
 10
108.000000
 20
-110.500000
 11
91.000099
 21
-110.500000
  0
LINE
  8
0
  6
CONTINUOUS
 62
7
 10
108.000000
 20
-90.500000
 11
91.000099
 21
-90.500000
  0
LINE
  8
0
  6
CONTINUOUS
 62
7
 10
107.000000
 20
-89.500000
 11
107.000000
 21
-111.500000
  0
LINE
  8
0
  6
CENTER
 62
7
 10
89.389000
 20
-100.500000
 11
109.675003
 21
-100.500000
  0
LINE
  8
0
  6
PHANTOM
 62
7
 10
40.500099
 20
-47.254902
 11
40.500099
 21
-135.742004
  0
CIRCLE
  8
0
  6
CONTINUOUS
 62
7
 10
83.000099
 20
-84.000000
 40
3.375000
  0
CIRCLE
  8
0
  6
CONTINUOUS
 62
7
 10
-66.999901
 20
-84.000000
 40
3.375000
  0
CIRCLE
  8
0
  6
CONTINUOUS
 62
7
 10
83.000099
 20
-117.000000
 40
3.375000
  0
CIRCLE
  8
0
  6
CONTINUOUS
 62
7
 10
-1.999930
 20
-117.000000
 40
3.375000
  0
CIRCLE
  8
0
  6
CONTINUOUS
 62
7
 10
-66.999901
 20
-117.000000
 40
3.375000
  0
CIRCLE
  8
0
  6
CONTINUOUS
 62
7
 10
-1.999930
 20
-84.000000
 40
3.375000
  0
CIRCLE
  8
0
  6
CONTINUOUS
 62
7
 10
83.000099
 20
-84.000000
 40
4.000000
  0
CIRCLE
  8
0
  6
CONTINUOUS
 62
7
 10
-1.999930
 20
-84.000000
 40
4.000000
  0
CIRCLE
  8
0
  6
CONTINUOUS
 62
7
 10
-66.999901
 20
-117.000000
 40
4.000000
  0
CIRCLE
  8
0
  6
CONTINUOUS
 62
7
 10
83.000099
 20
-117.000000
 40
4.000000
  0
CIRCLE
  8
0
  6
CONTINUOUS
 62
7
 10
-1.999930
 20
-117.000000
 40
4.000000
  0
CIRCLE
  8
0
  6
CONTINUOUS
 62
7
 10
-92.499901
 20
-87.500000
 40
4.000000
  0
CIRCLE
  8
0
  6
CONTINUOUS
 62
7
 10
-92.499901
 20
-116.500000
 40
4.000000
  0
CIRCLE
  8
0
  6
CONTINUOUS
 62
7
 10
-66.999901
 20
-84.000000
 40
4.000000
  0
CIRCLE
  8
0
  6
CONTINUOUS
 62
7
 10
-92.499901
 20
-87.500000
 40
3.375000
  0
CIRCLE
  8
0
  6
CONTINUOUS
 62
7
 10
-92.499901
 20
-116.500000
 40
3.375000
  0
LINE
  8
0
  6
CONTINUOUS
 62
2
 10
-143.671005
 20
57.062099
 11
-118.512001
 21
57.062099
  0
LINE
  8
0
  6
CONTINUOUS
 62
2
 10
-118.512001
 20
57.062099
 11
-99.999901
 21
35.000000
  0
LINE
  8
0
  6
CONTINUOUS
 62
2
 10
-99.999901
 20
35.000000
 11
-101.267738
 21
37.718929
  0
LINE
  8
0
  6
CONTINUOUS
 62
2
 10
-99.999901
 20
35.000000
 11
-102.457352
 21
36.720741
  0
TEXT
  8
0
 62
2
 10
-143.671005
 20
57.062099
 40
3.200000
  1
PIVOT
 50
0.000000
 41
0.821430
 51
0.000000
  7
STANDARD
  0
LINE
  8
0
  6
CONTINUOUS
 62
2
 10
-271.855988
 20
69.472000
 11
-245.925003
 21
69.472000
  0
LINE
  8
0
  6
CONTINUOUS
 62
2
 10
-245.925003
 20
69.472000
 11
-217.000000
 21
35.000000
  0
LINE
  8
0
  6
CONTINUOUS
 62
2
 10
-217.000000
 20
35.000000
 11
-218.267838
 21
37.718933
  0
LINE
  8
0
  6
CONTINUOUS
 62
2
 10
-217.000000
 20
35.000000
 11
-219.457443
 21
36.720749
  0
TEXT
  8
0
 62
2
 10
-271.855988
 20
69.472000
 40
3.200000
  1
PIVOT
 50
0.000000
 41
0.821430
 51
0.000000
  7
STANDARD
  0
LINE
  8
0
  6
CONTINUOUS
 62
2
 10
155.143997
 20
69.472099
 11
181.074997
 21
69.472099
  0
LINE
  8
0
  6
CONTINUOUS
 62
2
 10
181.074997
 20
69.472099
 11
210.000000
 21
35.000099
  0
LINE
  8
0
  6
CONTINUOUS
 62
2
 10
210.000000
 20
35.000099
 11
208.732162
 21
37.719032
  0
LINE
  8
0
  6
CONTINUOUS
 62
2
 10
210.000000
 20
35.000099
 11
207.542557
 21
36.720848
  0
TEXT
  8
0
 62
2
 10
155.143997
 20
69.472099
 40
3.200000
  1
PIVOT
 50
0.000000
 41
0.821430
 51
0.000000
  7
STANDARD
  0
LINE
  8
0
  6
CONTINUOUS
 62
2
 10
133.121994
 20
-129.712997
 11
107.000000
 21
-129.712997
  0
LINE
  8
0
  6
CONTINUOUS
 62
2
 10
107.000000
 20
-129.712997
 11
91.000099
 21
-102.000000
  0
LINE
  8
0
  6
CONTINUOUS
 62
2
 10
91.000099
 20
-102.000000
 11
91.776543
 21
-104.897781
  0
LINE
  8
0
  6
CONTINUOUS
 62
2
 10
91.000099
 20
-102.000000
 11
93.121407
 21
-104.121330
  0
TEXT
  8
0
 62
2
 10
107.000000
 20
-129.712997
 40
3.200000
  1
LEVER
 50
0.000000
 41
0.758243
 51
0.000000
  7
STANDARD
  0
LINE
  8
0
  6
CONTINUOUS
 62
2
 10
128.867996
 20
13.716600
 11
103.288002
 21
13.716600
  0
LINE
  8
0
  6
CONTINUOUS
 62
2
 10
103.288002
 20
13.716600
 11
91.000198
 21
35.000099
  0
LINE
  8
0
  6
CONTINUOUS
 62
2
 10
91.000198
 20
35.000099
 11
91.776634
 21
32.102314
  0
LINE
  8
0
  6
CONTINUOUS
 62
2
 10
91.000198
 20
35.000099
 11
93.121498
 21
32.878761
  0
TEXT
  8
0
 62
2
 10
103.288002
 20
13.716600
 40
3.200000
  1
LEVER
 50
0.000000
 41
0.758243
 51
0.000000
  7
STANDARD
  0
LINE
  8
0
  6
CONTINUOUS
 62
2
 10
271.454987
 20
12.829800
 11
245.800003
 21
12.829800
  0
LINE
  8
0
  6
CONTINUOUS
 62
2
 10
245.800003
 20
12.829800
 11
233.000000
 21
35.000000
  0
LINE
  8
0
  6
CONTINUOUS
 62
2
 10
233.000000
 20
35.000000
 11
233.776459
 21
32.102222
  0
LINE
  8
0
  6
CONTINUOUS
 62
2
 10
233.000000
 20
35.000000
 11
235.121323
 21
32.878681
  0
TEXT
  8
0
 62
2
 10
245.800003
 20
12.829800
 40
3.200000
  1
LEVER
 50
0.000000
 41
0.758243
 51
0.000000
  7
STANDARD
  0
LINE
  8
0
  6
CONTINUOUS
 62
2
 10
-139.694000
 20
-84.350304
 11
-114.809998
 21
-84.350304
  0
LINE
  8
0
  6
CONTINUOUS
 62
2
 10
-114.809998
 20
-84.350304
 11
-99.999901
 21
-102.000000
  0
LINE
  8
0
  6
CONTINUOUS
 62
2
 10
-99.999901
 20
-102.000000
 11
-101.267776
 21
-99.281090
  0
LINE
  8
0
  6
CONTINUOUS
 62
2
 10
-99.999901
 20
-102.000000
 11
-102.457375
 21
-100.279289
  0
TEXT
  8
0
 62
2
 10
-139.694000
 20
-84.350304
 40
3.200000
  1
PIVOT
 50
0.000000
 41
0.821430
 51
0.000000
  7
STANDARD
  0
LINE
  8
0
  6
CONTINUOUS
 62
2
 10
-146.653000
 20
16.614901
 11
-173.572998
 21
16.614901
  0
LINE
  8
0
  6
CONTINUOUS
 62
2
 10
-173.572998
 20
16.614901
 11
-189.000000
 21
35.000000
  0
LINE
  8
0
  6
CONTINUOUS
 62
2
 10
-189.000000
 20
35.000000
 11
-187.732132
 21
32.281078
  0
LINE
  8
0
  6
CONTINUOUS
 62
2
 10
-189.000000
 20
35.000000
 11
-186.542542
 21
33.279278
  0
TEXT
  8
0
 62
2
 10
-173.572998
 20
16.614901
 40
3.200000
  1
LEVER
 50
0.000000
 41
0.758243
 51
0.000000
  7
STANDARD
  0
ENDSEC
  0
EOF
