  0
SECTION
  2
HEADER
  0
ENDSEC
  0
SECTION
  2
TABLES
  0
TABLE
  2
LTYPE
 70
     4
  0
LTYPE
  2
CONTINUOUS
 70
    64
  3
Solid line
 72
    65
 73
     0
 40
0.000000
  0
LTYPE
  2
DASHED
 70
    64
  3
__ __ __ __ __ __ __ __ __ __ __ __ __ __ __
 72
    65
 73
     2
 40
3.500000
 49
2.000000
 49
-1.500000
  0
LTYPE
  2
CENTER
 70
    64
  3
____ _ ____ _ ____ _ ____ _ ____ _ ____ _ ____
 72
    65
 73
     4
 40
17.500000
 49
13.000000
 49
-1.500000
 49
1.500000
 49
-1.500000
  0
LTYPE
  2
PHANTOM
 70
    64
  3
_____ _ _ _____ _ _ _____ _ _ _____ _ _ ____  
 72
    65
 73
     6
 40
15.500000
 49
8.000000
 49
-1.500000
 49
1.500000
 49
-1.500000
 49
1.500000
 49
-1.500000
  0
LTYPE
  2
DASHED1
 70
    64
  3
__ __ __ __ __ __ __ __ __ __ __ __ __ __ __
 72
    65
 73
     2
 40
1.500000
 49
1.000000
 49
-0.500000
  0
LTYPE
  2
DASHED2
 70
    64
  3
__ __ __ __ __ __ __ __ __ __ __ __ __ __ __
 72
    65
 73
     2
 40
3.500000
 49
2.500000
 49
-1.000000
  0
LTYPE
  2
DASHED3
 70
    64
  3
__ __ __ __ __ __ __ __ __ __ __ __ __ __ __
 72
    65
 73
     2
 40
6.000000
 49
4.000000
 49
-2.000000
  0
LTYPE
  2
DASHED4
 70
    64
  3
__ __ __ __ __ __ __ __ __ __ __ __ __ __ __
 72
    65
 73
     2
 40
12.000000
 49
10.000000
 49
-2.000000
  0
LTYPE
  2
DASHED5
 70
    64
  3
__ __ __ __ __ __ __ __ __ __ __ __ __ __ __
 72
    65
 73
     2
 40
17.000000
 49
15.000000
 49
-2.000000
  0
LTYPE
  2
DASHED6
 70
    64
  3
__ __ __ __ __ __ __ __ __ __ __ __ __ __ __
 72
    65
 73
     2
 40
29.000000
 49
27.000000
 49
-2.000000
  0
LTYPE
  2
PHANTOM1
 70
    64
  3
_____ _ _ _____ _ _ _____ _ _ _____ _ _ ____  
 72
    65
 73
     6
 40
31.000000
 49
25.000000
 49
-1.500000
 49
1.000000
 49
-1.000000
 49
1.000000
 49
-1.500000
  0
LTYPE
  2
PHANTOM2
 70
    64
  3
_____ _ _ _____ _ _ _____ _ _ _____ _ _ ____  
 72
    65
 73
     6
 40
36.000000
 49
27.000000
 49
-1.500000
 49
2.500000
 49
-1.000000
 49
2.500000
 49
-1.500000
  0
LTYPE
  2
PHANTOM3
 70
    64
  3
_____ _ _ _____ _ _ _____ _ _ _____ _ _ ____  
 72
    65
 73
     6
 40
78.000000
 49
64.000000
 49
-2.000000
 49
4.000000
 49
-2.000000
 49
4.000000
 49
-2.000000
  0
LTYPE
  2
CENTER1
 70
    64
  3
____ _ ____ _ ____ _ ____ _ ____ _ ____ _ ____
 72
    65
 73
     4
 40
19.000000
 49
14.000000
 49
-1.000000
 49
3.000000
 49
-1.000000
  0
LTYPE
  2
CENTER2
 70
    64
  3
____ _ ____ _ ____ _ ____ _ ____ _ ____ _ ____
 72
    65
 73
     4
 40
28.500000
 49
25.000000
 49
-1.000000
 49
1.500000
 49
-1.000000
  0
LTYPE
  2
CENTER3
 70
    64
  3
____ _ ____ _ ____ _ ____ _ ____ _ ____ _ ____
 72
    65
 73
     4
 40
31.500000
 49
27.000000
 49
-1.000000
 49
2.500000
 49
-1.000000
  0
LTYPE
  2
CENTER4
 70
    64
  3
____ _ ____ _ ____ _ ____ _ ____ _ ____ _ ____
 72
    65
 73
     4
 40
50.000000
 49
45.000000
 49
-1.000000
 49
3.000000
 49
-1.000000
  0
LTYPE
  2
CENTER5
 70
    64
  3
____ _ ____ _ ____ _ ____ _ ____ _ ____ _ ____
 72
    65
 73
     4
 40
100.000000
 49
92.000000
 49
-2.000000
 49
4.000000
 49
-2.000000
  0
LTYPE
  2
SBK1
 70
    64
  3
______ _ _ _ ______ _ _ _ ______ _ _ _ _____  
 72
    65
 73
     8
 40
60.500000
 49
45.000000
 49
-2.000000
 49
2.500000
 49
-2.000000
 49
2.500000
 49
-2.000000
 49
2.500000
 49
-2.000000
  0
LTYPE
  2
SBK2
 70
    64
  3
______ _ _ _ ______ _ _ _ ______ _ _ _ _____  
 72
    65
 73
     8
 40
84.000000
 49
64.000000
 49
-2.000000
 49
4.000000
 49
-2.000000
 49
4.000000
 49
-2.000000
 49
4.000000
 49
-2.000000
  0
LTYPE
  2
STCH
 70
    64
  3
__ __ __ __ __ __ __ __ __ __ __ __ __ __ __
 72
    65
 73
     2
 40
3.000000
 49
1.000000
 49
-2.000000
  0
LTYPE
  2
MTCH
 70
    64
  3
_____ _ _ _____ _ _ _____ _ _ _____ _ _ ____  
 72
    65
 73
     6
 40
80.000000
 49
66.000000
 49
-2.000000
 49
4.000000
 49
-2.000000
 49
4.000000
 49
-2.000000
  0
ENDTAB
  0
TABLE
  2
LAYER
 70
     1
  0
LAYER
  2
0
 70
     0
 62
     7
  6
CONTINUOUS
  0
ENDTAB
  0
TABLE
  2
STYLE
 70
     1
  0
STYLE
  2
STANDARD
 70
     0
 40
0.000000
 41
1.000000
 50
0.000000
 71
     0
 42
0.200000
  3
txt
  4
BIGFONT
  0
ENDTAB
  0
TABLE
  2
VIEW
 70
     0
  0
ENDTAB
  0
ENDSEC
  0
SECTION
  2
BLOCKS
  0
ENDSEC
  0
SECTION
  2
ENTITIES
  0
LINE
  8
0
 62
     4
 10
58.691582
 20
121.878052
 11
56.091591
 21
121.878052
  0
LINE
  8
0
 62
     4
 10
58.691582
 20
118.478043
 11
56.091591
 21
118.478043
  0
LINE
  8
0
 62
     4
 10
63.911587
 20
110.038063
 11
63.891586
 21
109.978050
  0
LINE
  8
0
 62
     4
 10
58.891594
 20
109.978043
 11
58.891594
 21
111.978043
  0
LINE
  8
0
 62
     4
 10
59.641594
 20
110.118042
 11
59.641594
 21
111.378052
  0
LINE
  8
0
 62
     4
 10
59.341591
 20
111.378052
 11
59.341591
 21
111.978043
  0
LINE
  8
0
 62
     4
 10
60.011589
 20
109.978043
 11
50.891594
 21
109.978043
  0
LINE
  8
0
 62
     4
 10
64.141594
 20
110.118042
 11
64.141594
 21
111.378052
  0
LINE
  8
0
 62
     4
 10
64.441582
 20
111.378052
 11
64.441582
 21
111.978043
  0
LINE
  8
0
 62
     4
 10
59.341591
 20
111.378052
 11
64.441582
 21
111.378052
  0
LINE
  8
0
 62
     4
 10
64.891586
 20
111.978058
 11
64.141586
 21
110.478050
  0
LINE
  8
0
 62
     4
 10
49.891586
 20
111.978050
 11
50.891586
 21
109.978050
  0
LINE
  8
0
 62
     4
 10
63.891594
 20
109.978043
 11
63.761589
 21
109.978043
  0
LINE
  8
0
 62
     4
 10
64.891594
 20
111.978043
 11
49.891594
 21
111.978043
  0
LINE
  8
0
 62
     4
 10
49.891594
 20
111.978043
 11
49.891594
 21
138.178040
  0
LINE
  8
0
 62
     4
 10
64.891594
 20
112.978043
 11
49.891594
 21
112.978043
  0
LINE
  8
0
 62
     4
 10
64.891594
 20
111.978043
 11
64.891594
 21
138.178040
  0
LINE
  8
0
  6
CENTER
 62
     2
 10
57.391594
 20
107.478043
 11
57.391594
 21
143.178040
  0
LINE
  8
0
 62
     4
 10
42.691582
 20
121.878052
 11
40.091595
 21
121.878052
  0
LINE
  8
0
 62
     4
 10
42.691582
 20
118.478043
 11
40.091595
 21
118.478043
  0
LINE
  8
0
 62
     4
 10
47.911591
 20
110.038048
 11
47.891590
 21
109.978050
  0
LINE
  8
0
 62
     4
 10
42.891594
 20
109.978043
 11
42.891594
 21
111.978043
  0
LINE
  8
0
 62
     4
 10
43.641594
 20
110.118042
 11
43.641594
 21
111.378052
  0
LINE
  8
0
 62
     4
 10
43.341591
 20
111.378052
 11
43.341591
 21
111.978043
  0
LINE
  8
0
 62
     4
 10
44.011589
 20
109.978043
 11
34.891594
 21
109.978043
  0
LINE
  8
0
 62
     4
 10
48.141594
 20
110.118042
 11
48.141594
 21
111.378052
  0
LINE
  8
0
 62
     4
 10
48.441582
 20
111.378052
 11
48.441582
 21
111.978043
  0
LINE
  8
0
 62
     4
 10
43.341591
 20
111.378052
 11
48.441582
 21
111.378052
  0
LINE
  8
0
 62
     4
 10
48.891586
 20
111.978050
 11
48.141586
 21
110.478050
  0
LINE
  8
0
 62
     4
 10
33.891590
 20
111.978043
 11
34.891590
 21
109.978043
  0
LINE
  8
0
 62
     4
 10
47.891594
 20
109.978043
 11
47.761589
 21
109.978043
  0
LINE
  8
0
 62
     4
 10
48.891594
 20
111.978043
 11
33.891594
 21
111.978043
  0
LINE
  8
0
 62
     4
 10
33.891594
 20
111.978043
 11
33.891594
 21
138.178040
  0
LINE
  8
0
 62
     4
 10
48.891594
 20
112.978043
 11
33.891594
 21
112.978043
  0
LINE
  8
0
 62
     4
 10
48.891594
 20
111.978043
 11
48.891594
 21
138.178040
  0
LINE
  8
0
  6
CENTER
 62
     2
 10
41.391594
 20
107.478043
 11
41.391594
 21
143.178040
  0
LINE
  8
0
 62
     4
 10
26.691593
 20
121.878052
 11
24.091595
 21
121.878052
  0
LINE
  8
0
 62
     4
 10
26.691593
 20
118.478043
 11
24.091595
 21
118.478043
  0
LINE
  8
0
 62
     4
 10
31.911583
 20
110.038048
 11
31.891584
 21
109.978050
  0
LINE
  8
0
 62
     4
 10
26.891594
 20
109.978043
 11
26.891594
 21
111.978043
  0
LINE
  8
0
 62
     4
 10
27.641594
 20
110.118042
 11
27.641594
 21
111.378052
  0
LINE
  8
0
 62
     4
 10
27.341595
 20
111.378052
 11
27.341595
 21
111.978043
  0
LINE
  8
0
 62
     4
 10
28.011593
 20
109.978043
 11
18.891594
 21
109.978043
  0
LINE
  8
0
 62
     4
 10
32.141594
 20
110.118042
 11
32.141594
 21
111.378052
  0
LINE
  8
0
 62
     4
 10
32.441593
 20
111.378052
 11
32.441593
 21
111.978043
  0
LINE
  8
0
 62
     4
 10
27.341595
 20
111.378052
 11
32.441593
 21
111.378052
  0
LINE
  8
0
 62
     4
 10
32.891586
 20
111.978058
 11
32.141586
 21
110.478058
  0
LINE
  8
0
 62
     4
 10
17.891598
 20
111.978058
 11
18.891598
 21
109.978058
  0
LINE
  8
0
 62
     4
 10
31.891594
 20
109.978043
 11
31.761593
 21
109.978043
  0
LINE
  8
0
 62
     4
 10
32.891594
 20
111.978043
 11
17.891594
 21
111.978043
  0
LINE
  8
0
 62
     4
 10
17.891594
 20
111.978043
 11
17.891594
 21
138.178040
  0
LINE
  8
0
 62
     4
 10
32.891594
 20
112.978043
 11
17.891594
 21
112.978043
  0
LINE
  8
0
 62
     4
 10
32.891594
 20
111.978043
 11
32.891594
 21
138.178040
  0
LINE
  8
0
  6
CENTER
 62
     2
 10
25.391594
 20
107.478043
 11
25.391594
 21
143.178040
  0
LINE
  8
0
 62
     4
 10
74.691582
 20
121.878052
 11
72.091591
 21
121.878052
  0
LINE
  8
0
 62
     4
 10
74.691582
 20
118.478043
 11
72.091591
 21
118.478043
  0
LINE
  8
0
 62
     4
 10
79.911591
 20
110.038055
 11
79.891594
 21
109.978050
  0
LINE
  8
0
 62
     4
 10
74.891594
 20
109.978043
 11
74.891594
 21
111.978043
  0
LINE
  8
0
 62
     4
 10
75.641594
 20
110.118042
 11
75.641594
 21
111.378052
  0
LINE
  8
0
 62
     4
 10
75.341591
 20
111.378052
 11
75.341591
 21
111.978043
  0
LINE
  8
0
 62
     4
 10
76.011589
 20
109.978043
 11
66.891594
 21
109.978043
  0
LINE
  8
0
 62
     4
 10
80.141594
 20
110.118042
 11
80.141594
 21
111.378052
  0
LINE
  8
0
 62
     4
 10
80.441582
 20
111.378052
 11
80.441582
 21
111.978043
  0
LINE
  8
0
 62
     4
 10
75.341591
 20
111.378052
 11
80.441582
 21
111.378052
  0
LINE
  8
0
 62
     4
 10
80.891586
 20
111.978050
 11
80.141586
 21
110.478050
  0
LINE
  8
0
 62
     4
 10
65.891586
 20
111.978050
 11
66.891586
 21
109.978050
  0
LINE
  8
0
 62
     4
 10
79.891594
 20
109.978043
 11
79.761589
 21
109.978043
  0
LINE
  8
0
 62
     4
 10
80.891594
 20
111.978043
 11
65.891594
 21
111.978043
  0
LINE
  8
0
 62
     4
 10
65.891594
 20
111.978043
 11
65.891594
 21
138.178040
  0
LINE
  8
0
 62
     4
 10
80.891594
 20
112.978043
 11
65.891594
 21
112.978043
  0
LINE
  8
0
 62
     4
 10
80.891594
 20
111.978043
 11
80.891594
 21
138.178040
  0
LINE
  8
0
  6
CENTER
 62
     2
 10
73.391594
 20
107.478043
 11
73.391594
 21
143.178040
  0
LINE
  8
0
  6
CENTER
 62
     2
 10
89.391594
 20
163.178040
 11
89.391594
 21
156.608032
  0
LINE
  8
0
  6
CENTER
 62
     2
 10
25.391594
 20
163.178040
 11
25.391594
 21
156.608032
  0
LINE
  8
0
  6
CENTER
 62
     2
 10
33.391594
 20
138.178040
 11
33.391594
 21
144.178040
  0
LINE
  8
0
  6
CENTER
 62
     2
 10
81.391594
 20
138.178040
 11
81.391594
 21
144.178040
  0
LINE
  8
0
  6
CENTER
 62
     2
 10
36.391594
 20
141.178040
 11
30.391594
 21
141.178040
  0
LINE
  8
0
  6
CENTER
 62
     2
 10
84.391594
 20
141.178040
 11
78.391594
 21
141.178040
  0
LINE
  8
0
 10
17.391594
 20
158.178040
 11
17.391594
 21
138.178040
  0
LINE
  8
0
 10
97.391594
 20
158.178040
 11
17.391594
 21
158.178040
  0
LINE
  8
0
 10
97.391594
 20
138.178040
 11
17.391594
 21
138.178040
  0
LINE
  8
0
 10
17.491594
 20
160.178040
 11
17.491594
 21
158.178040
  0
LINE
  8
0
 10
92.291588
 20
160.178040
 11
92.291588
 21
158.248047
  0
LINE
  8
0
 10
86.491585
 20
160.178040
 11
86.491585
 21
158.178040
  0
LINE
  8
0
 10
28.291594
 20
160.178040
 11
28.291594
 21
158.248047
  0
LINE
  8
0
 10
22.491594
 20
160.178040
 11
22.491594
 21
158.178040
  0
LINE
  8
0
 10
81.491585
 20
160.178040
 11
97.291588
 21
160.178040
  0
LINE
  8
0
 10
17.491594
 20
160.178040
 11
33.291595
 21
160.178040
  0
LINE
  8
0
 10
97.291588
 20
160.178040
 11
97.291588
 21
158.178040
  0
LINE
  8
0
 10
81.491585
 20
160.178040
 11
81.491585
 21
158.178040
  0
LINE
  8
0
 10
33.291595
 20
160.178040
 11
33.291595
 21
158.248047
  0
LINE
  8
0
 10
97.391594
 20
158.178040
 11
97.391594
 21
138.178040
  0
LINE
  8
0
 10
44.411591
 20
-5.597965
 11
54.411591
 21
-5.597965
  0
LINE
  8
0
 10
60.411591
 20
-5.597965
 11
70.411591
 21
-5.597965
  0
LINE
  8
0
 10
76.411591
 20
-5.597965
 11
97.391602
 21
-5.597965
  0
LINE
  8
0
 10
75.011597
 20
9.402035
 11
97.391602
 21
9.402035
  0
LINE
  8
0
 10
72.411591
 20
9.402035
 11
74.371597
 21
9.402035
  0
LINE
  8
0
 10
59.011597
 20
9.402035
 11
71.771591
 21
9.402035
  0
LINE
  8
0
 10
56.411591
 20
9.402035
 11
58.371597
 21
9.402035
  0
LINE
  8
0
 10
43.011597
 20
9.402035
 11
55.771591
 21
9.402035
  0
LINE
  8
0
 10
40.411598
 20
9.402035
 11
42.371597
 21
9.402035
  0
LINE
  8
0
 10
27.011600
 20
9.402035
 11
39.771599
 21
9.402035
  0
LINE
  8
0
 10
24.411600
 20
9.402035
 11
26.371599
 21
9.402035
  0
LINE
  8
0
 10
28.411598
 20
-5.597965
 11
38.411598
 21
-5.597965
  0
LINE
  8
0
  6
CENTER
 62
     2
 10
73.391602
 20
-1.817951
 11
73.391602
 21
-35.597965
  0
LINE
  8
0
  6
CENTER
 62
     2
 10
57.391602
 20
-1.817951
 11
57.391602
 21
-35.597965
  0
LINE
  8
0
  6
CENTER
 62
     2
 10
41.391602
 20
-1.817951
 11
41.391602
 21
-35.597965
  0
LINE
  8
0
  6
CENTER
 62
     2
 10
25.391600
 20
-1.817951
 11
25.391600
 21
-35.597965
  0
LINE
  8
0
  6
CENTER
 62
     2
 10
89.391602
 20
-1.817951
 11
89.391602
 21
-13.167957
  0
LINE
  8
0
 62
     4
 10
92.641602
 20
-9.197956
 11
97.141602
 21
-9.197956
  0
LINE
  8
0
 62
     4
 10
81.631592
 20
-9.197956
 11
86.141602
 21
-9.197956
  0
LINE
  8
0
 62
     4
 10
97.141602
 20
-8.597965
 11
97.141602
 21
-9.197956
  0
LINE
  8
0
 62
     4
 10
92.641602
 20
-8.597965
 11
92.641602
 21
-9.197956
  0
LINE
  8
0
 62
     4
 10
81.641602
 20
-8.597965
 11
81.641602
 21
-9.197956
  0
LINE
  8
0
 62
     4
 10
86.141602
 20
-8.597965
 11
86.141602
 21
-9.197956
  0
LINE
  8
0
 62
     4
 10
81.891602
 20
-6.597965
 11
81.891602
 21
-8.597965
  0
LINE
  8
0
 62
     4
 10
96.891602
 20
-6.597965
 11
96.891602
 21
-8.597965
  0
LINE
  8
0
 62
     4
 10
81.641602
 20
-8.597965
 11
97.141602
 21
-8.597965
  0
LINE
  8
0
 62
     4
 10
81.891602
 20
-6.597965
 11
96.891602
 21
-6.597965
  0
LINE
  8
0
 62
     4
 10
60.971600
 20
-10.507965
 11
62.801598
 21
-8.677965
  0
LINE
  8
0
 62
     4
 10
62.801601
 20
-10.507963
 11
60.971600
 21
-8.677962
  0
LINE
  8
0
 62
     4
 10
53.801594
 20
-28.507961
 11
51.971588
 21
-26.677958
  0
LINE
  8
0
 62
     4
 10
53.801590
 20
-26.677956
 11
51.971592
 21
-28.507956
  0
LINE
  8
0
 62
     4
 10
49.891602
 20
-6.597965
 11
64.891602
 21
-6.597965
  0
LINE
  8
0
 62
     4
 10
64.891602
 20
-30.597965
 11
64.891602
 21
-6.597965
  0
LINE
  8
0
 62
     4
 10
49.891602
 20
-30.597965
 11
49.891602
 21
-6.597965
  0
LINE
  8
0
 62
     4
 10
49.891602
 20
-30.597965
 11
64.891602
 21
-30.597965
  0
LINE
  8
0
 62
     4
 10
63.891602
 20
-29.597965
 11
63.891602
 21
-12.597965
  0
LINE
  8
0
 62
     4
 10
50.891602
 20
-24.597965
 11
50.891602
 21
-7.597965
  0
LINE
  8
0
 62
     4
 10
50.891602
 20
-7.597965
 11
58.891602
 21
-7.597965
  0
LINE
  8
0
 62
     4
 10
55.891602
 20
-29.597965
 11
63.891602
 21
-29.597965
  0
LINE
  8
0
 62
     4
 10
61.891602
 20
-12.597965
 11
64.891602
 21
-12.597965
  0
LINE
  8
0
 62
     4
 10
52.891602
 20
-24.597965
 11
49.891602
 21
-24.597965
  0
LINE
  8
0
 62
     4
 10
55.891602
 20
-27.597965
 11
55.891602
 21
-30.597965
  0
LINE
  8
0
 62
     4
 10
58.891602
 20
-9.597965
 11
58.891602
 21
-6.597965
  0
LINE
  8
0
 62
     4
 10
60.411591
 20
-6.597965
 11
60.411591
 21
-4.597965
  0
LINE
  8
0
 62
     4
 10
54.411591
 20
-4.597965
 11
60.411591
 21
-4.597965
  0
LINE
  8
0
 62
     4
 10
54.411591
 20
-6.597965
 11
54.411591
 21
-4.597965
  0
LINE
  8
0
 62
     4
 10
59.541595
 20
-0.947965
 11
59.541595
 21
-4.597965
  0
LINE
  8
0
 62
     4
 10
57.841599
 20
-0.487965
 11
57.841599
 21
-4.597965
  0
LINE
  8
0
 62
     4
 10
56.941589
 20
-0.247965
 11
56.941589
 21
-4.597965
  0
LINE
  8
0
 62
     4
 10
55.241592
 20
0.202035
 11
55.241592
 21
-4.597965
  0
LINE
  8
0
  6
PHANTOM
 62
     1
 10
53.241589
 20
2.292040
 11
61.541592
 21
0.072039
  0
LINE
  8
0
  6
PHANTOM
 62
     1
 10
53.241585
 20
0.742039
 11
61.541588
 21
-1.477962
  0
LINE
  8
0
 62
     4
 10
56.411591
 20
15.402035
 11
55.771591
 21
15.402035
  0
LINE
  8
0
 62
     4
 10
56.941589
 20
5.402035
 11
55.241592
 21
5.402035
  0
LINE
  8
0
 62
     4
 10
56.411591
 20
15.402035
 11
56.411591
 21
5.402035
  0
LINE
  8
0
 62
     4
 10
55.771591
 20
15.402035
 11
55.771591
 21
5.402035
  0
LINE
  8
0
 62
     4
 10
56.941589
 20
5.402035
 11
56.941589
 21
1.302035
  0
LINE
  8
0
 62
     4
 10
55.241592
 20
5.402035
 11
55.241592
 21
1.762035
  0
LINE
  8
0
 62
     4
 10
59.011597
 20
15.402035
 11
58.371597
 21
15.402035
  0
LINE
  8
0
 62
     4
 10
59.541595
 20
5.402035
 11
57.841599
 21
5.402035
  0
LINE
  8
0
 62
     4
 10
59.011597
 20
15.402035
 11
59.011597
 21
5.402035
  0
LINE
  8
0
 62
     4
 10
58.371597
 20
15.402035
 11
58.371597
 21
5.402035
  0
LINE
  8
0
 62
     4
 10
59.541595
 20
5.402035
 11
59.541595
 21
0.602036
  0
LINE
  8
0
 62
     4
 10
57.841599
 20
5.402035
 11
57.841599
 21
1.062036
  0
LINE
  8
0
 62
     4
 10
44.971588
 20
-10.507955
 11
46.801590
 21
-8.677955
  0
LINE
  8
0
 62
     4
 10
46.801590
 20
-10.507955
 11
44.971588
 21
-8.677954
  0
LINE
  8
0
 62
     4
 10
37.801601
 20
-28.507950
 11
35.971603
 21
-26.677948
  0
LINE
  8
0
 62
     4
 10
37.801594
 20
-26.677959
 11
35.971603
 21
-28.507952
  0
LINE
  8
0
 62
     4
 10
33.891602
 20
-6.597965
 11
48.891602
 21
-6.597965
  0
LINE
  8
0
 62
     4
 10
48.891602
 20
-30.597965
 11
48.891602
 21
-6.597965
  0
LINE
  8
0
 62
     4
 10
33.891602
 20
-30.597965
 11
33.891602
 21
-6.597965
  0
LINE
  8
0
 62
     4
 10
33.891602
 20
-30.597965
 11
48.891602
 21
-30.597965
  0
LINE
  8
0
 62
     4
 10
47.891602
 20
-29.597965
 11
47.891602
 21
-12.597965
  0
LINE
  8
0
 62
     4
 10
34.891602
 20
-24.597965
 11
34.891602
 21
-7.597965
  0
LINE
  8
0
 62
     4
 10
34.891602
 20
-7.597965
 11
42.891602
 21
-7.597965
  0
LINE
  8
0
 62
     4
 10
39.891602
 20
-29.597965
 11
47.891602
 21
-29.597965
  0
LINE
  8
0
 62
     4
 10
45.891602
 20
-12.597965
 11
48.891602
 21
-12.597965
  0
LINE
  8
0
 62
     4
 10
36.891602
 20
-24.597965
 11
33.891602
 21
-24.597965
  0
LINE
  8
0
 62
     4
 10
39.891602
 20
-27.597965
 11
39.891602
 21
-30.597965
  0
LINE
  8
0
 62
     4
 10
42.891602
 20
-9.597965
 11
42.891602
 21
-6.597965
  0
LINE
  8
0
 62
     4
 10
44.411591
 20
-6.597965
 11
44.411591
 21
-4.597965
  0
LINE
  8
0
 62
     4
 10
38.411598
 20
-4.597965
 11
44.411591
 21
-4.597965
  0
LINE
  8
0
 62
     4
 10
38.411598
 20
-6.597965
 11
38.411598
 21
-4.597965
  0
LINE
  8
0
 62
     4
 10
43.541595
 20
-0.947965
 11
43.541595
 21
-4.597965
  0
LINE
  8
0
 62
     4
 10
41.841599
 20
-0.487965
 11
41.841599
 21
-4.597965
  0
LINE
  8
0
 62
     4
 10
40.941597
 20
-0.247965
 11
40.941597
 21
-4.597965
  0
LINE
  8
0
 62
     4
 10
39.241600
 20
0.202035
 11
39.241600
 21
-4.597965
  0
LINE
  8
0
  6
PHANTOM
 62
     1
 10
37.241600
 20
2.292035
 11
45.541592
 21
0.072038
  0
LINE
  8
0
  6
PHANTOM
 62
     1
 10
37.241600
 20
0.742036
 11
45.541588
 21
-1.477961
  0
LINE
  8
0
 62
     4
 10
40.411598
 20
15.402035
 11
39.771599
 21
15.402035
  0
LINE
  8
0
 62
     4
 10
40.941597
 20
5.402035
 11
39.241600
 21
5.402035
  0
LINE
  8
0
 62
     4
 10
40.411598
 20
15.402035
 11
40.411598
 21
5.402035
  0
LINE
  8
0
 62
     4
 10
39.771599
 20
15.402035
 11
39.771599
 21
5.402035
  0
LINE
  8
0
 62
     4
 10
40.941597
 20
5.402035
 11
40.941597
 21
1.302035
  0
LINE
  8
0
 62
     4
 10
39.241600
 20
5.402035
 11
39.241600
 21
1.762035
  0
LINE
  8
0
 62
     4
 10
43.011597
 20
15.402035
 11
42.371597
 21
15.402035
  0
LINE
  8
0
 62
     4
 10
43.541595
 20
5.402035
 11
41.841599
 21
5.402035
  0
LINE
  8
0
 62
     4
 10
43.011597
 20
15.402035
 11
43.011597
 21
5.402035
  0
LINE
  8
0
 62
     4
 10
42.371597
 20
15.402035
 11
42.371597
 21
5.402035
  0
LINE
  8
0
 62
     4
 10
43.541595
 20
5.402035
 11
43.541595
 21
0.602036
  0
LINE
  8
0
 62
     4
 10
41.841599
 20
5.402035
 11
41.841599
 21
1.062036
  0
LINE
  8
0
 62
     4
 10
28.971592
 20
-10.507956
 11
30.801590
 21
-8.677957
  0
LINE
  8
0
 62
     4
 10
30.801592
 20
-10.507958
 11
28.971590
 21
-8.677958
  0
LINE
  8
0
 62
     4
 10
21.811602
 20
-28.507952
 11
19.981598
 21
-26.677948
  0
LINE
  8
0
 62
     4
 10
21.811598
 20
-26.677946
 11
19.981598
 21
-28.507948
  0
LINE
  8
0
 62
     4
 10
17.891600
 20
-6.597965
 11
32.891602
 21
-6.597965
  0
LINE
  8
0
 62
     4
 10
32.891602
 20
-30.597965
 11
32.891602
 21
-6.597965
  0
LINE
  8
0
 62
     4
 10
17.891600
 20
-30.597965
 11
17.891600
 21
-6.597965
  0
LINE
  8
0
 62
     4
 10
17.891600
 20
-30.597965
 11
32.891602
 21
-30.597965
  0
LINE
  8
0
 62
     4
 10
31.891600
 20
-29.597965
 11
31.891600
 21
-12.597965
  0
LINE
  8
0
 62
     4
 10
18.891600
 20
-24.597965
 11
18.891600
 21
-7.597965
  0
LINE
  8
0
 62
     4
 10
18.891600
 20
-7.597965
 11
26.891600
 21
-7.597965
  0
LINE
  8
0
 62
     4
 10
23.891600
 20
-29.597965
 11
31.891600
 21
-29.597965
  0
LINE
  8
0
 62
     4
 10
29.891600
 20
-12.597965
 11
32.891602
 21
-12.597965
  0
LINE
  8
0
 62
     4
 10
20.891600
 20
-24.597965
 11
17.891600
 21
-24.597965
  0
LINE
  8
0
 62
     4
 10
23.891600
 20
-27.597965
 11
23.891600
 21
-30.597965
  0
LINE
  8
0
 62
     4
 10
26.891600
 20
-9.597965
 11
26.891600
 21
-6.597965
  0
LINE
  8
0
 62
     4
 10
28.411598
 20
-6.597965
 11
28.411598
 21
-4.597965
  0
LINE
  8
0
 62
     4
 10
22.421600
 20
-4.597965
 11
28.411598
 21
-4.597965
  0
LINE
  8
0
 62
     4
 10
22.421600
 20
-6.597965
 11
22.421600
 21
-4.597965
  0
LINE
  8
0
 62
     4
 10
27.541599
 20
-0.947965
 11
27.541599
 21
-4.597965
  0
LINE
  8
0
 62
     4
 10
25.841600
 20
-0.487965
 11
25.841600
 21
-4.597965
  0
LINE
  8
0
 62
     4
 10
24.941599
 20
-0.247965
 11
24.941599
 21
-4.597965
  0
LINE
  8
0
 62
     4
 10
23.241600
 20
0.202035
 11
23.241600
 21
-4.597965
  0
LINE
  8
0
  6
PHANTOM
 62
     1
 10
21.241600
 20
2.292035
 11
29.541599
 21
0.072036
  0
LINE
  8
0
  6
PHANTOM
 62
     1
 10
21.241600
 20
0.742035
 11
29.541599
 21
-1.477965
  0
LINE
  8
0
 62
     4
 10
24.411600
 20
15.402035
 11
23.771599
 21
15.402035
  0
LINE
  8
0
 62
     4
 10
24.941599
 20
5.402035
 11
23.241600
 21
5.402035
  0
LINE
  8
0
 62
     4
 10
24.411600
 20
15.402035
 11
24.411600
 21
5.402035
  0
LINE
  8
0
 62
     4
 10
23.771599
 20
15.402035
 11
23.771599
 21
5.402035
  0
LINE
  8
0
 62
     4
 10
24.941599
 20
5.402035
 11
24.941599
 21
1.302035
  0
LINE
  8
0
 62
     4
 10
23.241600
 20
5.402035
 11
23.241600
 21
1.762035
  0
LINE
  8
0
 62
     4
 10
27.011600
 20
15.402035
 11
26.371599
 21
15.402035
  0
LINE
  8
0
 62
     4
 10
27.541599
 20
5.402035
 11
25.841600
 21
5.402035
  0
LINE
  8
0
 62
     4
 10
27.011600
 20
15.402035
 11
27.011600
 21
5.402035
  0
LINE
  8
0
 62
     4
 10
26.371599
 20
15.402035
 11
26.371599
 21
5.402035
  0
LINE
  8
0
 62
     4
 10
27.541599
 20
5.402035
 11
27.541599
 21
0.602036
  0
LINE
  8
0
 62
     4
 10
25.841600
 20
5.402035
 11
25.841600
 21
1.062036
  0
LINE
  8
0
 62
     4
 10
76.971596
 20
-10.507960
 11
78.801598
 21
-8.677959
  0
LINE
  8
0
 62
     4
 10
78.801598
 20
-10.507966
 11
76.971596
 21
-8.677964
  0
LINE
  8
0
 62
     4
 10
69.801590
 20
-28.507959
 11
67.971588
 21
-26.677958
  0
LINE
  8
0
 62
     4
 10
69.801590
 20
-26.677961
 11
67.971588
 21
-28.507959
  0
LINE
  8
0
 62
     4
 10
65.891602
 20
-6.597965
 11
80.891602
 21
-6.597965
  0
LINE
  8
0
 62
     4
 10
80.891602
 20
-30.597965
 11
80.891602
 21
-6.597965
  0
LINE
  8
0
 62
     4
 10
65.891602
 20
-30.597965
 11
65.891602
 21
-6.597965
  0
LINE
  8
0
 62
     4
 10
65.891602
 20
-30.597965
 11
80.891602
 21
-30.597965
  0
LINE
  8
0
 62
     4
 10
79.891602
 20
-29.597965
 11
79.891602
 21
-12.597965
  0
LINE
  8
0
 62
     4
 10
66.891602
 20
-24.597965
 11
66.891602
 21
-7.597965
  0
LINE
  8
0
 62
     4
 10
66.891602
 20
-7.597965
 11
74.891602
 21
-7.597965
  0
LINE
  8
0
 62
     4
 10
71.891602
 20
-29.597965
 11
79.891602
 21
-29.597965
  0
LINE
  8
0
 62
     4
 10
77.891602
 20
-12.597965
 11
80.891602
 21
-12.597965
  0
LINE
  8
0
 62
     4
 10
68.891602
 20
-24.597965
 11
65.891602
 21
-24.597965
  0
LINE
  8
0
 62
     4
 10
71.891602
 20
-27.597965
 11
71.891602
 21
-30.597965
  0
LINE
  8
0
 62
     4
 10
74.891602
 20
-9.597965
 11
74.891602
 21
-6.597965
  0
LINE
  8
0
 62
     4
 10
76.411591
 20
-6.597965
 11
76.411591
 21
-4.597965
  0
LINE
  8
0
 62
     4
 10
70.411591
 20
-4.597965
 11
76.411591
 21
-4.597965
  0
LINE
  8
0
 62
     4
 10
70.411591
 20
-6.597965
 11
70.411591
 21
-4.597965
  0
LINE
  8
0
 62
     4
 10
75.541595
 20
-0.947965
 11
75.541595
 21
-4.597965
  0
LINE
  8
0
 62
     4
 10
73.841599
 20
-0.487965
 11
73.841599
 21
-4.597965
  0
LINE
  8
0
 62
     4
 10
72.941589
 20
-0.247965
 11
72.941589
 21
-4.597965
  0
LINE
  8
0
 62
     4
 10
71.241592
 20
0.202035
 11
71.241592
 21
-4.597965
  0
LINE
  8
0
  6
PHANTOM
 62
     1
 10
69.241592
 20
2.292038
 11
77.541595
 21
0.072038
  0
LINE
  8
0
  6
PHANTOM
 62
     1
 10
69.241585
 20
0.742041
 11
77.541588
 21
-1.477959
  0
LINE
  8
0
 62
     4
 10
72.411591
 20
15.402035
 11
71.771591
 21
15.402035
  0
LINE
  8
0
 62
     4
 10
72.941589
 20
5.402035
 11
71.241592
 21
5.402035
  0
LINE
  8
0
 62
     4
 10
72.411591
 20
15.402035
 11
72.411591
 21
5.402035
  0
LINE
  8
0
 62
     4
 10
71.771591
 20
15.402035
 11
71.771591
 21
5.402035
  0
LINE
  8
0
 62
     4
 10
72.941589
 20
5.402035
 11
72.941589
 21
1.302035
  0
LINE
  8
0
 62
     4
 10
71.241592
 20
5.402035
 11
71.241592
 21
1.762035
  0
LINE
  8
0
 62
     4
 10
75.011597
 20
15.402035
 11
74.371597
 21
15.402035
  0
LINE
  8
0
 62
     4
 10
75.541595
 20
5.402035
 11
73.841599
 21
5.402035
  0
LINE
  8
0
 62
     4
 10
75.011597
 20
15.402035
 11
75.011597
 21
5.402035
  0
LINE
  8
0
 62
     4
 10
74.371597
 20
15.402035
 11
74.371597
 21
5.402035
  0
LINE
  8
0
 62
     4
 10
75.541595
 20
5.402035
 11
75.541595
 21
0.602036
  0
LINE
  8
0
 62
     4
 10
73.841599
 20
5.402035
 11
73.841599
 21
1.062036
  0
LINE
  8
0
  6
CENTER
 62
     2
 10
85.891602
 20
14.402035
 11
92.891602
 21
14.402035
  0
LINE
  8
0
  6
CENTER
 62
     2
 10
21.891600
 20
14.402035
 11
28.891600
 21
14.402035
  0
LINE
  8
0
  6
CENTER
 62
     2
 10
89.391602
 20
17.902035
 11
89.391602
 21
10.902035
  0
LINE
  8
0
  6
CENTER
 62
     2
 10
25.391600
 20
17.902035
 11
25.391600
 21
10.902035
  0
LINE
  8
0
 10
64.691589
 20
-5.597965
 11
64.691589
 21
-6.597965
  0
LINE
  8
0
 10
50.091599
 20
-5.597965
 11
50.091599
 21
-6.597965
  0
LINE
  8
0
 10
96.691589
 20
-5.597965
 11
96.691589
 21
-6.597965
  0
LINE
  8
0
 10
82.091599
 20
-5.597965
 11
82.091599
 21
-6.597965
  0
LINE
  8
0
 10
80.691589
 20
-5.597965
 11
80.691589
 21
-6.597965
  0
LINE
  8
0
 10
66.091599
 20
-5.597965
 11
66.091599
 21
-6.597965
  0
LINE
  8
0
 10
48.691589
 20
-5.597965
 11
48.691589
 21
-6.597965
  0
LINE
  8
0
 10
34.091599
 20
-5.597965
 11
34.091599
 21
-6.597965
  0
LINE
  8
0
 10
32.691597
 20
-5.597965
 11
32.691597
 21
-6.597965
  0
LINE
  8
0
 10
18.091600
 20
-5.597965
 11
18.091600
 21
-6.597965
  0
LINE
  8
0
 10
22.491600
 20
19.392035
 11
28.291599
 21
19.392035
  0
LINE
  8
0
 10
97.391602
 20
-5.597965
 11
97.391602
 21
9.402035
  0
LINE
  8
0
 10
17.391600
 20
-5.597965
 11
17.391600
 21
9.402035
  0
LINE
  8
0
 10
92.291580
 20
19.402037
 11
97.291595
 21
14.402030
  0
LINE
  8
0
 10
81.491592
 20
14.402039
 11
86.491585
 21
19.402035
  0
LINE
  8
0
 10
86.491592
 20
19.402035
 11
92.291595
 21
19.402035
  0
LINE
  8
0
 10
81.491592
 20
14.402035
 11
81.491592
 21
9.402035
  0
LINE
  8
0
 10
97.291595
 20
14.402035
 11
97.291595
 21
9.402035
  0
LINE
  8
0
 10
28.291601
 20
19.402033
 11
33.291599
 21
14.402035
  0
LINE
  8
0
 10
17.491600
 20
14.402035
 11
22.491598
 21
19.402033
  0
LINE
  8
0
 10
17.491600
 20
14.402035
 11
17.491600
 21
9.402035
  0
LINE
  8
0
 10
33.291599
 20
14.402035
 11
33.291599
 21
9.402035
  0
LINE
  8
0
 10
17.391600
 20
9.402035
 11
23.771599
 21
9.402035
  0
LINE
  8
0
 10
17.391600
 20
-5.597965
 11
22.421600
 21
-5.597965
  0
LINE
  8
0
 10
97.391602
 20
9.402035
 11
97.391602
 21
-5.597965
  0
LINE
  8
0
  6
CENTER
 62
     2
 10
178.849380
 20
-88.945938
 11
178.849380
 21
-143.771301
  0
LINE
  8
0
 62
     4
 10
164.849380
 20
-100.578613
 11
166.849380
 21
-100.578613
  0
LINE
  8
0
 62
     4
 10
164.849380
 20
-100.578613
 11
164.849380
 21
-103.978622
  0
LINE
  8
0
 62
     4
 10
164.849380
 20
-103.978622
 11
166.849380
 21
-103.978622
  0
LINE
  8
0
 62
     4
 10
189.879379
 20
-92.138603
 11
189.849380
 21
-92.078606
  0
LINE
  8
0
 62
     4
 10
160.399384
 20
-103.128616
 11
164.849380
 21
-103.128616
  0
LINE
  8
0
 62
     4
 10
160.859390
 20
-101.428619
 11
164.849380
 21
-101.428619
  0
LINE
  8
0
  6
PHANTOM
 62
     1
 10
159.869385
 20
-105.128616
 11
161.389374
 21
-99.428619
  0
LINE
  8
0
  6
PHANTOM
 62
     1
 10
158.309387
 20
-105.128616
 11
159.839386
 21
-99.428619
  0
LINE
  8
0
 62
     4
 10
144.849380
 20
-101.958618
 11
144.849380
 21
-102.598618
  0
LINE
  8
0
 62
     4
 10
154.849380
 20
-101.428619
 11
154.849380
 21
-103.128616
  0
LINE
  8
0
 62
     4
 10
144.849380
 20
-101.958618
 11
154.849380
 21
-101.958618
  0
LINE
  8
0
 62
     4
 10
144.849380
 20
-102.598618
 11
154.849380
 21
-102.598618
  0
LINE
  8
0
 62
     4
 10
154.849380
 20
-101.428619
 11
159.309387
 21
-101.428619
  0
LINE
  8
0
 62
     4
 10
154.849380
 20
-103.128616
 11
158.849380
 21
-103.128616
  0
LINE
  8
0
 62
     4
 10
189.729385
 20
-92.078613
 11
189.849380
 21
-92.078613
  0
LINE
  8
0
 62
     4
 10
185.599380
 20
-92.218613
 11
185.599380
 21
-93.478622
  0
LINE
  8
0
 62
     4
 10
190.099380
 20
-92.218613
 11
190.099380
 21
-93.478622
  0
LINE
  8
0
 62
     4
 10
185.299393
 20
-93.478622
 11
185.299393
 21
-94.078613
  0
LINE
  8
0
 62
     4
 10
190.399384
 20
-93.478622
 11
190.399384
 21
-94.078613
  0
LINE
  8
0
 62
     4
 10
190.399384
 20
-93.478622
 11
185.299393
 21
-93.478622
  0
LINE
  8
0
 62
     4
 10
184.849380
 20
-92.078613
 11
184.849380
 21
-94.078613
  0
LINE
  8
0
 62
     4
 10
190.849365
 20
-94.078613
 11
190.099380
 21
-92.578629
  0
LINE
  8
0
 62
     4
 10
166.849380
 20
-94.078621
 11
167.849380
 21
-92.078621
  0
LINE
  8
0
 62
     4
 10
190.849380
 20
-94.078613
 11
166.849380
 21
-94.078613
  0
LINE
  8
0
 62
     4
 10
167.849380
 20
-92.078613
 11
186.029388
 21
-92.078613
  0
LINE
  8
0
 62
     4
 10
166.849380
 20
-94.078613
 11
166.849380
 21
-120.278610
  0
LINE
  8
0
 62
     4
 10
190.849380
 20
-94.078613
 11
190.849380
 21
-120.278610
  0
LINE
  8
0
 62
     4
 10
190.849380
 20
-95.078613
 11
166.849380
 21
-95.078613
  0
LINE
  8
0
 62
     4
 10
188.249390
 20
-127.028610
 11
188.249390
 21
-131.528610
  0
LINE
  8
0
 62
     4
 10
188.849380
 20
-127.028610
 11
188.249390
 21
-127.028610
  0
LINE
  8
0
 62
     4
 10
188.849380
 20
-131.528610
 11
188.249390
 21
-131.528610
  0
LINE
  8
0
 62
     4
 10
190.849380
 20
-121.278610
 11
188.849380
 21
-121.278610
  0
LINE
  8
0
 62
     4
 10
190.849380
 20
-136.278610
 11
188.849380
 21
-136.278610
  0
LINE
  8
0
 62
     4
 10
188.849380
 20
-121.278610
 11
188.849380
 21
-136.278610
  0
LINE
  8
0
  6
CENTER
 62
     2
 10
201.349380
 20
-130.778610
 11
201.349380
 21
-138.778610
  0
LINE
  8
0
  6
CENTER
 62
     2
 10
197.349380
 20
-134.778610
 11
205.349380
 21
-134.778610
  0
LINE
  8
0
  6
CENTER
 62
     2
 10
196.349380
 20
-121.278610
 11
196.349380
 21
-128.278610
  0
LINE
  8
0
  6
CENTER
 62
     2
 10
192.849380
 20
-124.778610
 11
199.849380
 21
-124.778610
  0
LINE
  8
0
 10
166.849380
 20
-120.278610
 11
166.849380
 21
-140.278610
  0
LINE
  8
0
 10
191.849380
 20
-122.778610
 11
190.849380
 21
-122.778610
  0
LINE
  8
0
 10
191.849380
 20
-137.778610
 11
190.849380
 21
-137.778610
  0
LINE
  8
0
 10
191.849380
 20
-120.278610
 11
191.849380
 21
-142.278610
  0
LINE
  8
0
  6
CENTER
 62
     2
 10
211.849380
 20
-137.848618
 11
211.849380
 21
-145.118607
  0
LINE
  8
0
 10
191.849380
 20
-142.278610
 11
216.849380
 21
-142.278610
  0
LINE
  8
0
 10
216.849380
 20
-140.278610
 11
216.849380
 21
-142.278610
  0
LINE
  8
0
 10
191.849380
 20
-140.278610
 11
216.849380
 21
-140.278610
  0
LINE
  8
0
 10
191.849380
 20
-120.278610
 11
206.849380
 21
-120.278610
  0
LINE
  8
0
 10
166.849380
 20
-140.278610
 11
190.849380
 21
-140.278610
  0
LINE
  8
0
 10
166.849380
 20
-137.778610
 11
190.849380
 21
-137.778610
  0
LINE
  8
0
 10
169.249390
 20
-127.468613
 11
169.249390
 21
-131.098618
  0
LINE
  8
0
 10
169.849380
 20
-127.468613
 11
169.849380
 21
-131.098618
  0
LINE
  8
0
 10
169.849380
 20
-131.098618
 11
166.849380
 21
-131.098618
  0
LINE
  8
0
 10
169.849380
 20
-127.468613
 11
166.849380
 21
-127.468613
  0
LINE
  8
0
 10
166.849380
 20
-120.278610
 11
190.849380
 21
-120.278610
  0
LINE
  8
0
 10
190.849380
 20
-120.278610
 11
190.849380
 21
-140.278610
  0
LINE
  8
0
 10
206.849380
 20
-120.278610
 11
206.849380
 21
-140.278610
  0
LINE
  8
0
  6
CENTER
 62
     2
 10
-81.066422
 20
-89.228836
 11
-81.066422
 21
-145.709473
  0
LINE
  8
0
 62
     4
 10
-67.066422
 20
-100.578827
 11
-69.066422
 21
-100.578827
  0
LINE
  8
0
 62
     4
 10
-67.066422
 20
-100.578827
 11
-67.066422
 21
-103.978836
  0
LINE
  8
0
 62
     4
 10
-67.066422
 20
-103.978836
 11
-69.066422
 21
-103.978836
  0
LINE
  8
0
 62
     4
 10
-70.046425
 20
-92.138840
 11
-70.066429
 21
-92.078842
  0
LINE
  8
0
 62
     4
 10
-62.616425
 20
-103.128830
 11
-67.066422
 21
-103.128830
  0
LINE
  8
0
 62
     4
 10
-63.076431
 20
-101.428833
 11
-67.066422
 21
-101.428833
  0
LINE
  8
0
  6
PHANTOM
 62
     1
 10
-62.086414
 20
-105.128830
 11
-63.606419
 21
-99.428833
  0
LINE
  8
0
  6
PHANTOM
 62
     1
 10
-60.526424
 20
-105.128830
 11
-62.056423
 21
-99.428833
  0
LINE
  8
0
 62
     4
 10
-47.066422
 20
-101.958832
 11
-47.066422
 21
-102.598831
  0
LINE
  8
0
 62
     4
 10
-57.066422
 20
-101.428833
 11
-57.066422
 21
-103.128830
  0
LINE
  8
0
 62
     4
 10
-47.066422
 20
-101.958832
 11
-57.066422
 21
-101.958832
  0
LINE
  8
0
 62
     4
 10
-47.066422
 20
-102.598831
 11
-57.066422
 21
-102.598831
  0
LINE
  8
0
 62
     4
 10
-57.066422
 20
-101.428833
 11
-61.526428
 21
-101.428833
  0
LINE
  8
0
 62
     4
 10
-57.066422
 20
-103.128830
 11
-61.066422
 21
-103.128830
  0
LINE
  8
0
 62
     4
 10
-70.196426
 20
-92.078827
 11
-70.066422
 21
-92.078827
  0
LINE
  8
0
 62
     4
 10
-74.316422
 20
-92.218826
 11
-74.316422
 21
-93.478836
  0
LINE
  8
0
 62
     4
 10
-69.816422
 20
-92.218826
 11
-69.816422
 21
-93.478836
  0
LINE
  8
0
 62
     4
 10
-74.616425
 20
-93.478836
 11
-74.616425
 21
-94.078827
  0
LINE
  8
0
 62
     4
 10
-69.516434
 20
-93.478836
 11
-69.516434
 21
-94.078827
  0
LINE
  8
0
 62
     4
 10
-69.516434
 20
-93.478836
 11
-74.616425
 21
-93.478836
  0
LINE
  8
0
 62
     4
 10
-75.066422
 20
-92.078827
 11
-75.066422
 21
-94.078827
  0
LINE
  8
0
 62
     4
 10
-69.066422
 20
-94.078835
 11
-69.816422
 21
-92.578835
  0
LINE
  8
0
 62
     4
 10
-93.066422
 20
-94.078819
 11
-92.066422
 21
-92.078819
  0
LINE
  8
0
 62
     4
 10
-93.066422
 20
-94.078827
 11
-69.066422
 21
-94.078827
  0
LINE
  8
0
 62
     4
 10
-92.066422
 20
-92.078827
 11
-73.896423
 21
-92.078827
  0
LINE
  8
0
 62
     4
 10
-69.066422
 20
-94.078827
 11
-69.066422
 21
-120.278824
  0
LINE
  8
0
 62
     4
 10
-93.066422
 20
-94.078827
 11
-93.066422
 21
-120.278824
  0
LINE
  8
0
 62
     4
 10
-93.066422
 20
-95.078827
 11
-69.066422
 21
-95.078827
  0
LINE
  8
0
  6
CENTER
 62
     2
 10
-102.066422
 20
-124.778824
 11
-95.066422
 21
-124.778824
  0
LINE
  8
0
  6
CENTER
 62
     2
 10
-107.566422
 20
-134.778824
 11
-99.566422
 21
-134.778824
  0
LINE
  8
0
  6
CENTER
 62
     2
 10
-103.566422
 20
-130.778824
 11
-103.566422
 21
-138.778824
  0
LINE
  8
0
  6
CENTER
 62
     2
 10
-98.566422
 20
-121.278824
 11
-98.566422
 21
-128.278824
  0
LINE
  8
0
 10
-94.066422
 20
-122.778824
 11
-93.066422
 21
-122.778824
  0
LINE
  8
0
 10
-94.066422
 20
-137.778824
 11
-93.066422
 21
-137.778824
  0
LINE
  8
0
 10
-94.066422
 20
-122.778824
 11
-94.066422
 21
-137.778824
  0
LINE
  8
0
 10
-94.066422
 20
-137.778824
 11
-94.066422
 21
-142.278824
  0
LINE
  8
0
  6
CENTER
 62
     2
 10
-114.066422
 20
-137.848831
 11
-114.066422
 21
-145.118820
  0
LINE
  8
0
 10
-94.066422
 20
-142.278824
 11
-119.066422
 21
-142.278824
  0
LINE
  8
0
 10
-119.066422
 20
-140.278824
 11
-119.066422
 21
-142.278824
  0
LINE
  8
0
 10
-94.066422
 20
-140.278824
 11
-119.066422
 21
-140.278824
  0
LINE
  8
0
 10
-94.066422
 20
-120.278824
 11
-109.066422
 21
-120.278824
  0
LINE
  8
0
 10
-94.066422
 20
-120.278824
 11
-94.066422
 21
-122.758835
  0
LINE
  8
0
 10
-69.066422
 20
-140.278824
 11
-93.066422
 21
-140.278824
  0
LINE
  8
0
 10
-69.066422
 20
-137.778824
 11
-93.066422
 21
-137.778824
  0
LINE
  8
0
 10
-71.466431
 20
-127.468826
 11
-71.466431
 21
-131.098831
  0
LINE
  8
0
 10
-72.066422
 20
-127.468826
 11
-72.066422
 21
-131.098831
  0
LINE
  8
0
 10
-72.066422
 20
-131.098831
 11
-69.066422
 21
-131.098831
  0
LINE
  8
0
 10
-72.066422
 20
-127.468826
 11
-69.066422
 21
-127.468826
  0
LINE
  8
0
 10
-69.066422
 20
-120.278824
 11
-93.066422
 21
-120.278824
  0
LINE
  8
0
 10
-93.066422
 20
-120.278824
 11
-93.066422
 21
-140.278824
  0
LINE
  8
0
 10
-69.066422
 20
-120.278824
 11
-69.066422
 21
-140.278824
  0
LINE
  8
0
 10
-109.066422
 20
-120.278824
 11
-109.066422
 21
-140.278824
  0
LINE
  8
0
 62
     4
 10
50.861591
 20
-92.138748
 11
50.891590
 21
-92.078758
  0
LINE
  8
0
 62
     4
 10
50.341595
 20
-93.478760
 11
50.341595
 21
-94.078751
  0
LINE
  8
0
 62
     4
 10
55.441586
 20
-93.478760
 11
55.441586
 21
-94.078751
  0
LINE
  8
0
 62
     4
 10
55.441586
 20
-93.478760
 11
50.341595
 21
-93.478760
  0
LINE
  8
0
 62
     4
 10
49.891598
 20
-95.078751
 11
64.891602
 21
-95.078751
  0
LINE
  8
0
 62
     4
 10
49.891598
 20
-94.078751
 11
64.891602
 21
-94.078751
  0
LINE
  8
0
 62
     4
 10
64.891594
 20
-94.078766
 11
63.891590
 21
-92.078766
  0
LINE
  8
0
 62
     4
 10
54.711590
 20
-92.078751
 11
63.891598
 21
-92.078751
  0
LINE
  8
0
 62
     4
 10
55.141598
 20
-92.218750
 11
55.141598
 21
-93.478760
  0
LINE
  8
0
 62
     4
 10
50.891598
 20
-92.078751
 11
51.011593
 21
-92.078751
  0
LINE
  8
0
 62
     4
 10
50.641598
 20
-92.218750
 11
50.641598
 21
-93.478760
  0
LINE
  8
0
 62
     4
 10
49.891594
 20
-94.078758
 11
50.641598
 21
-92.578758
  0
LINE
  8
0
 62
     4
 10
55.891598
 20
-92.078751
 11
55.891598
 21
-94.078751
  0
LINE
  8
0
 62
     4
 10
64.891602
 20
-94.078751
 11
64.891602
 21
-120.278748
  0
LINE
  8
0
 62
     4
 10
49.891598
 20
-94.078751
 11
49.891598
 21
-120.278748
  0
LINE
  8
0
 62
     4
 10
34.861595
 20
-92.138756
 11
34.891602
 21
-92.078751
  0
LINE
  8
0
 62
     4
 10
34.341599
 20
-93.478760
 11
34.341599
 21
-94.078751
  0
LINE
  8
0
 62
     4
 10
39.441597
 20
-93.478760
 11
39.441597
 21
-94.078751
  0
LINE
  8
0
 62
     4
 10
39.441597
 20
-93.478760
 11
34.341599
 21
-93.478760
  0
LINE
  8
0
 62
     4
 10
33.891598
 20
-95.078751
 11
48.891598
 21
-95.078751
  0
LINE
  8
0
 62
     4
 10
33.891598
 20
-94.078751
 11
48.891598
 21
-94.078751
  0
LINE
  8
0
 62
     4
 10
48.891590
 20
-94.078758
 11
47.891590
 21
-92.078758
  0
LINE
  8
0
 62
     4
 10
38.711597
 20
-92.078751
 11
47.891598
 21
-92.078751
  0
LINE
  8
0
 62
     4
 10
39.141598
 20
-92.218750
 11
39.141598
 21
-93.478760
  0
LINE
  8
0
 62
     4
 10
34.891598
 20
-92.078751
 11
35.011597
 21
-92.078751
  0
LINE
  8
0
 62
     4
 10
34.641598
 20
-92.218750
 11
34.641598
 21
-93.478760
  0
LINE
  8
0
 62
     4
 10
33.891590
 20
-94.078751
 11
34.641590
 21
-92.578743
  0
LINE
  8
0
 62
     4
 10
39.891598
 20
-92.078751
 11
39.891598
 21
-94.078751
  0
LINE
  8
0
 62
     4
 10
48.891598
 20
-94.078751
 11
48.891598
 21
-120.278748
  0
LINE
  8
0
 62
     4
 10
33.891598
 20
-94.078751
 11
33.891598
 21
-120.278748
  0
LINE
  8
0
 62
     4
 10
18.871609
 20
-92.138763
 11
18.891611
 21
-92.078751
  0
LINE
  8
0
 62
     4
 10
18.341599
 20
-93.478760
 11
18.341599
 21
-94.078751
  0
LINE
  8
0
 62
     4
 10
23.441597
 20
-93.478760
 11
23.441597
 21
-94.078751
  0
LINE
  8
0
 62
     4
 10
23.441597
 20
-93.478760
 11
18.341599
 21
-93.478760
  0
LINE
  8
0
 62
     4
 10
17.891598
 20
-95.078751
 11
32.891598
 21
-95.078751
  0
LINE
  8
0
 62
     4
 10
17.891598
 20
-94.078751
 11
32.891598
 21
-94.078751
  0
LINE
  8
0
 62
     4
 10
32.891590
 20
-94.078766
 11
31.891588
 21
-92.078766
  0
LINE
  8
0
 62
     4
 10
22.721600
 20
-92.078751
 11
31.891598
 21
-92.078751
  0
LINE
  8
0
 62
     4
 10
23.141598
 20
-92.218750
 11
23.141598
 21
-93.478760
  0
LINE
  8
0
 62
     4
 10
18.891598
 20
-92.078751
 11
19.021599
 21
-92.078751
  0
LINE
  8
0
 62
     4
 10
18.641598
 20
-92.218750
 11
18.641598
 21
-93.478760
  0
LINE
  8
0
 62
     4
 10
17.891607
 20
-94.078766
 11
18.641605
 21
-92.578766
  0
LINE
  8
0
 62
     4
 10
23.891598
 20
-92.078751
 11
23.891598
 21
-94.078751
  0
LINE
  8
0
 62
     4
 10
32.891598
 20
-94.078751
 11
32.891598
 21
-120.278748
  0
LINE
  8
0
 62
     4
 10
17.891598
 20
-94.078751
 11
17.891598
 21
-120.278748
  0
LINE
  8
0
 62
     4
 10
66.861588
 20
-92.138756
 11
66.891594
 21
-92.078751
  0
LINE
  8
0
 62
     4
 10
66.341599
 20
-93.478760
 11
66.341599
 21
-94.078751
  0
LINE
  8
0
 62
     4
 10
71.441589
 20
-93.478760
 11
71.441589
 21
-94.078751
  0
LINE
  8
0
 62
     4
 10
71.441589
 20
-93.478760
 11
66.341599
 21
-93.478760
  0
LINE
  8
0
 62
     4
 10
65.891602
 20
-95.078751
 11
80.891602
 21
-95.078751
  0
LINE
  8
0
 62
     4
 10
65.891602
 20
-94.078751
 11
80.891602
 21
-94.078751
  0
LINE
  8
0
 62
     4
 10
80.891594
 20
-94.078758
 11
79.891594
 21
-92.078758
  0
LINE
  8
0
 62
     4
 10
70.711594
 20
-92.078751
 11
79.891602
 21
-92.078751
  0
LINE
  8
0
 62
     4
 10
71.141602
 20
-92.218750
 11
71.141602
 21
-93.478760
  0
LINE
  8
0
 62
     4
 10
66.891602
 20
-92.078751
 11
67.011597
 21
-92.078751
  0
LINE
  8
0
 62
     4
 10
66.641602
 20
-92.218750
 11
66.641602
 21
-93.478760
  0
LINE
  8
0
 62
     4
 10
65.891594
 20
-94.078758
 11
66.641594
 21
-92.578751
  0
LINE
  8
0
 62
     4
 10
71.891602
 20
-92.078751
 11
71.891602
 21
-94.078751
  0
LINE
  8
0
 62
     4
 10
80.891602
 20
-94.078751
 11
80.891602
 21
-120.278748
  0
LINE
  8
0
 62
     4
 10
65.891602
 20
-94.078751
 11
65.891602
 21
-120.278748
  0
LINE
  8
0
 62
     4
 10
82.971588
 20
-130.198746
 11
84.801590
 21
-128.368744
  0
LINE
  8
0
 62
     4
 10
93.971596
 20
-130.198746
 11
95.801590
 21
-128.368744
  0
LINE
  8
0
 62
     4
 10
82.971588
 20
-128.368744
 11
84.801590
 21
-130.198746
  0
LINE
  8
0
 62
     4
 10
93.971573
 20
-128.368759
 11
95.801567
 21
-130.198761
  0
LINE
  8
0
 10
97.391602
 20
-120.278748
 11
80.891602
 21
-120.278748
  0
LINE
  8
0
 10
64.891602
 20
-120.278748
 11
65.891602
 21
-120.278748
  0
LINE
  8
0
 10
48.891598
 20
-120.278748
 11
49.891598
 21
-120.278748
  0
LINE
  8
0
 10
32.891598
 20
-120.278748
 11
33.891598
 21
-120.278748
  0
LINE
  8
0
 10
17.391598
 20
-120.278748
 11
17.891598
 21
-120.278748
  0
LINE
  8
0
 10
61.971588
 20
-130.198746
 11
63.801590
 21
-128.368744
  0
LINE
  8
0
 10
61.971588
 20
-128.368744
 11
63.801590
 21
-130.198746
  0
LINE
  8
0
 10
50.971596
 20
-130.198746
 11
52.801601
 21
-128.368744
  0
LINE
  8
0
 10
50.971596
 20
-128.368744
 11
52.801601
 21
-130.198746
  0
LINE
  8
0
 10
64.891602
 20
-130.318756
 11
64.891602
 21
-140.278748
  0
LINE
  8
0
 10
49.891598
 20
-130.318756
 11
49.891598
 21
-140.278748
  0
LINE
  8
0
 10
49.891598
 20
-120.278748
 11
64.891602
 21
-120.278748
  0
LINE
  8
0
  6
CENTER
 62
     2
 10
53.761593
 20
-132.278748
 11
60.741589
 21
-132.278748
  0
LINE
  8
0
  6
CENTER
 62
     2
 10
54.801586
 20
-123.778748
 11
59.761593
 21
-123.778748
  0
LINE
  8
0
 10
49.891598
 20
-120.278748
 11
49.891598
 21
-128.248749
  0
LINE
  8
0
 10
64.891602
 20
-120.278748
 11
64.891602
 21
-128.248749
  0
LINE
  8
0
 10
49.891598
 20
-137.778748
 11
64.891602
 21
-137.778748
  0
LINE
  8
0
  6
CENTER
 62
     2
 10
57.391598
 20
-89.648758
 11
57.391598
 21
-143.328751
  0
LINE
  8
0
 10
77.971581
 20
-130.198746
 11
79.801582
 21
-128.368744
  0
LINE
  8
0
 10
77.971581
 20
-128.368744
 11
79.801582
 21
-130.198746
  0
LINE
  8
0
 10
66.971596
 20
-130.198746
 11
68.801598
 21
-128.368744
  0
LINE
  8
0
 10
66.971596
 20
-128.368744
 11
68.801582
 21
-130.198746
  0
LINE
  8
0
 10
80.891602
 20
-130.318756
 11
80.891602
 21
-140.278748
  0
LINE
  8
0
 10
65.891602
 20
-130.318756
 11
65.891602
 21
-140.278748
  0
LINE
  8
0
 10
65.891602
 20
-120.278748
 11
80.891602
 21
-120.278748
  0
LINE
  8
0
  6
CENTER
 62
     2
 10
69.761597
 20
-132.278748
 11
76.741592
 21
-132.278748
  0
LINE
  8
0
  6
CENTER
 62
     2
 10
70.801590
 20
-123.778748
 11
75.761597
 21
-123.778748
  0
LINE
  8
0
 10
65.891602
 20
-120.278748
 11
65.891602
 21
-128.248749
  0
LINE
  8
0
 10
80.891602
 20
-120.278748
 11
80.891602
 21
-128.248749
  0
LINE
  8
0
 10
65.891602
 20
-137.778748
 11
80.891602
 21
-137.778748
  0
LINE
  8
0
  6
CENTER
 62
     2
 10
73.391602
 20
-89.648758
 11
73.391602
 21
-143.328751
  0
LINE
  8
0
  6
CENTER
 62
     2
 10
25.391598
 20
-89.648758
 11
25.391598
 21
-143.328751
  0
LINE
  8
0
 10
45.971596
 20
-130.198746
 11
47.801594
 21
-128.368744
  0
LINE
  8
0
 10
45.971592
 20
-128.368759
 11
47.801594
 21
-130.198746
  0
LINE
  8
0
 10
34.971592
 20
-130.198746
 11
36.801586
 21
-128.368759
  0
LINE
  8
0
 10
34.971592
 20
-128.368759
 11
36.801586
 21
-130.198761
  0
LINE
  8
0
 10
48.891598
 20
-130.318756
 11
48.891598
 21
-140.278748
  0
LINE
  8
0
 10
33.891598
 20
-130.318756
 11
33.891598
 21
-140.278748
  0
LINE
  8
0
 10
33.891598
 20
-120.278748
 11
48.891598
 21
-120.278748
  0
LINE
  8
0
  6
CENTER
 62
     2
 10
37.761597
 20
-132.278748
 11
44.741589
 21
-132.278748
  0
LINE
  8
0
  6
CENTER
 62
     2
 10
38.801598
 20
-123.778748
 11
43.761593
 21
-123.778748
  0
LINE
  8
0
 10
33.891598
 20
-120.278748
 11
33.891598
 21
-128.248749
  0
LINE
  8
0
 10
48.891598
 20
-120.278748
 11
48.891598
 21
-128.248749
  0
LINE
  8
0
 10
33.891598
 20
-137.778748
 11
48.891598
 21
-137.778748
  0
LINE
  8
0
  6
CENTER
 62
     2
 10
41.391598
 20
-89.648758
 11
41.391598
 21
-143.328751
  0
LINE
  8
0
 10
29.971598
 20
-130.198746
 11
31.801598
 21
-128.368744
  0
LINE
  8
0
 10
29.971596
 20
-128.368744
 11
31.801598
 21
-130.198746
  0
LINE
  8
0
 10
18.981596
 20
-130.198746
 11
20.811604
 21
-128.368744
  0
LINE
  8
0
 10
18.981602
 20
-128.368744
 11
20.811602
 21
-130.198746
  0
LINE
  8
0
 10
32.891598
 20
-130.318756
 11
32.891598
 21
-140.278748
  0
LINE
  8
0
 10
17.891598
 20
-130.318756
 11
17.891598
 21
-140.278748
  0
LINE
  8
0
 10
17.891598
 20
-120.278748
 11
32.891598
 21
-120.278748
  0
LINE
  8
0
  6
CENTER
 62
     2
 10
21.771599
 20
-132.278748
 11
28.741596
 21
-132.278748
  0
LINE
  8
0
  6
CENTER
 62
     2
 10
22.811598
 20
-123.778748
 11
27.761597
 21
-123.778748
  0
LINE
  8
0
 10
17.891598
 20
-120.278748
 11
17.891598
 21
-128.248749
  0
LINE
  8
0
 10
32.891598
 20
-120.278748
 11
32.891598
 21
-128.248749
  0
LINE
  8
0
 10
17.891598
 20
-137.778748
 11
32.891598
 21
-137.778748
  0
LINE
  8
0
 10
81.491592
 20
-142.278748
 11
97.291595
 21
-142.278748
  0
LINE
  8
0
 10
17.391598
 20
-142.278748
 11
33.291595
 21
-142.278748
  0
LINE
  8
0
 10
97.291595
 20
-140.278748
 11
97.291595
 21
-142.278748
  0
LINE
  8
0
 10
81.491592
 20
-140.278748
 11
81.491592
 21
-142.278748
  0
LINE
  8
0
 10
17.491598
 20
-140.278748
 11
17.491598
 21
-142.278748
  0
LINE
  8
0
 10
33.291595
 20
-140.278748
 11
33.291595
 21
-142.278748
  0
LINE
  8
0
 10
17.391598
 20
-120.278748
 11
17.391598
 21
-140.278748
  0
LINE
  8
0
 62
     4
 10
96.891602
 20
-130.318756
 11
96.891602
 21
-134.278748
  0
LINE
  8
0
 62
     4
 10
81.891602
 20
-130.318756
 11
81.891602
 21
-134.278748
  0
LINE
  8
0
 62
     4
 10
83.891602
 20
-136.278748
 11
94.891602
 21
-136.278748
  0
LINE
  8
0
 62
     4
 10
83.891602
 20
-121.278748
 11
94.891602
 21
-121.278748
  0
LINE
  8
0
 62
     4
 10
81.891602
 20
-123.278748
 11
81.891602
 21
-128.248749
  0
LINE
  8
0
 62
     4
 10
96.891602
 20
-123.278748
 11
96.891602
 21
-128.248749
  0
LINE
  8
0
  6
CENTER
 62
     2
 10
89.391602
 20
-119.298752
 11
89.391602
 21
-143.368744
  0
LINE
  8
0
 10
17.391598
 20
-140.278748
 11
97.391602
 21
-140.278748
  0
LINE
  8
0
 10
97.391602
 20
-120.278748
 11
97.391602
 21
-140.278748
  0
LINE
  8
0
 10
-271.250000
 20
-35.000000
 11
-271.250000
 21
-185.000000
  0
LINE
  8
0
 10
-236.250000
 20
-35.000000
 11
-236.250000
 21
-185.000000
  0
LINE
  8
0
 10
-271.250000
 20
-35.000000
 11
-161.250000
 21
-35.000000
  0
LINE
  8
0
 10
-271.250000
 20
-50.000000
 11
-161.250000
 21
-50.000000
  0
LINE
  8
0
 10
-271.250000
 20
-65.000000
 11
-161.250000
 21
-65.000000
  0
LINE
  8
0
 10
-271.250000
 20
-80.000000
 11
-161.250000
 21
-80.000000
  0
LINE
  8
0
 10
-271.250000
 20
-95.000000
 11
-161.250000
 21
-95.000000
  0
LINE
  8
0
 10
-271.250000
 20
-110.000000
 11
-161.250000
 21
-110.000000
  0
LINE
  8
0
 10
-271.250000
 20
-125.000000
 11
-161.250000
 21
-125.000000
  0
LINE
  8
0
 10
-271.250000
 20
-140.000000
 11
-161.250000
 21
-140.000000
  0
LINE
  8
0
 10
-271.250000
 20
-155.000000
 11
-161.250000
 21
-155.000000
  0
LINE
  8
0
 10
-271.250000
 20
-170.000000
 11
-161.250000
 21
-170.000000
  0
LINE
  8
0
 10
-271.250000
 20
-185.000000
 11
-161.250000
 21
-185.000000
  0
LINE
  8
0
 10
-203.250000
 20
-57.500000
 11
-194.250000
 21
-57.500000
  0
LINE
  8
0
 10
-211.250000
 20
-35.000000
 11
-211.250000
 21
-185.000000
  0
LINE
  8
0
 10
-186.250000
 20
-35.000000
 11
-186.250000
 21
-185.000000
  0
LINE
  8
0
 10
-161.250000
 20
-35.000000
 11
-161.250000
 21
-185.000000
  0
LINE
  8
0
 10
-281.250000
 20
195.500000
 11
282.099854
 21
195.500000
  0
LINE
  8
0
 10
-281.250000
 20
195.500000
 11
-281.250000
 21
-195.000000
  0
LINE
  8
0
 10
282.099854
 20
195.500000
 11
282.099854
 21
-195.000000
  0
LINE
  8
0
 10
-281.250000
 20
-195.000000
 11
282.099854
 21
-195.000000
  0
LINE
  8
0
 10
162.099976
 20
-175.000000
 11
162.099976
 21
-195.000000
  0
LINE
  8
0
 10
162.099976
 20
-175.000000
 11
282.099854
 21
-175.000000
  0
LINE
  8
0
 10
162.099976
 20
175.500000
 11
282.099854
 21
175.500000
  0
LINE
  8
0
 10
-281.250000
 20
175.500000
 11
-161.250000
 21
175.500000
  0
LINE
  8
0
 10
162.099976
 20
195.500000
 11
162.099976
 21
175.500000
  0
LINE
  8
0
 10
-161.250000
 20
195.500000
 11
-161.250000
 21
175.500000
  0
ARC
  8
0
 62
     4
 10
58.691582
 20
120.178040
 40
1.699997
 50
270.000000
 51
90.000000
  0
ARC
  8
0
 62
     4
 10
52.886589
 20
115.678116
 40
6.000531
 50
251.791718
 51
288.208313
  0
ARC
  8
0
 62
     4
 10
61.891594
 20
115.678116
 40
5.998061
 50
247.968231
 51
292.031799
  0
CIRCLE
  8
0
 62
     4
 10
56.091515
 20
120.178085
 40
0.850000
  0
CIRCLE
  8
0
 62
     4
 10
58.691521
 20
120.178085
 40
0.850000
  0
ARC
  8
0
 62
     4
 10
56.091591
 20
120.178040
 40
1.699997
 50
90.000000
 51
270.000000
  0
ARC
  8
0
 62
     4
 10
42.691582
 20
120.178040
 40
1.699997
 50
270.000000
 51
90.000000
  0
ARC
  8
0
 62
     4
 10
36.886593
 20
115.678131
 40
6.000545
 50
251.791794
 51
288.208252
  0
ARC
  8
0
 62
     4
 10
45.891594
 20
115.678131
 40
5.998075
 50
247.968292
 51
292.031738
  0
CIRCLE
  8
0
 62
     4
 10
40.091522
 20
120.178101
 40
0.850000
  0
CIRCLE
  8
0
 62
     4
 10
42.691521
 20
120.178101
 40
0.850000
  0
ARC
  8
0
 62
     4
 10
40.091595
 20
120.178040
 40
1.699997
 50
90.000000
 51
270.000000
  0
ARC
  8
0
 62
     4
 10
26.691593
 20
120.178040
 40
1.699997
 50
270.000000
 51
90.000000
  0
ARC
  8
0
 62
     4
 10
20.896595
 20
115.678131
 40
6.000545
 50
251.791779
 51
288.208252
  0
ARC
  8
0
 62
     4
 10
29.891594
 20
115.678131
 40
5.998076
 50
247.968277
 51
292.031738
  0
CIRCLE
  8
0
 62
     4
 10
24.091522
 20
120.178101
 40
0.850000
  0
CIRCLE
  8
0
 62
     4
 10
26.691528
 20
120.178101
 40
0.850000
  0
ARC
  8
0
 62
     4
 10
24.091595
 20
120.178040
 40
1.699997
 50
90.000000
 51
269.999939
  0
ARC
  8
0
 62
     4
 10
74.691582
 20
120.178040
 40
1.699997
 50
270.000000
 51
90.000000
  0
ARC
  8
0
 62
     4
 10
68.886589
 20
115.678116
 40
6.000531
 50
251.791718
 51
288.208282
  0
ARC
  8
0
 62
     4
 10
77.891594
 20
115.678116
 40
5.998062
 50
247.968201
 51
292.031799
  0
CIRCLE
  8
0
 62
     4
 10
72.091515
 20
120.178085
 40
0.850000
  0
CIRCLE
  8
0
 62
     4
 10
74.691521
 20
120.178085
 40
0.850000
  0
ARC
  8
0
 62
     4
 10
72.091591
 20
120.178040
 40
1.699997
 50
90.000000
 51
270.000000
  0
CIRCLE
  8
0
 62
     2
 10
33.391590
 20
141.178085
 40
1.500000
  0
CIRCLE
  8
0
 10
33.391590
 20
141.178085
 40
0.750000
  0
CIRCLE
  8
0
 10
81.391579
 20
141.178024
 40
0.750000
  0
CIRCLE
  8
0
 62
     2
 10
81.391579
 20
141.178024
 40
1.500000
  0
ARC
  8
0
 10
25.391600
 20
14.402035
 40
2.249000
 50
316.080963
 51
223.919052
  0
ARC
  8
0
 62
     4
 10
94.891602
 20
-8.558979
 40
2.338971
 50
195.853897
 51
344.146149
  0
ARC
  8
0
 62
     4
 10
83.891602
 20
-8.558994
 40
2.338971
 50
195.853897
 51
344.146149
  0
CIRCLE
  8
0
 62
     4
 10
52.891602
 20
-27.597965
 40
2.250000
  0
CIRCLE
  8
0
 62
     4
 10
52.891602
 20
-27.597965
 40
2.550000
  0
CIRCLE
  8
0
 62
     4
 10
61.891602
 20
-9.597965
 40
2.250000
  0
ARC
  8
0
 62
     4
 10
61.891602
 20
-9.597965
 40
3.000000
 50
180.000031
 51
270.000000
  0
ARC
  8
0
 62
     4
 10
52.891602
 20
-27.597965
 40
3.000000
 50
0.000000
 51
90.000000
  0
CIRCLE
  8
0
 62
     4
 10
61.891602
 20
-9.597965
 40
2.550000
  0
CIRCLE
  8
0
 62
     4
 10
36.891594
 20
-27.597965
 40
2.250000
  0
CIRCLE
  8
0
 62
     4
 10
45.891602
 20
-9.597965
 40
2.250000
  0
CIRCLE
  8
0
 62
     4
 10
36.891594
 20
-27.597965
 40
2.550000
  0
CIRCLE
  8
0
 62
     4
 10
45.891602
 20
-9.597965
 40
2.550000
  0
ARC
  8
0
 62
     4
 10
36.891598
 20
-27.597965
 40
3.000004
 50
0.000036
 51
89.999924
  0
ARC
  8
0
 62
     4
 10
45.891602
 20
-9.597965
 40
3.000000
 50
180.000031
 51
270.000000
  0
CIRCLE
  8
0
 62
     4
 10
20.891596
 20
-27.597965
 40
2.250000
  0
CIRCLE
  8
0
 62
     4
 10
29.891611
 20
-9.597965
 40
2.250000
  0
CIRCLE
  8
0
 62
     4
 10
20.891596
 20
-27.597965
 40
2.550000
  0
CIRCLE
  8
0
 62
     4
 10
29.891611
 20
-9.597965
 40
2.550000
  0
ARC
  8
0
 62
     4
 10
20.891598
 20
-27.597965
 40
3.000002
 50
0.000036
 51
89.999924
  0
ARC
  8
0
 62
     4
 10
29.891605
 20
-9.597950
 40
3.000006
 50
180.000153
 51
269.999878
  0
CIRCLE
  8
0
 62
     4
 10
68.891602
 20
-27.597965
 40
2.250000
  0
CIRCLE
  8
0
 62
     4
 10
77.891602
 20
-9.597965
 40
2.250000
  0
CIRCLE
  8
0
 62
     4
 10
68.891602
 20
-27.597965
 40
2.550000
  0
CIRCLE
  8
0
 62
     4
 10
77.891602
 20
-9.597965
 40
2.550000
  0
ARC
  8
0
 62
     4
 10
68.891602
 20
-27.597965
 40
3.000000
 50
0.000000
 51
90.000000
  0
ARC
  8
0
 62
     4
 10
77.891602
 20
-9.597965
 40
3.000000
 50
180.000031
 51
270.000000
  0
CIRCLE
  8
0
 10
89.391602
 20
14.402035
 40
2.250000
  0
ARC
  8
0
 10
25.391600
 20
14.402035
 40
2.245172
 50
244.119781
 51
295.880310
  0
CIRCLE
  8
0
 10
196.349380
 20
-124.778610
 40
2.099999
  0
CIRCLE
  8
0
 10
201.349380
 20
-134.778610
 40
2.500000
  0
ARC
  8
0
 62
     4
 10
169.854385
 20
-97.778641
 40
6.000480
 50
71.791550
 51
108.208427
  0
ARC
  8
0
 62
     4
 10
187.849380
 20
-97.778595
 40
5.997977
 50
67.967873
 51
112.032127
  0
ARC
  8
0
 62
     4
 10
188.888367
 20
-129.278610
 40
2.338972
 50
105.854004
 51
254.145996
  0
CIRCLE
  8
0
 62
     2
 10
201.349380
 20
-134.778610
 40
3.000000
  0
CIRCLE
  8
0
 62
     2
 10
196.349380
 20
-124.778610
 40
2.500000
  0
ARC
  8
0
 10
173.549377
 20
-129.283615
 40
5.991499
 50
162.366348
 51
197.633652
  0
CIRCLE
  8
0
 10
-103.566422
 20
-134.778824
 40
2.500000
  0
CIRCLE
  8
0
 10
-98.566422
 20
-124.778824
 40
2.099999
  0
ARC
  8
0
 62
     4
 10
-90.071426
 20
-97.778854
 40
6.000483
 50
71.791481
 51
108.208359
  0
ARC
  8
0
 62
     4
 10
-72.066422
 20
-97.778809
 40
5.997977
 50
67.967873
 51
112.032127
  0
CIRCLE
  8
0
 62
     2
 10
-103.566422
 20
-134.778824
 40
3.000000
  0
CIRCLE
  8
0
 62
     2
 10
-98.566422
 20
-124.778824
 40
2.500000
  0
ARC
  8
0
 10
-75.766434
 20
-129.283829
 40
5.991521
 50
342.366425
 51
17.633581
  0
CIRCLE
  8
0
 10
73.391602
 20
-132.278748
 40
2.099999
  0
CIRCLE
  8
0
 10
57.391598
 20
-132.278748
 40
2.099999
  0
CIRCLE
  8
0
 10
41.391598
 20
-132.278748
 40
2.099999
  0
CIRCLE
  8
0
 10
25.391598
 20
-132.278748
 40
2.099999
  0
ARC
  8
0
 62
     4
 10
52.891598
 20
-97.778763
 40
5.998020
 50
67.968033
 51
112.031929
  0
ARC
  8
0
 62
     4
 10
61.886593
 20
-97.778778
 40
6.000482
 50
71.791519
 51
108.208389
  0
ARC
  8
0
 62
     4
 10
36.891598
 20
-97.778763
 40
5.998020
 50
67.968033
 51
112.031929
  0
ARC
  8
0
 62
     4
 10
45.886593
 20
-97.778778
 40
6.000482
 50
71.791519
 51
108.208389
  0
ARC
  8
0
 62
     4
 10
20.891598
 20
-97.778763
 40
5.998021
 50
67.968018
 51
112.031944
  0
ARC
  8
0
 62
     4
 10
29.886597
 20
-97.778778
 40
6.000482
 50
71.791519
 51
108.208389
  0
ARC
  8
0
 62
     4
 10
68.891602
 20
-97.778763
 40
5.998020
 50
67.968033
 51
112.031967
  0
ARC
  8
0
 62
     4
 10
77.886597
 20
-97.778778
 40
6.000483
 50
71.791481
 51
108.208359
  0
CIRCLE
  8
0
 10
62.891598
 20
-129.278748
 40
2.250000
  0
CIRCLE
  8
0
 10
51.891598
 20
-129.278748
 40
2.250000
  0
ARC
  8
0
 10
51.891598
 20
-129.283752
 40
2.700787
 50
222.223724
 51
137.776276
  0
ARC
  8
0
 10
62.891582
 20
-129.283752
 40
2.700787
 50
42.223728
 51
317.776276
  0
CIRCLE
  8
0
 62
     2
 10
57.391598
 20
-132.278748
 40
2.500000
  0
CIRCLE
  8
0
 10
57.391598
 20
-123.778748
 40
1.500000
  0
CIRCLE
  8
0
 10
78.891602
 20
-129.278748
 40
2.250000
  0
CIRCLE
  8
0
 10
67.891602
 20
-129.278748
 40
2.250000
  0
ARC
  8
0
 10
67.891602
 20
-129.283752
 40
2.700784
 50
222.223785
 51
137.776215
  0
ARC
  8
0
 10
78.891586
 20
-129.283752
 40
2.700784
 50
42.223782
 51
317.776215
  0
CIRCLE
  8
0
 62
     2
 10
73.391602
 20
-132.278748
 40
2.500000
  0
CIRCLE
  8
0
 10
73.391602
 20
-123.778748
 40
1.500000
  0
CIRCLE
  8
0
 10
46.891598
 20
-129.278748
 40
2.250000
  0
CIRCLE
  8
0
 10
35.891598
 20
-129.278748
 40
2.250000
  0
ARC
  8
0
 10
35.891602
 20
-129.283752
 40
2.700787
 50
222.223724
 51
137.776276
  0
ARC
  8
0
 10
46.891582
 20
-129.283752
 40
2.700787
 50
42.223728
 51
317.776276
  0
CIRCLE
  8
0
 62
     2
 10
41.391598
 20
-132.278748
 40
2.500000
  0
CIRCLE
  8
0
 10
41.391598
 20
-123.778748
 40
1.500000
  0
CIRCLE
  8
0
 10
30.891598
 20
-129.278748
 40
2.250000
  0
CIRCLE
  8
0
 10
19.891598
 20
-129.278748
 40
2.250000
  0
ARC
  8
0
 10
19.891602
 20
-129.283752
 40
2.700785
 50
222.223755
 51
137.776245
  0
ARC
  8
0
 10
30.891594
 20
-129.283752
 40
2.700787
 50
42.223728
 51
317.776276
  0
CIRCLE
  8
0
 62
     2
 10
25.391598
 20
-132.278748
 40
2.500000
  0
CIRCLE
  8
0
 10
25.391598
 20
-123.778748
 40
1.500000
  0
CIRCLE
  8
0
 62
     4
 10
94.891602
 20
-129.278748
 40
2.250000
  0
CIRCLE
  8
0
 62
     4
 10
83.891602
 20
-129.278748
 40
2.250000
  0
ARC
  8
0
 62
     4
 10
94.891602
 20
-134.278748
 40
2.000000
 50
270.000000
 51
0.000000
  0
ARC
  8
0
 62
     4
 10
83.891602
 20
-134.278748
 40
2.000000
 50
180.000000
 51
270.000000
  0
ARC
  8
0
 62
     4
 10
83.891602
 20
-123.278748
 40
2.000000
 50
90.000000
 51
180.000000
  0
ARC
  8
0
 62
     4
 10
94.891602
 20
-123.278748
 40
2.000000
 50
0.000000
 51
90.000000
  0
TEXT
  8
0
 10
-228.642654
 20
-45.549999
 40
4.500000
  1
P1
 50
0.000000
 41
1.052632
 51
0.000000
  7
STANDARD
  0
TEXT
  8
0
 10
-203.642654
 20
-45.549999
 40
4.500000
  1
P2
 50
0.000000
 41
1.052632
 51
0.000000
  7
STANDARD
  0
TEXT
  8
0
 10
-176.392654
 20
-45.549999
 40
4.500000
  1
L
 50
0.000000
 41
1.052632
 51
0.000000
  7
STANDARD
  0
TEXT
  8
0
 10
-263.142670
 20
-45.549999
 40
4.500000
  1
TYPE
 50
0.000000
 41
1.052632
 51
0.000000
  7
STANDARD
  0
TEXT
  8
0
 10
-266.199951
 20
-59.200001
 40
4.500000
  1
YM 2T
 50
0.000000
 41
1.052632
 51
0.000000
  7
STANDARD
  0
TEXT
  8
0
 10
-266.199951
 20
-74.199997
 40
4.500000
  1
YM 3T
 50
0.000000
 41
1.052632
 51
0.000000
  7
STANDARD
  0
TEXT
  8
0
 10
-266.199951
 20
-89.199997
 40
4.500000
  1
YM 4T
 50
0.000000
 41
1.052632
 51
0.000000
  7
STANDARD
  0
TEXT
  8
0
 10
-266.199951
 20
-104.199997
 40
4.500000
  1
YM 5T
 50
0.000000
 41
1.052632
 51
0.000000
  7
STANDARD
  0
TEXT
  8
0
 10
-266.199951
 20
-119.199997
 40
4.500000
  1
YM 6T
 50
0.000000
 41
1.052632
 51
0.000000
  7
STANDARD
  0
TEXT
  8
0
 10
-266.199951
 20
-134.199997
 40
4.500000
  1
YM 7T
 50
0.000000
 41
1.052632
 51
0.000000
  7
STANDARD
  0
TEXT
  8
0
 10
-266.199951
 20
-149.199997
 40
4.500000
  1
YM 8T
 50
0.000000
 41
1.052632
 51
0.000000
  7
STANDARD
  0
TEXT
  8
0
 10
-266.199951
 20
-164.199997
 40
4.500000
  1
YM 9T
 50
0.000000
 41
1.052632
 51
0.000000
  7
STANDARD
  0
TEXT
  8
0
 10
-266.199951
 20
-179.199997
 40
4.500000
  1
YM10T
 50
0.000000
 41
1.052632
 51
0.000000
  7
STANDARD
  0
TEXT
  8
0
 10
-176.392654
 20
-60.549999
 40
4.500000
  1
32
 50
0.000000
 41
1.052632
 51
0.000000
  7
STANDARD
  0
TEXT
  8
0
 10
-176.392654
 20
-75.550003
 40
4.500000
  1
48
 50
0.000000
 41
1.052632
 51
0.000000
  7
STANDARD
  0
TEXT
  8
0
 10
-176.392654
 20
-90.550003
 40
4.500000
  1
64
 50
0.000000
 41
1.052632
 51
0.000000
  7
STANDARD
  0
TEXT
  8
0
 10
-176.392654
 20
-105.550003
 40
4.500000
  1
80
 50
0.000000
 41
1.052632
 51
0.000000
  7
STANDARD
  0
TEXT
  8
0
 10
-176.392654
 20
-120.550003
 40
4.500000
  1
96
 50
0.000000
 41
1.052632
 51
0.000000
  7
STANDARD
  0
TEXT
  8
0
 10
-180.892654
 20
-135.550003
 40
4.500000
  1
112
 50
0.000000
 41
1.052632
 51
0.000000
  7
STANDARD
  0
TEXT
  8
0
 10
-180.892654
 20
-150.550003
 40
4.500000
  1
128
 50
0.000000
 41
1.052632
 51
0.000000
  7
STANDARD
  0
TEXT
  8
0
 10
-180.892654
 20
-165.550003
 40
4.500000
  1
144
 50
0.000000
 41
1.052632
 51
0.000000
  7
STANDARD
  0
TEXT
  8
0
 10
-230.892654
 20
-180.550003
 40
4.500000
  1
144
 50
0.000000
 41
1.052632
 51
0.000000
  7
STANDARD
  0
TEXT
  8
0
 10
-230.892654
 20
-165.550003
 40
4.500000
  1
128
 50
0.000000
 41
1.052632
 51
0.000000
  7
STANDARD
  0
TEXT
  8
0
 10
-230.892654
 20
-150.550003
 40
4.500000
  1
112
 50
0.000000
 41
1.052632
 51
0.000000
  7
STANDARD
  0
TEXT
  8
0
 10
-226.392654
 20
-135.550003
 40
4.500000
  1
96
 50
0.000000
 41
1.052632
 51
0.000000
  7
STANDARD
  0
TEXT
  8
0
 10
-226.392654
 20
-120.550003
 40
4.500000
  1
80
 50
0.000000
 41
1.052632
 51
0.000000
  7
STANDARD
  0
TEXT
  8
0
 10
-226.392654
 20
-105.550003
 40
4.500000
  1
64
 50
0.000000
 41
1.052632
 51
0.000000
  7
STANDARD
  0
TEXT
  8
0
 10
-226.392654
 20
-90.550003
 40
4.500000
  1
48
 50
0.000000
 41
1.052632
 51
0.000000
  7
STANDARD
  0
TEXT
  8
0
 10
-226.392654
 20
-75.550003
 40
4.500000
  1
32
 50
0.000000
 41
1.052632
 51
0.000000
  7
STANDARD
  0
TEXT
  8
0
 10
-226.392654
 20
-60.549999
 40
4.500000
  1
16
 50
0.000000
 41
1.052632
 51
0.000000
  7
STANDARD
  0
TEXT
  8
0
 10
-205.892654
 20
-180.550003
 40
4.500000
  1
128
 50
0.000000
 41
1.052632
 51
0.000000
  7
STANDARD
  0
TEXT
  8
0
 10
-205.892654
 20
-165.550003
 40
4.500000
  1
112
 50
0.000000
 41
1.052632
 51
0.000000
  7
STANDARD
  0
TEXT
  8
0
 10
-201.392654
 20
-150.550003
 40
4.500000
  1
96
 50
0.000000
 41
1.052632
 51
0.000000
  7
STANDARD
  0
TEXT
  8
0
 10
-201.392654
 20
-135.550003
 40
4.500000
  1
80
 50
0.000000
 41
1.052632
 51
0.000000
  7
STANDARD
  0
TEXT
  8
0
 10
-201.392654
 20
-120.550003
 40
4.500000
  1
64
 50
0.000000
 41
1.052632
 51
0.000000
  7
STANDARD
  0
TEXT
  8
0
 10
-201.392654
 20
-105.550003
 40
4.500000
  1
48
 50
0.000000
 41
1.052632
 51
0.000000
  7
STANDARD
  0
TEXT
  8
0
 10
-201.392654
 20
-90.550003
 40
4.500000
  1
32
 50
0.000000
 41
1.052632
 51
0.000000
  7
STANDARD
  0
TEXT
  8
0
 10
-201.392654
 20
-75.550003
 40
4.500000
  1
16
 50
0.000000
 41
1.052632
 51
0.000000
  7
STANDARD
  0
TEXT
  8
0
 10
-180.892654
 20
-180.550003
 40
4.500000
  1
160
 50
0.000000
 41
1.052632
 51
0.000000
  7
STANDARD
  0
TEXT
  8
0
 10
-248.142654
 20
-28.050001
 40
4.500000
  1
DIMENSION LIST
 50
0.000000
 41
1.052632
 51
0.000000
  7
STANDARD
  0
TEXT
  8
0
 10
-266.000000
 20
157.720001
 40
6.300000
  1
MODEL:YM5T
 50
0.000000
 41
1.052632
 51
0.000000
  7
STANDARD
  0
TEXT
  8
0
 10
-253.399719
 20
180.830002
 40
6.300000
  1
030 SERIES
 50
0.000000
 41
1.052632
 51
0.000000
  7
STANDARD
  0
TEXT
  8
0
 10
196.250259
 20
180.830002
 40
6.300000
  1
Vƒ¶ . 1.0
 50
0.000000
 41
1.052632
 51
0.000000
  7
STANDARD
  0
TEXT
  8
0
 10
167.564651
 20
-192.100006
 40
9.000000
  1
KOGANEI CORP.
 50
0.000000
 41
1.052632
 51
0.000000
  7
STANDARD
  0
TEXT
  8
0
 62
     2
 10
19.584602
 20
45.314484
 40
3.200000
  1
8
 50
0.000000
 41
1.052632
 51
0.000000
  7
STANDARD
  0
LINE
  8
0
 62
     2
 10
17.391602
 20
44.314484
 11
25.391602
 21
44.314484
  0
LINE
  8
0
 62
     2
 10
17.391602
 20
44.314484
 11
14.493824
 21
43.538025
  0
LINE
  8
0
 62
     2
 10
17.391602
 20
44.314484
 11
14.493824
 21
45.090942
  0
LINE
  8
0
 62
     2
 10
17.391602
 20
44.314484
 11
11.391602
 21
44.314484
  0
LINE
  8
0
 62
     2
 10
25.391602
 20
44.314484
 11
28.289379
 21
45.090942
  0
LINE
  8
0
 62
     2
 10
25.391602
 20
44.314484
 11
28.289379
 21
43.538025
  0
LINE
  8
0
 62
     2
 10
25.391602
 20
44.314484
 11
31.391602
 21
44.314484
  0
LINE
  8
0
 62
     2
 10
17.391602
 20
9.402039
 11
17.391602
 21
45.814484
  0
LINE
  8
0
 62
     2
 10
25.391602
 20
17.902039
 11
25.391602
 21
45.814484
  0
TEXT
  8
0
 62
     2
 10
53.984600
 20
45.314484
 40
3.200000
  1
P1
 50
0.000000
 41
1.052632
 51
0.000000
  7
STANDARD
  0
LINE
  8
0
 62
     2
 10
25.391602
 20
44.314484
 11
89.391602
 21
44.314484
  0
LINE
  8
0
 62
     2
 10
25.391602
 20
44.314484
 11
28.289379
 21
45.090942
  0
LINE
  8
0
 62
     2
 10
25.391602
 20
44.314484
 11
28.289379
 21
43.538025
  0
LINE
  8
0
 62
     2
 10
89.391602
 20
44.314484
 11
86.493828
 21
43.538025
  0
LINE
  8
0
 62
     2
 10
89.391602
 20
44.314484
 11
86.493828
 21
45.090942
  0
LINE
  8
0
 62
     2
 10
25.391602
 20
17.902039
 11
25.391602
 21
45.814484
  0
LINE
  8
0
 62
     2
 10
89.391602
 20
17.902039
 11
89.391602
 21
45.814484
  0
TEXT
  8
0
 62
     2
 10
91.584602
 20
45.314484
 40
3.200000
  1
8
 50
0.000000
 41
1.052632
 51
0.000000
  7
STANDARD
  0
LINE
  8
0
 62
     2
 10
89.391602
 20
44.314484
 11
97.391602
 21
44.314484
  0
LINE
  8
0
 62
     2
 10
89.391602
 20
44.314484
 11
86.493828
 21
43.538025
  0
LINE
  8
0
 62
     2
 10
89.391602
 20
44.314484
 11
86.493828
 21
45.090942
  0
LINE
  8
0
 62
     2
 10
89.391602
 20
44.314484
 11
83.391602
 21
44.314484
  0
LINE
  8
0
 62
     2
 10
97.391602
 20
44.314484
 11
100.289375
 21
45.090942
  0
LINE
  8
0
 62
     2
 10
97.391602
 20
44.314484
 11
100.289375
 21
43.538025
  0
LINE
  8
0
 62
     2
 10
97.391602
 20
44.314484
 11
103.391602
 21
44.314484
  0
LINE
  8
0
 62
     2
 10
89.391602
 20
17.902039
 11
89.391602
 21
45.814484
  0
LINE
  8
0
 62
     2
 10
97.391602
 20
9.402039
 11
97.391602
 21
45.814484
  0
TEXT
  8
0
 62
     2
 10
55.650688
 20
60.304993
 40
3.200000
  1
L
 50
0.000000
 41
1.052632
 51
0.000000
  7
STANDARD
  0
LINE
  8
0
 62
     2
 10
17.391602
 20
59.304993
 11
97.391602
 21
59.304993
  0
LINE
  8
0
 62
     2
 10
17.391602
 20
59.304993
 11
20.289379
 21
60.081451
  0
LINE
  8
0
 62
     2
 10
17.391602
 20
59.304993
 11
20.289379
 21
58.528534
  0
LINE
  8
0
 62
     2
 10
97.391602
 20
59.304993
 11
94.493828
 21
58.528534
  0
LINE
  8
0
 62
     2
 10
97.391602
 20
59.304993
 11
94.493828
 21
60.081451
  0
LINE
  8
0
 62
     2
 10
17.391602
 20
9.402039
 11
17.391602
 21
60.804993
  0
LINE
  8
0
 62
     2
 10
97.391602
 20
9.402039
 11
97.391602
 21
60.804993
  0
TEXT
  8
0
 62
     2
 10
21.984602
 20
179.872406
 40
3.200000
  1
16
 50
0.000000
 41
1.052632
 51
0.000000
  7
STANDARD
  0
LINE
  8
0
 62
     2
 10
17.391602
 20
178.872406
 11
33.391602
 21
178.872406
  0
LINE
  8
0
 62
     2
 10
17.391602
 20
178.872406
 11
20.289379
 21
179.648865
  0
LINE
  8
0
 62
     2
 10
17.391602
 20
178.872406
 11
20.289379
 21
178.095947
  0
LINE
  8
0
 62
     2
 10
33.391602
 20
178.872406
 11
30.493824
 21
178.095947
  0
LINE
  8
0
 62
     2
 10
33.391602
 20
178.872406
 11
30.493824
 21
179.648865
  0
LINE
  8
0
 62
     2
 10
17.391602
 20
158.108093
 11
17.391602
 21
180.372406
  0
LINE
  8
0
 62
     2
 10
33.391602
 20
144.108093
 11
33.391602
 21
180.372406
  0
TEXT
  8
0
 62
     2
 10
53.984600
 20
179.872406
 40
3.200000
  1
P2
 50
0.000000
 41
1.052632
 51
0.000000
  7
STANDARD
  0
LINE
  8
0
 62
     2
 10
33.391602
 20
178.872406
 11
81.391602
 21
178.872406
  0
LINE
  8
0
 62
     2
 10
33.391602
 20
178.872406
 11
36.289379
 21
179.648865
  0
LINE
  8
0
 62
     2
 10
33.391602
 20
178.872406
 11
36.289379
 21
178.095947
  0
LINE
  8
0
 62
     2
 10
81.391602
 20
178.872406
 11
78.493828
 21
178.095947
  0
LINE
  8
0
 62
     2
 10
81.391602
 20
178.872406
 11
78.493828
 21
179.648865
  0
LINE
  8
0
 62
     2
 10
33.391602
 20
144.108093
 11
33.391602
 21
180.372406
  0
LINE
  8
0
 62
     2
 10
81.391602
 20
144.108032
 11
81.391602
 21
180.372406
  0
TEXT
  8
0
 62
     2
 10
85.984604
 20
179.872406
 40
3.200000
  1
16
 50
0.000000
 41
1.052632
 51
0.000000
  7
STANDARD
  0
LINE
  8
0
 62
     2
 10
81.391602
 20
178.872406
 11
97.391602
 21
178.872406
  0
LINE
  8
0
 62
     2
 10
81.391602
 20
178.872406
 11
84.289375
 21
179.648865
  0
LINE
  8
0
 62
     2
 10
81.391602
 20
178.872406
 11
84.289375
 21
178.095947
  0
LINE
  8
0
 62
     2
 10
97.391602
 20
178.872406
 11
94.493828
 21
178.095947
  0
LINE
  8
0
 62
     2
 10
97.391602
 20
178.872406
 11
94.493828
 21
179.648865
  0
LINE
  8
0
 62
     2
 10
81.391602
 20
144.108032
 11
81.391602
 21
180.372406
  0
LINE
  8
0
 62
     2
 10
97.391602
 20
158.108078
 11
97.391602
 21
180.372406
  0
LINE
  8
0
 62
     2
 10
89.391525
 20
-121.278656
 11
96.891510
 21
-108.288300
  0
LINE
  8
0
 62
     2
 10
96.891510
 20
-108.288300
 11
107.972794
 21
-108.288300
  0
LINE
  8
0
 62
     2
 10
89.391525
 20
-121.278656
 11
91.512848
 21
-119.157333
  0
LINE
  8
0
 62
     2
 10
89.391525
 20
-121.278656
 11
90.167984
 21
-118.380882
  0
TEXT
  8
0
 62
     2
 10
97.708794
 20
-107.288300
 40
3.200000
  1
-BP
 50
0.000000
 41
1.052632
 51
0.000000
  7
STANDARD
  0
LINE
  8
0
 62
     2
 10
25.391588
 20
-92.078781
 11
17.891586
 21
-79.088371
  0
LINE
  8
0
 62
     2
 10
17.891586
 20
-79.088371
 11
0.443513
 21
-79.088364
  0
LINE
  8
0
 62
     2
 10
25.391588
 20
-92.078781
 11
24.615133
 21
-89.181000
  0
LINE
  8
0
 62
     2
 10
25.391588
 20
-92.078781
 11
23.270269
 21
-89.957458
  0
TEXT
  8
0
 62
     2
 10
0.693513
 20
-78.088364
 40
3.200000
  1
030E1
 50
0.000000
 41
1.052632
 51
0.000000
  7
STANDARD
  0
ENDSEC
  0
EOF
