  0
SECTION
  2
HEADER
  9
$ACADVER
  1
AC1012
  9
$DWGCODEPAGE
  3
dos932
  9
$INSBASE
 10
0.0
 20
0.0
 30
0.0
  9
$EXTMIN
 10
-281.25
 20
-195.0
 30
0.0
  9
$EXTMAX
 10
285.63191774774975
 20
195.5
 30
0.0
  9
$LIMMIN
 10
-281.25
 20
-195.0
  9
$LIMMAX
 10
285.63191774774975
 20
195.5
  9
$ORTHOMODE
 70
               0
  9
$REGENMODE
 70
               1
  9
$FILLMODE
 70
               1
  9
$QTEXTMODE
 70
               0
  9
$MIRRTEXT
 70
               1
  9
$DRAGMODE
 70
               2
  9
$LTSCALE
 40
1.0
  9
$OSMODE
 70
               0
  9
$ATTMODE
 70
               1
  9
$TEXTSIZE
 40
3.2000000476837158
  9
$TRACEWID
 40
0.05
  9
$TEXTSTYLE
  7
MX_NOTE_STANDARD
  9
$CLAYER
  8
0
  9
$CELTYPE
  6
CONTINUOUS
  9
$CECOLOR
 62
             256
  9
$CELTSCALE
 40
1.0
  9
$DELOBJ
 70
               1
  9
$DISPSILH
 70
               0
  9
$DIMSCALE
 40
1.0
  9
$DIMASZ
 40
2.5
  9
$DIMEXO
 40
1.5
  9
$DIMDLI
 40
3.75
  9
$DIMRND
 40
0.0
  9
$DIMDLE
 40
0.0
  9
$DIMEXE
 40
1.5
  9
$DIMTP
 40
0.0
  9
$DIMTM
 40
0.0
  9
$DIMTXT
 40
3.2000000476837158
  9
$DIMCEN
 40
2.5
  9
$DIMTSZ
 40
0.0
  9
$DIMTOL
 70
               0
  9
$DIMLIM
 70
               0
  9
$DIMTIH
 70
               0
  9
$DIMTOH
 70
               0
  9
$DIMSE1
 70
               0
  9
$DIMSE2
 70
               0
  9
$DIMTAD
 70
               1
  9
$DIMZIN
 70
               8
  9
$DIMBLK
  1

  9
$DIMASO
 70
               1
  9
$DIMSHO
 70
               1
  9
$DIMPOST
  1

  9
$DIMAPOST
  1

  9
$DIMALT
 70
               0
  9
$DIMALTD
 70
               4
  9
$DIMALTF
 40
0.03937007874016
  9
$DIMLFAC
 40
1.0
  9
$DIMTOFL
 70
               1
  9
$DIMTVP
 40
0.0
  9
$DIMTIX
 70
               0
  9
$DIMSOXD
 70
               0
  9
$DIMSAH
 70
               0
  9
$DIMBLK1
  1

  9
$DIMBLK2
  1

  9
$DIMSTYLE
  2
MXDIMSTYLE
  9
$DIMCLRD
 70
               0
  9
$DIMCLRE
 70
               0
  9
$DIMCLRT
 70
               0
  9
$DIMTFAC
 40
1.0
  9
$DIMGAP
 40
1.0
  9
$DIMJUST
 70
               0
  9
$DIMSD1
 70
               0
  9
$DIMSD2
 70
               0
  9
$DIMTOLJ
 70
               1
  9
$DIMTZIN
 70
               0
  9
$DIMALTZ
 70
               0
  9
$DIMALTTZ
 70
               0
  9
$DIMFIT
 70
               3
  9
$DIMUPT
 70
               1
  9
$DIMUNIT
 70
               2
  9
$DIMDEC
 70
               4
  9
$DIMTDEC
 70
               4
  9
$DIMALTU
 70
               2
  9
$DIMALTTD
 70
               4
  9
$DIMTXSTY
  7
MX_NOTE_STANDARD
  9
$DIMAUNIT
 70
               0
  9
$LUNITS
 70
               2
  9
$LUPREC
 70
               4
  9
$SKETCHINC
 40
0.1
  9
$FILLETRAD
 40
0.0
  9
$AUNITS
 70
               0
  9
$AUPREC
 70
               0
  9
$MENU
  1
acad
  9
$ELEVATION
 40
0.0
  9
$PELEVATION
 40
0.0
  9
$THICKNESS
 40
0.0
  9
$LIMCHECK
 70
               0
  9
$BLIPMODE
 70
               1
  9
$CHAMFERA
 40
0.0
  9
$CHAMFERB
 40
0.0
  9
$CHAMFERC
 40
0.0
  9
$CHAMFERD
 40
0.0
  9
$SKPOLY
 70
               0
  9
$TDCREATE
 40
2453378.356851852
  9
$TDUPDATE
 40
2453378.356851852
  9
$TDINDWG
 40
0.0000000000
  9
$TDUSRTIMER
 40
0.0000000000
  9
$USRTIMER
 70
               1
  9
$ANGBASE
 50
0.0
  9
$ANGDIR
 70
               0
  9
$PDMODE
 70
               0
  9
$PDSIZE
 40
0.0
  9
$PLINEWID
 40
0.0
  9
$COORDS
 70
               1
  9
$SPLFRAME
 70
               0
  9
$SPLINETYPE
 70
               6
  9
$SPLINESEGS
 70
               8
  9
$ATTDIA
 70
               0
  9
$ATTREQ
 70
               1
  9
$HANDLING
 70
               1
  9
$HANDSEED
  5
4B1
  9
$SURFTAB1
 70
               6
  9
$SURFTAB2
 70
               6
  9
$SURFTYPE
 70
               6
  9
$SURFU
 70
               6
  9
$SURFV
 70
               6
  9
$UCSNAME
  2

  9
$UCSORG
 10
0.0
 20
0.0
 30
0.0
  9
$UCSXDIR
 10
1.0
 20
0.0
 30
0.0
  9
$UCSYDIR
 10
0.0
 20
1.0
 30
0.0
  9
$PUCSNAME
  2

  9
$PUCSORG
 10
0.0
 20
0.0
 30
0.0
  9
$PUCSXDIR
 10
1.0
 20
0.0
 30
0.0
  9
$PUCSYDIR
 10
0.0
 20
1.0
 30
0.0
  9
$USERI1
 70
               0
  9
$USERI2
 70
               0
  9
$USERI3
 70
               0
  9
$USERI4
 70
               0
  9
$USERI5
 70
               0
  9
$USERR1
 40
0.0
  9
$USERR2
 40
0.0
  9
$USERR3
 40
0.0
  9
$USERR4
 40
0.0
  9
$USERR5
 40
0.0
  9
$WORLDVIEW
 70
               1
  9
$SHADEDGE
 70
               3
  9
$SHADEDIF
 70
              70
  9
$TILEMODE
 70
               1
  9
$MAXACTVP
 70
              16
  9
$PINSBASE
 10
0.0
 20
0.0
 30
0.0
  9
$PLIMCHECK
 70
               0
  9
$PEXTMIN
 10
1.0000000000000000E+20
 20
1.0000000000000000E+20
 30
1.0000000000000000E+20
  9
$PEXTMAX
 10
-1.0000000000000000E+20
 20
-1.0000000000000000E+20
 30
-1.0000000000000000E+20
  9
$PLIMMIN
 10
0.0
 20
0.0
  9
$PLIMMAX
 10
12.0
 20
9.0
  9
$UNITMODE
 70
               0
  9
$VISRETAIN
 70
               0
  9
$PLINEGEN
 70
               1
  9
$PSLTSCALE
 70
               0
  9
$TREEDEPTH
 70
            3020
  9
$PICKSTYLE
 70
               1
  9
$CMLSTYLE
  2
Standard
  9
$CMLJUST
 70
               0
  9
$CMLSCALE
 40
1.0
  9
$SAVEIMAGES
 70
               0
  0
ENDSEC
  0
SECTION
  2
CLASSES
  0
CLASS
  1
LWPOLYLINE
  2
AcDbPolyline
  3
"AutoCAD"
 90
        0
280
               0
281
               1
  0
CLASS
  1
IMAGE
  2
AcDbRasterImage
  3
ISM
 90
      127
280
               0
281
               1
  0
CLASS
  1
OLE2FRAME
  2
AcDbOle2Frame
  3
""
 90
        0
280
               0
281
               1
  0
CLASS
  1
HATCH
  2
AcDbHatch
  3
"ACAD_SEDONA"
 90
        0
280
               0
281
               1
  0
CLASS
  1
DICTIONARYVAR
  2
AcDbDictionaryVar
  3
"AutoCAD"
 90
        0
280
               0
281
               0
  0
CLASS
  1
RASTERVARIABLES
  2
AcDbRasterVariables
  3
ISM
 90
        0
280
               0
281
               0
  0
CLASS
  1
IMAGEDEF
  2
AcDbRasterImageDef
  3
ISM
 90
        0
280
               0
281
               0
  0
CLASS
  1
IMAGEDEF_REACTOR
  2
AcDbRasterImageDefReactor
  3
ISM
 90
        1
280
               0
281
               0
  0
CLASS
  1
IDBUFFER
  2
AcDbIdBuffer
  3
"Acad"
 90
        0
280
               0
281
               0
  0
CLASS
  1
SPATIAL_FILTER
  2
AcDbSpatialFilter
  3
"Acad"
 90
        0
280
               0
281
               0
  0
CLASS
  1
XRECORD
  2
AcDbXrecord
  3
"<Built In>"
 90
        0
280
               0
281
               0
  0
CLASS
  1
SORTENTSTABLE
  2
AcDbSortentsTable
  3
"AutoCAD"
 90
        0
280
               0
281
               0
  0
CLASS
  1
LAYER_INDEX
  2
AcDbLayerIndex
  3
"Acad"
 90
        0
280
               0
281
               0
  0
CLASS
  1
SPATIAL_INDEX
  2
AcDbSpatialIndex
  3
"Acad"
 90
        0
280
               0
281
               0
  0
CLASS
  1
OBJECT_PTR
  2
CAseDLPNTableRecord
  3
"ASE-LPNTableRecord"
 90
        1
280
               0
281
               0
  0
CLASS
  1
LAYOUT
  2
AcDbLayout
  3
"AutoCAD 2000"
 90
        1
280
               0
281
               0
  0
CLASS
  1
PLOTSETTINGS
  2
AcDbPlotSettings
  3
"AutoCAD 2000"
 90
        1
280
               0
281
               0
  0
CLASS
  1
ACDBDICTIONARYWDFLT
  2
AcDbDictionaryWithDefault
  3
"AutoCAD 2000"
 90
        1
280
               0
281
               0
  0
CLASS
  1
ACDBPLACEHOLDER
  2
AcDbPlaceHolder
  3
"AutoCAD 2000"
 90
        1
280
               0
281
               0
  0
ENDSEC
  0
SECTION
  2
TABLES
  0
TABLE
  2
VPORT
  5
7
100
AcDbSymbolTable
 70
               1
  0
VPORT
  5
15
100
AcDbSymbolTableRecord
100
AcDbViewportTableRecord
  2
*ACTIVE
 70
               0
 10
0.0
 20
0.0
 11
1.0
 21
1.0
 12
2.1909588738748766
 22
0.25
 13
0.0
 23
0.0
 14
1.0
 24
1.0
 15
0.0
 25
0.0
 16
0.0
 26
0.0
 36
1.0
 17
0.0
 27
0.0
 37
0.0
 40
394.40500000000003
 41
1.7320508075688772
 42
50.0
 43
0.0
 44
0.0
 50
0.0
 51
0.0
 71
               0
 72
             100
 73
               1
 74
               1
 75
               0
 76
               0
 77
               0
 78
               0
  0
ENDTAB
  0
TABLE
  2
LTYPE
  5
4
100
AcDbSymbolTable
 70
               5
  0
LTYPE
  5
11
100
AcDbSymbolTableRecord
100
AcDbLinetypeTableRecord
  2
BYBLOCK
 70
              64
  3

 72
              65
 73
               0
 40
0.0
  0
LTYPE
  5
12
100
AcDbSymbolTableRecord
100
AcDbLinetypeTableRecord
  2
BYLAYER
 70
              64
  3

 72
              65
 73
               0
 40
0.0
  0
LTYPE
  5
13
100
AcDbSymbolTableRecord
100
AcDbLinetypeTableRecord
  2
CONTINUOUS
 70
              64
  3
Solid line
 72
              65
 73
               0
 40
0.0
  0
LTYPE
  5
2A
100
AcDbSymbolTableRecord
100
AcDbLinetypeTableRecord
  2
PHANTOM
 70
              64
  3
Phantom ______  __  __  ______  __  __  ______
 72
              65
 73
               6
 40
30.0
 49
20.0
 74
               0
 49
-2.0
 74
               0
 49
2.0
 74
               0
 49
-2.0
 74
               0
 49
2.0
 74
               0
 49
-2.0
 74
               0
  0
LTYPE
  5
2C
100
AcDbSymbolTableRecord
100
AcDbLinetypeTableRecord
  2
CENTER
 70
              64
  3
Center ____ _ ____ _ ____ _ ____ _ ____ _ ____
 72
              65
 73
               4
 40
26.0
 49
20.0
 74
               0
 49
-2.0
 74
               0
 49
2.0
 74
               0
 49
-2.0
 74
               0
  0
ENDTAB
  0
TABLE
  2
LAYER
  5
2
100
AcDbSymbolTable
 70
               2
  0
LAYER
  5
14
100
AcDbSymbolTableRecord
100
AcDbLayerTableRecord
  2
0
 70
               0
 62
               7
  6
CONTINUOUS
  0
LAYER
  5
1D
100
AcDbSymbolTableRecord
100
AcDbLayerTableRecord
  2
DEFPOINTS
 70
               0
 62
               7
  6
CONTINUOUS
  0
ENDTAB
  0
TABLE
  2
STYLE
  5
3
100
AcDbSymbolTable
 70
               1
  0
STYLE
  5
17
100
AcDbSymbolTableRecord
100
AcDbTextStyleTableRecord
  2
MX_NOTE_STANDARD
 70
               0
 40
0.0
 41
1.0
 50
0.0
 71
               0
 42
3.2000000476837158
  3
txt.shx
  4
extfont.shx
  0
ENDTAB
  0
TABLE
  2
VIEW
  5
5
100
AcDbSymbolTable
 70
               0
  0
ENDTAB
  0
TABLE
  2
UCS
  5
6
100
AcDbSymbolTable
 70
               0
  0
ENDTAB
  0
TABLE
  2
APPID
  5
8
100
AcDbSymbolTable
 70
               1
  0
APPID
  5
16
100
AcDbSymbolTableRecord
100
AcDbRegAppTableRecord
  2
ACAD
 70
               0
  0
ENDTAB
  0
TABLE
  2
DIMSTYLE
  5
9
100
AcDbSymbolTable
 70
               1
  0
DIMSTYLE
105
18
100
AcDbSymbolTableRecord
100
AcDbDimStyleTableRecord
  2
MXDIMSTYLE
 70
               0
  3

  4

  5

  6

  7

 40
1.0
 41
2.5
 42
1.5
 43
3.75
 44
1.5
 45
0.0
 46
0.0
 47
0.0
 48
0.0
 71
               0
 72
               0
 73
               0
 74
               0
 75
               0
 76
               0
 77
               1
 78
               8
140
3.2000000476837158
141
2.5
142
0.0
143
0.03937007874016
144
1.0
145
0.0
146
1.0
147
1.0
170
               0
171
               4
172
               1
173
               0
174
               0
175
               0
176
               0
177
               0
178
               0
270
               2
271
               4
272
               4
273
               2
274
               4
275
               0
280
               0
281
               0
282
               0
283
               1
284
               0
285
               0
286
               0
287
               3
288
               1
340
17
  0
ENDTAB
  0
TABLE
  2
BLOCK_RECORD
  5
1
100
AcDbSymbolTable
 70
              12
  0
BLOCK_RECORD
  5
A
100
AcDbSymbolTableRecord
100
AcDbBlockTableRecord
  2
*MODEL_SPACE
  0
BLOCK_RECORD
  5
B
100
AcDbSymbolTableRecord
100
AcDbBlockTableRecord
  2
*PAPER_SPACE
  0
BLOCK_RECORD
  5
1E
100
AcDbSymbolTableRecord
100
AcDbBlockTableRecord
  2
ZS10SS-1
  0
BLOCK_RECORD
  5
1F
100
AcDbSymbolTableRecord
100
AcDbBlockTableRecord
  2
ZS10SS-2
  0
BLOCK_RECORD
  5
20
100
AcDbSymbolTableRecord
100
AcDbBlockTableRecord
  2
ZS10SS-3
  0
BLOCK_RECORD
  5
21
100
AcDbSymbolTableRecord
100
AcDbBlockTableRecord
  2
ZS10SS-4
  0
BLOCK_RECORD
  5
22
100
AcDbSymbolTableRecord
100
AcDbBlockTableRecord
  2
ZS10SS-5
  0
BLOCK_RECORD
  5
23
100
AcDbSymbolTableRecord
100
AcDbBlockTableRecord
  2
ZS10SS-6
  0
BLOCK_RECORD
  5
24
100
AcDbSymbolTableRecord
100
AcDbBlockTableRecord
  2
ZS10SS-7
  0
BLOCK_RECORD
  5
25
100
AcDbSymbolTableRecord
100
AcDbBlockTableRecord
  2
ZS10SS-8
  0
BLOCK_RECORD
  5
26
100
AcDbSymbolTableRecord
100
AcDbBlockTableRecord
  2
ZS10SS-9
  0
BLOCK_RECORD
  5
27
100
AcDbSymbolTableRecord
100
AcDbBlockTableRecord
  2
ZS10SS-10
  0
BLOCK_RECORD
  5
28
100
AcDbSymbolTableRecord
100
AcDbBlockTableRecord
  2
ZS10SS-11
  0
BLOCK_RECORD
  5
47B
100
AcDbSymbolTableRecord
100
AcDbBlockTableRecord
  2
_OPEN30
  0
ENDTAB
  0
ENDSEC
  0
SECTION
  2
BLOCKS
  0
BLOCK
  5
D
100
AcDbEntity
  8
0
100
AcDbBlockBegin
  2
*MODEL_SPACE
 70
               0
 10
0.0
 20
0.0
 30
0.0
  3
*MODEL_SPACE
  1

  0
ENDBLK
  5
E
100
AcDbEntity
  8
0
100
AcDbBlockEnd
  0
BLOCK
  5
F
100
AcDbEntity
 67
               1
  8
0
100
AcDbBlockBegin
  2
*PAPER_SPACE
 70
               0
 10
0.0
 20
0.0
 30
0.0
  3
*PAPER_SPACE
  1

  0
ENDBLK
  5
10
100
AcDbEntity
 67
               1
  8
0
100
AcDbBlockEnd
  0
BLOCK
  5
29
100
AcDbEntity
  8
0
100
AcDbBlockBegin
  2
ZS10SS-1
 70
               0
 10
0.0
 20
0.0
 30
0.0
  3
ZS10SS-1
  1

  0
LINE
  5
2B
100
AcDbEntity
  8
0
  6
PHANTOM
 62
               3
100
AcDbLine
 10
112.49999999999991
 20
52.05551362713291
 30
0.0
 11
112.49999999999991
 21
-75.999999999999972
 31
0.0
  0
LINE
  5
2D
100
AcDbEntity
  8
0
  6
CENTER
 62
               2
100
AcDbLine
 10
-2.9999999999999432
 20
0.0
 30
0.0
 11
168.99999999999989
 21
0.0
 31
0.0
  0
LINE
  5
2E
100
AcDbEntity
  8
0
  6
CONTINUOUS
 62
               4
100
AcDbLine
 10
139.99999999999989
 20
-20.400000000000006
 30
0.0
 11
138.99999999999989
 21
-20.400000000000006
 31
0.0
  0
LINE
  5
2F
100
AcDbEntity
  8
0
  6
CONTINUOUS
 62
               4
100
AcDbLine
 10
139.99999999999989
 20
-13.599999999999994
 30
0.0
 11
138.99999999999989
 21
-13.599999999999994
 31
0.0
  0
LINE
  5
30
100
AcDbEntity
  8
0
  6
CONTINUOUS
 62
               4
100
AcDbLine
 10
138.99999999999989
 20
-13.599999999999994
 30
0.0
 11
138.99999999999989
 21
-20.400000000000006
 31
0.0
  0
LINE
  5
31
100
AcDbEntity
  8
0
  6
CONTINUOUS
 62
               7
100
AcDbLine
 10
136.99999999999989
 20
-18.25
 30
0.0
 11
136.99999999999989
 21
-30.999999999999986
 31
0.0
  0
LINE
  5
32
100
AcDbEntity
  8
0
  6
CONTINUOUS
 62
               4
100
AcDbLine
 10
134.00000000000011
 20
-15.75
 30
0.0
 11
134.00000000000011
 21
-18.25
 31
0.0
  0
LINE
  5
33
100
AcDbEntity
  8
0
  6
CONTINUOUS
 62
               4
100
AcDbLine
 10
134.00000000000011
 20
-15.75
 30
0.0
 11
138.99999999999989
 21
-15.75
 31
0.0
  0
LINE
  5
34
100
AcDbEntity
  8
0
  6
CONTINUOUS
 62
               4
100
AcDbLine
 10
134.00000000000011
 20
-18.25
 30
0.0
 11
138.99999999999989
 21
-18.25
 31
0.0
  0
LINE
  5
35
100
AcDbEntity
  8
0
  6
CONTINUOUS
 62
               4
100
AcDbLine
 10
161.99999999999989
 20
-19.5
 30
0.0
 11
164.99999999999989
 21
-19.5
 31
0.0
  0
LINE
  5
36
100
AcDbEntity
  8
0
  6
CONTINUOUS
 62
               4
100
AcDbLine
 10
158.99999999999989
 20
-20.400000000000006
 30
0.0
 11
161.99999999999989
 21
-20.400000000000006
 31
0.0
  0
LINE
  5
37
100
AcDbEntity
  8
0
  6
CONTINUOUS
 62
               4
100
AcDbLine
 10
161.99999999999989
 20
-20.400000000000006
 30
0.0
 11
161.99999999999989
 21
-19.5
 31
0.0
  0
LINE
  5
38
100
AcDbEntity
  8
0
  6
CONTINUOUS
 62
               4
100
AcDbLine
 10
158.39999999999998
 20
-21.0
 30
0.0
 11
158.99999999999989
 21
-20.400000000000006
 31
0.0
  0
LINE
  5
39
100
AcDbEntity
  8
0
  6
CONTINUOUS
 62
               4
100
AcDbLine
 10
161.99999999999989
 20
-13.599999999999994
 30
0.0
 11
161.99999999999989
 21
-14.499999999999986
 31
0.0
  0
LINE
  5
3A
100
AcDbEntity
  8
0
  6
CONTINUOUS
 62
               4
100
AcDbLine
 10
158.39999999999998
 20
-13.0
 30
0.0
 11
158.99999999999989
 21
-13.599999999999994
 31
0.0
  0
LINE
  5
3B
100
AcDbEntity
  8
0
  6
CONTINUOUS
 62
               4
100
AcDbLine
 10
158.39999999999998
 20
-13.0
 30
0.0
 11
158.39999999999998
 21
-21.0
 31
0.0
  0
LINE
  5
3C
100
AcDbEntity
  8
0
  6
CONTINUOUS
 62
               4
100
AcDbLine
 10
158.99999999999989
 20
-13.599999999999994
 30
0.0
 11
161.99999999999989
 21
-13.599999999999994
 31
0.0
  0
LINE
  5
3D
100
AcDbEntity
  8
0
  6
CONTINUOUS
 62
               4
100
AcDbLine
 10
161.99999999999989
 20
-14.499999999999986
 30
0.0
 11
164.99999999999989
 21
-14.499999999999986
 31
0.0
  0
LINE
  5
3E
100
AcDbEntity
  8
0
  6
CONTINUOUS
 62
               4
100
AcDbLine
 10
158.99999999999989
 20
-13.599999999999994
 30
0.0
 11
158.99999999999989
 21
-20.400000000000006
 31
0.0
  0
LINE
  5
3F
100
AcDbEntity
  8
0
  6
CONTINUOUS
 62
               4
100
AcDbLine
 10
164.49999999999989
 20
-14.499999999999986
 30
0.0
 11
164.49999999999989
 21
-19.5
 31
0.0
  0
LINE
  5
40
100
AcDbEntity
  8
0
  6
CONTINUOUS
 62
               4
100
AcDbLine
 10
164.99999999999989
 20
-14.499999999999986
 30
0.0
 11
164.99999999999989
 21
-19.5
 31
0.0
  0
LINE
  5
41
100
AcDbEntity
  8
0
  6
CONTINUOUS
 62
               4
100
AcDbLine
 10
146.99999999999989
 20
-21.0
 30
0.0
 11
158.39999999999998
 21
-21.0
 31
0.0
  0
LINE
  5
42
100
AcDbEntity
  8
0
  6
CONTINUOUS
 62
             200
100
AcDbLine
 10
146.99999999999989
 20
-20.599999999999994
 30
0.0
 11
158.80000000000007
 21
-20.599999999999994
 31
0.0
  0
LINE
  5
43
100
AcDbEntity
  8
0
  6
CONTINUOUS
 62
               4
100
AcDbLine
 10
146.99999999999989
 20
-13.0
 30
0.0
 11
158.39999999999998
 21
-13.0
 31
0.0
  0
LINE
  5
44
100
AcDbEntity
  8
0
  6
CONTINUOUS
 62
             200
100
AcDbLine
 10
146.99999999999989
 20
-13.399999999999991
 30
0.0
 11
158.80000000000007
 21
-13.399999999999991
 31
0.0
  0
LINE
  5
45
100
AcDbEntity
  8
0
  6
CENTER
 62
             200
100
AcDbLine
 10
132.49999999999989
 20
-17.0
 30
0.0
 11
166.49999999999989
 21
-17.0
 31
0.0
  0
LINE
  5
46
100
AcDbEntity
  8
0
  6
CONTINUOUS
 62
               4
100
AcDbLine
 10
165.99999999999989
 20
2.5000000000000142
 30
0.0
 11
165.99999999999989
 21
-2.5
 31
0.0
  0
LINE
  5
47
100
AcDbEntity
  8
0
  6
CONTINUOUS
 62
               4
100
AcDbLine
 10
165.49999999999989
 20
2.5000000000000142
 30
0.0
 11
165.49999999999989
 21
-2.5
 31
0.0
  0
LINE
  5
48
100
AcDbEntity
  8
0
  6
CONTINUOUS
 62
               4
100
AcDbLine
 10
159.99999999999989
 20
3.4000000000000057
 30
0.0
 11
159.99999999999989
 21
-3.4000000000000057
 31
0.0
  0
LINE
  5
49
100
AcDbEntity
  8
0
  6
CONTINUOUS
 62
               4
100
AcDbLine
 10
162.99999999999989
 20
2.5000000000000142
 30
0.0
 11
165.99999999999989
 21
2.5000000000000142
 31
0.0
  0
LINE
  5
4A
100
AcDbEntity
  8
0
  6
CONTINUOUS
 62
               4
100
AcDbLine
 10
159.99999999999989
 20
3.4000000000000057
 30
0.0
 11
162.99999999999989
 21
3.4000000000000057
 31
0.0
  0
LINE
  5
4B
100
AcDbEntity
  8
0
  6
CONTINUOUS
 62
               4
100
AcDbLine
 10
159.39999999999998
 20
4.0000000000000142
 30
0.0
 11
159.39999999999998
 21
-4.0
 31
0.0
  0
LINE
  5
4C
100
AcDbEntity
  8
0
  6
CONTINUOUS
 62
               4
100
AcDbLine
 10
159.39999999999998
 20
4.0000000000000142
 30
0.0
 11
159.99999999999989
 21
3.4000000000000057
 31
0.0
  0
LINE
  5
4D
100
AcDbEntity
  8
0
  6
CONTINUOUS
 62
               4
100
AcDbLine
 10
162.99999999999989
 20
3.4000000000000057
 30
0.0
 11
162.99999999999989
 21
2.5000000000000142
 31
0.0
  0
LINE
  5
4E
100
AcDbEntity
  8
0
  6
CONTINUOUS
 62
               4
100
AcDbLine
 10
159.39999999999998
 20
-4.0
 30
0.0
 11
159.99999999999989
 21
-3.4000000000000057
 31
0.0
  0
LINE
  5
4F
100
AcDbEntity
  8
0
  6
CONTINUOUS
 62
               4
100
AcDbLine
 10
162.99999999999989
 20
-3.4000000000000057
 30
0.0
 11
162.99999999999989
 21
-2.5
 31
0.0
  0
LINE
  5
50
100
AcDbEntity
  8
0
  6
CONTINUOUS
 62
               4
100
AcDbLine
 10
159.99999999999989
 20
-3.4000000000000057
 30
0.0
 11
162.99999999999989
 21
-3.4000000000000057
 31
0.0
  0
LINE
  5
51
100
AcDbEntity
  8
0
  6
CONTINUOUS
 62
               4
100
AcDbLine
 10
162.99999999999989
 20
-2.5
 30
0.0
 11
165.99999999999989
 21
-2.5
 31
0.0
  0
LINE
  5
52
100
AcDbEntity
  8
0
  6
CONTINUOUS
 62
               4
100
AcDbLine
 10
153.99999999999989
 20
-4.0
 30
0.0
 11
159.39999999999998
 21
-4.0
 31
0.0
  0
LINE
  5
53
100
AcDbEntity
  8
0
  6
CONTINUOUS
 62
             200
100
AcDbLine
 10
153.99999999999989
 20
-3.5999999999999943
 30
0.0
 11
159.80000000000007
 21
-3.5999999999999943
 31
0.0
  0
LINE
  5
54
100
AcDbEntity
  8
0
  6
CONTINUOUS
 62
               4
100
AcDbLine
 10
153.99999999999989
 20
4.0000000000000142
 30
0.0
 11
159.39999999999998
 21
4.0000000000000142
 31
0.0
  0
LINE
  5
55
100
AcDbEntity
  8
0
  6
CONTINUOUS
 62
             200
100
AcDbLine
 10
153.99999999999989
 20
3.6000000000000085
 30
0.0
 11
159.80000000000007
 21
3.6000000000000085
 31
0.0
  0
LINE
  5
56
100
AcDbEntity
  8
0
  6
CONTINUOUS
 62
               4
100
AcDbLine
 10
56.366025403784477
 20
-24.0
 30
0.0
 11
57.232050807568896
 21
-25.499999999999986
 31
0.0
  0
LINE
  5
57
100
AcDbEntity
  8
0
  6
CONTINUOUS
 62
               4
100
AcDbLine
 10
56.366025403784477
 20
-27.0
 30
0.0
 11
57.232050807568896
 21
-25.499999999999986
 31
0.0
  0
LINE
  5
58
100
AcDbEntity
  8
0
  6
CONTINUOUS
 62
               4
100
AcDbLine
 10
54.63397459621558
 20
-27.0
 30
0.0
 11
56.366025403784477
 21
-27.0
 31
0.0
  0
LINE
  5
59
100
AcDbEntity
  8
0
  6
CONTINUOUS
 62
               4
100
AcDbLine
 10
54.63397459621558
 20
-24.0
 30
0.0
 11
56.366025403784477
 21
-24.0
 31
0.0
  0
LINE
  5
5A
100
AcDbEntity
  8
0
  6
CONTINUOUS
 62
               4
100
AcDbLine
 10
54.63397459621558
 20
-27.0
 30
0.0
 11
53.767949192431104
 21
-25.499999999999986
 31
0.0
  0
LINE
  5
5B
100
AcDbEntity
  8
0
  6
CONTINUOUS
 62
               4
100
AcDbLine
 10
54.63397459621558
 20
-24.0
 30
0.0
 11
53.767949192431104
 21
-25.499999999999986
 31
0.0
  0
CIRCLE
  5
5C
100
AcDbEntity
  8
0
  6
CONTINUOUS
 62
               4
100
AcDbCircle
 10
55.500000000000057
 20
-25.499999999999986
 30
0.0
 40
3.5
  0
LINE
  5
5D
100
AcDbEntity
  8
0
  6
CENTER
 62
             200
100
AcDbLine
 10
55.500000000000057
 20
-30.499999999999993
 30
0.0
 11
55.500000000000057
 21
-20.5
 31
0.0
  0
LINE
  5
5E
100
AcDbEntity
  8
0
  6
CENTER
 62
             200
100
AcDbLine
 10
50.500000000000057
 20
-25.499999999999986
 30
0.0
 11
60.5
 21
-25.499999999999986
 31
0.0
  0
LINE
  5
5F
100
AcDbEntity
  8
0
  6
CONTINUOUS
 62
               4
100
AcDbLine
 10
51.999999983193504
 20
-28.999999999999993
 30
0.0
 11
58.999999983193504
 21
-28.999999999999993
 31
0.0
  0
LINE
  5
60
100
AcDbEntity
  8
0
  6
CONTINUOUS
 62
               4
100
AcDbLine
 10
51.999999983193504
 20
-21.5
 30
0.0
 11
58.999999983193504
 21
-21.5
 31
0.0
  0
LINE
  5
61
100
AcDbEntity
  8
0
  6
CONTINUOUS
 62
               4
100
AcDbLine
 10
144.99999999999989
 20
-22.0
 30
0.0
 11
146.99999999999989
 21
-22.0
 31
0.0
  0
LINE
  5
62
100
AcDbEntity
  8
0
  6
CONTINUOUS
 62
               4
100
AcDbLine
 10
139.99999998319333
 20
-22.5
 30
0.0
 11
144.99999999999989
 21
-22.5
 31
0.0
  0
LINE
  5
63
100
AcDbEntity
  8
0
  6
CONTINUOUS
 62
               4
100
AcDbLine
 10
144.99999999999989
 20
-10.75
 30
0.0
 11
145.99999999999989
 21
-10.75
 31
0.0
  0
LINE
  5
64
100
AcDbEntity
  8
0
  6
CONTINUOUS
 62
               4
100
AcDbLine
 10
144.99999999999989
 20
-5.25
 30
0.0
 11
145.99999999999989
 21
-5.25
 31
0.0
  0
LINE
  5
65
100
AcDbEntity
  8
0
  6
CONTINUOUS
 62
               4
100
AcDbLine
 10
144.99999999999989
 20
-11.08957608320074
 30
0.0
 11
139.99999999999989
 21
-11.08957608320074
 31
0.0
  0
LINE
  5
66
100
AcDbEntity
  8
0
  6
CONTINUOUS
 62
             200
100
AcDbLine
 10
145.99999999999989
 20
-3.5999999999999943
 30
0.0
 11
144.99999999999989
 21
-3.5999999999999943
 31
0.0
  0
LINE
  5
67
100
AcDbEntity
  8
0
  6
CONTINUOUS
 62
               4
100
AcDbLine
 10
145.99999999999989
 20
-4.0
 30
0.0
 11
144.99999999999989
 21
-4.0
 31
0.0
  0
LINE
  5
68
100
AcDbEntity
  8
0
  6
CONTINUOUS
 62
             200
100
AcDbLine
 10
145.99999999999989
 20
3.6000000000000085
 30
0.0
 11
144.99999999999989
 21
3.6000000000000085
 31
0.0
  0
LINE
  5
69
100
AcDbEntity
  8
0
  6
CONTINUOUS
 62
               4
100
AcDbLine
 10
145.99999999999989
 20
4.0000000000000142
 30
0.0
 11
144.99999999999989
 21
4.0000000000000142
 31
0.0
  0
LINE
  5
6A
100
AcDbEntity
  8
0
  6
CONTINUOUS
 62
               4
100
AcDbLine
 10
153.99999999999989
 20
5.0
 30
0.0
 11
153.99999999999989
 21
-5.0
 31
0.0
  0
ARC
  5
6B
100
AcDbEntity
  8
0
  6
CONTINUOUS
 62
               4
100
AcDbCircle
 10
146.77911374211578
 20
-2.5
 30
0.0
 40
7.2208862578843052
100
AcDbArc
 50
339.74384199958314
 51
20.256158000416153
  0
ARC
  5
6C
100
AcDbEntity
  8
0
  6
CONTINUOUS
 62
               4
100
AcDbCircle
 10
146.77911374211578
 20
2.5000000000000142
 30
0.0
 40
7.2208862578843052
100
AcDbArc
 50
339.74384199958382
 51
20.256158000416054
  0
LINE
  5
6D
100
AcDbEntity
  8
0
  6
CONTINUOUS
 62
               4
100
AcDbLine
 10
152.44658198738523
 20
0.0
 30
0.0
 11
153.55341801261477
 21
0.0
 31
0.0
  0
ARC
  5
6E
100
AcDbEntity
  8
0
  6
CONTINUOUS
 62
               4
100
AcDbCircle
 10
159.22088625788422
 20
2.5000000000000142
 30
0.0
 40
7.2208862578843052
100
AcDbArc
 50
159.74384199958354
 51
200.25615800041575
  0
LINE
  5
6F
100
AcDbEntity
  8
0
  6
CONTINUOUS
 62
               4
100
AcDbLine
 10
151.99999999999989
 20
5.0
 30
0.0
 11
153.99999999999989
 21
5.0
 31
0.0
  0
ARC
  5
70
100
AcDbEntity
  8
0
  6
CONTINUOUS
 62
               4
100
AcDbCircle
 10
159.22088625788422
 20
-2.5
 30
0.0
 40
7.2208862578843052
100
AcDbArc
 50
159.74384199958342
 51
200.25615800041567
  0
LINE
  5
71
100
AcDbEntity
  8
0
  6
CONTINUOUS
 62
               4
100
AcDbLine
 10
151.99999999999989
 20
-4.9999999999999858
 30
0.0
 11
153.99999999999989
 21
-4.9999999999999858
 31
0.0
  0
LINE
  5
72
100
AcDbEntity
  8
0
  6
CONTINUOUS
 62
               4
100
AcDbLine
 10
145.44658198738523
 20
-17.0
 30
0.0
 11
146.55341801261477
 21
-17.0
 31
0.0
  0
ARC
  5
73
100
AcDbEntity
  8
0
  6
CONTINUOUS
 62
               4
100
AcDbCircle
 10
152.22088625788422
 20
-14.499999999999986
 30
0.0
 40
7.2208862578843052
100
AcDbArc
 50
159.74384199958354
 51
200.25615800041575
  0
ARC
  5
74
100
AcDbEntity
  8
0
  6
CONTINUOUS
 62
               4
100
AcDbCircle
 10
139.77911374211578
 20
-14.499999999999986
 30
0.0
 40
7.2208862578843052
100
AcDbArc
 50
339.74384199958382
 51
20.256158000416054
  0
LINE
  5
75
100
AcDbEntity
  8
0
  6
CONTINUOUS
 62
               4
100
AcDbLine
 10
144.99999999999989
 20
-12.0
 30
0.0
 11
146.99999999999989
 21
-12.0
 31
0.0
  0
LINE
  5
76
100
AcDbEntity
  8
0
  6
CONTINUOUS
 62
               4
100
AcDbLine
 10
146.99999999999989
 20
-12.5
 30
0.0
 11
151.99999999999989
 21
-12.5
 31
0.0
  0
LINE
  5
77
100
AcDbEntity
  8
0
  6
CONTINUOUS
 62
               4
100
AcDbLine
 10
151.99999999999989
 20
12.5
 30
0.0
 11
151.99999999999989
 21
-12.5
 31
0.0
  0
LINE
  5
78
100
AcDbEntity
  8
0
  6
CONTINUOUS
 62
               4
100
AcDbLine
 10
145.99999999999989
 20
12.5
 30
0.0
 11
145.99999999999989
 21
-12.0
 31
0.0
  0
LINE
  5
79
100
AcDbEntity
  8
0
  6
CONTINUOUS
 62
               4
100
AcDbLine
 10
144.99999999999989
 20
10.750000000000014
 30
0.0
 11
145.99999999999989
 21
10.750000000000014
 31
0.0
  0
LINE
  5
7A
100
AcDbEntity
  8
0
  6
CONTINUOUS
 62
               4
100
AcDbLine
 10
144.99999999999989
 20
5.25
 30
0.0
 11
145.99999999999989
 21
5.25
 31
0.0
  0
LINE
  5
7B
100
AcDbEntity
  8
0
  6
CENTER
 62
             200
100
AcDbLine
 10
135.49999999999989
 20
-8.0
 30
0.0
 11
147.49999999999989
 21
-8.0
 31
0.0
  0
LINE
  5
7C
100
AcDbEntity
  8
0
  6
CENTER
 62
             200
100
AcDbLine
 10
135.49999999999989
 20
8.0
 30
0.0
 11
147.49999999999989
 21
8.0
 31
0.0
  0
ARC
  5
7D
100
AcDbEntity
  8
0
  6
CONTINUOUS
 62
               4
100
AcDbCircle
 10
152.22088625788422
 20
-19.5
 30
0.0
 40
7.2208862578843052
100
AcDbArc
 50
159.74384199958342
 51
200.25615800041567
  0
ARC
  5
7E
100
AcDbEntity
  8
0
  6
CONTINUOUS
 62
               4
100
AcDbCircle
 10
139.77911374211578
 20
-19.5
 30
0.0
 40
7.2208862578843052
100
AcDbArc
 50
339.74384199958314
 51
20.256158000416153
  0
LINE
  5
7F
100
AcDbEntity
  8
0
  6
CONTINUOUS
 62
               4
100
AcDbLine
 10
146.99999999999989
 20
-12.0
 30
0.0
 11
146.99999999999989
 21
-22.0
 31
0.0
  0
LINE
  5
80
100
AcDbEntity
  8
0
  6
CONTINUOUS
 62
               4
100
AcDbLine
 10
144.99999999999989
 20
12.5
 30
0.0
 11
144.99999999999989
 21
-22.5
 31
0.0
  0
LINE
  5
81
100
AcDbEntity
  8
0
  6
CONTINUOUS
 62
               4
100
AcDbLine
 10
139.99999999999989
 20
12.5
 30
0.0
 11
139.99999999999989
 21
-22.5
 31
0.0
  0
CIRCLE
  5
82
100
AcDbEntity
  8
0
  6
CONTINUOUS
 62
               4
100
AcDbCircle
 10
96.999999999999943
 20
8.0000000000000142
 30
0.0
 40
1.7
  0
LINE
  5
83
100
AcDbEntity
  8
0
  6
CENTER
 62
             200
100
AcDbLine
 10
96.999999999999943
 20
3.25
 30
0.0
 11
96.999999999999943
 21
12.750000000000014
 31
0.0
  0
CIRCLE
  5
84
100
AcDbEntity
  8
0
  6
CONTINUOUS
 62
               4
100
AcDbCircle
 10
96.999999999999943
 20
8.0000000000000142
 30
0.0
 40
3.2499999999999996
  0
LINE
  5
85
100
AcDbEntity
  8
0
  6
CENTER
 62
             200
100
AcDbLine
 10
92.249999999999943
 20
8.0000000000000142
 30
0.0
 11
101.74999999999994
 21
8.0000000000000142
 31
0.0
  0
CIRCLE
  5
86
100
AcDbEntity
  8
0
  6
CONTINUOUS
 62
               4
100
AcDbCircle
 10
96.999999999999943
 20
-7.9999999999999858
 30
0.0
 40
1.7
  0
LINE
  5
87
100
AcDbEntity
  8
0
  6
CENTER
 62
             200
100
AcDbLine
 10
96.999999999999943
 20
-3.2499999999999858
 30
0.0
 11
96.999999999999943
 21
-12.749999999999972
 31
0.0
  0
CIRCLE
  5
88
100
AcDbEntity
  8
0
  6
CONTINUOUS
 62
               4
100
AcDbCircle
 10
96.999999999999943
 20
-7.9999999999999858
 30
0.0
 40
3.2499999999999996
  0
LINE
  5
89
100
AcDbEntity
  8
0
  6
CENTER
 62
             200
100
AcDbLine
 10
92.249999999999943
 20
-7.9999999999999858
 30
0.0
 11
101.74999999999994
 21
-7.9999999999999858
 31
0.0
  0
LINE
  5
8A
100
AcDbEntity
  8
0
  6
CONTINUOUS
 62
               7
100
AcDbLine
 10
0.0
 20
25.0
 30
0.0
 11
0.0
 21
-25.0
 31
0.0
  0
LINE
  5
8B
100
AcDbEntity
  8
0
  6
CONTINUOUS
 62
               7
100
AcDbLine
 10
8.0
 20
25.0
 30
0.0
 11
8.0
 21
-24.999999999999972
 31
0.0
  0
LINE
  5
8C
100
AcDbEntity
  8
0
  6
CONTINUOUS
 62
               7
100
AcDbLine
 10
10.000000000000057
 20
31.0
 30
0.0
 11
10.000000000000057
 21
12.500000000000014
 31
0.0
  0
LINE
  5
8D
100
AcDbEntity
  8
0
  6
CONTINUOUS
 62
               7
100
AcDbLine
 10
9.9999999831935042
 20
-30.999999999999986
 30
0.0
 11
136.99999999999989
 21
-30.999999999999986
 31
0.0
  0
LINE
  5
8E
100
AcDbEntity
  8
0
  6
CONTINUOUS
 62
               7
100
AcDbLine
 10
-0.0000000168064958
 20
-24.999999999999986
 30
0.0
 11
8.0
 21
-24.999999999999986
 31
0.0
  0
CIRCLE
  5
8F
100
AcDbEntity
  8
0
  6
CONTINUOUS
 62
               7
100
AcDbCircle
 10
17.0
 20
-7.9999999999999858
 30
0.0
 40
1.7
  0
LINE
  5
90
100
AcDbEntity
  8
0
  6
CENTER
 62
               2
100
AcDbLine
 10
48.0
 20
-3.4999999999999858
 30
0.0
 11
48.0
 21
3.5000000000000142
 31
0.0
  0
LINE
  5
91
100
AcDbEntity
  8
0
  6
CENTER
 62
               2
100
AcDbLine
 10
46.000000000000057
 20
-3.4999999999999858
 30
0.0
 11
46.000000000000057
 21
3.5000000000000142
 31
0.0
  0
LINE
  5
92
100
AcDbEntity
  8
0
  6
CENTER
 62
               2
100
AcDbLine
 10
47.0
 20
3.5000000000000142
 30
0.0
 11
47.0
 21
-3.4999999999999858
 31
0.0
  0
LINE
  5
93
100
AcDbEntity
  8
0
  6
CONTINUOUS
 62
               7
100
AcDbLine
 10
48.0
 20
-2.0
 30
0.0
 11
46.000000000000057
 21
-2.0
 31
0.0
  0
LINE
  5
94
100
AcDbEntity
  8
0
  6
CONTINUOUS
 62
               7
100
AcDbLine
 10
48.0
 20
2.0
 30
0.0
 11
46.000000000000057
 21
2.0
 31
0.0
  0
ARC
  5
95
100
AcDbEntity
  8
0
  6
CONTINUOUS
 62
               7
100
AcDbCircle
 10
48.0
 20
0.0
 30
0.0
 40
1.9999999999999998
100
AcDbArc
 50
269.99999999999937
 51
89.999999999999801
  0
ARC
  5
96
100
AcDbEntity
  8
0
  6
CONTINUOUS
 62
               7
100
AcDbCircle
 10
46.000000000000057
 20
0.0
 30
0.0
 40
1.9999999999999998
100
AcDbArc
 50
89.999999999999815
 51
269.99999999999937
  0
CIRCLE
  5
97
100
AcDbEntity
  8
0
  6
CONTINUOUS
 62
               7
100
AcDbCircle
 10
17.0
 20
-7.9999999999999858
 30
0.0
 40
3.2499999999999996
  0
LINE
  5
98
100
AcDbEntity
  8
0
  6
CENTER
 62
               2
100
AcDbLine
 10
57.0
 20
-3.2499999999999858
 30
0.0
 11
57.0
 21
-12.749999999999972
 31
0.0
  0
CIRCLE
  5
99
100
AcDbEntity
  8
0
  6
CONTINUOUS
 62
               7
100
AcDbCircle
 10
57.0
 20
-7.9999999999999858
 30
0.0
 40
1.7
  0
LINE
  5
9A
100
AcDbEntity
  8
0
  6
CONTINUOUS
 62
               7
100
AcDbLine
 10
-0.0000000168064958
 20
25.0
 30
0.0
 11
8.0
 21
25.0
 31
0.0
  0
LINE
  5
9B
100
AcDbEntity
  8
0
  6
CONTINUOUS
 62
               7
100
AcDbLine
 10
9.9999999831935042
 20
31.0
 30
0.0
 11
136.99999999999989
 21
31.0
 31
0.0
  0
LINE
  5
9C
100
AcDbEntity
  8
0
  6
CONTINUOUS
 62
               7
100
AcDbLine
 10
136.99999999999989
 20
31.0
 30
0.0
 11
136.99999999999989
 21
-15.75
 31
0.0
  0
LINE
  5
9D
100
AcDbEntity
  8
0
  6
CONTINUOUS
 62
               7
100
AcDbLine
 10
8.0
 20
-15.5
 30
0.0
 11
9.1000000000000227
 21
-15.5
 31
0.0
  0
LINE
  5
9E
100
AcDbEntity
  8
0
  6
CONTINUOUS
 62
               7
100
AcDbLine
 10
9.1000000000000227
 20
-16.999999999999986
 30
0.0
 11
10.000000000000057
 21
-16.999999999999986
 31
0.0
  0
LINE
  5
9F
100
AcDbEntity
  8
0
  6
CONTINUOUS
 62
               7
100
AcDbLine
 10
8.0
 20
-22.5
 30
0.0
 11
9.1000000000000227
 21
-22.5
 31
0.0
  0
LINE
  5
A0
100
AcDbEntity
  8
0
  6
CONTINUOUS
 62
               7
100
AcDbLine
 10
9.1000000000000227
 20
-20.999999999999986
 30
0.0
 11
10.000000000000057
 21
-20.999999999999986
 31
0.0
  0
LINE
  5
A1
100
AcDbEntity
  8
0
  6
CONTINUOUS
 62
               7
100
AcDbLine
 10
9.1000000000000227
 20
-22.5
 30
0.0
 11
9.1000000000000227
 21
-15.5
 31
0.0
  0
LINE
  5
A2
100
AcDbEntity
  8
0
  6
CONTINUOUS
 62
               7
100
AcDbLine
 10
136.99999999999989
 20
-20.999999999999986
 30
0.0
 11
138.43999999999994
 21
-20.999999999999986
 31
0.0
  0
LINE
  5
A3
100
AcDbEntity
  8
0
  6
CONTINUOUS
 62
               7
100
AcDbLine
 10
136.99999999999989
 20
-28.999999999999979
 30
0.0
 11
138.43999999999994
 21
-28.999999999999979
 31
0.0
  0
LINE
  5
A4
100
AcDbEntity
  8
0
  6
CONTINUOUS
 62
               7
100
AcDbLine
 10
138.43999999999994
 20
-25.499999999999716
 30
0.0
 11
138.43999999999994
 21
-28.999999999999979
 31
0.0
  0
LINE
  5
A5
100
AcDbEntity
  8
0
  6
CONTINUOUS
 62
               7
100
AcDbLine
 10
137.63999999999999
 20
-24.49999999999973
 30
0.0
 11
137.63999999999999
 21
-25.49999999999973
 31
0.0
  0
LINE
  5
A6
100
AcDbEntity
  8
0
  6
CONTINUOUS
 62
               7
100
AcDbLine
 10
138.43999999999994
 20
-20.999999999999986
 30
0.0
 11
138.43999999999994
 21
-24.49999999999973
 31
0.0
  0
LINE
  5
A7
100
AcDbEntity
  8
0
  6
CONTINUOUS
 62
               7
100
AcDbLine
 10
137.34000000000003
 20
-20.999999999999986
 30
0.0
 11
137.34000000000003
 21
-28.999999999999986
 31
0.0
  0
LINE
  5
A8
100
AcDbEntity
  8
0
  6
CONTINUOUS
 62
               7
100
AcDbLine
 10
137.63999999999999
 20
-25.499999999999716
 30
0.0
 11
138.43999999999994
 21
-25.499999999999716
 31
0.0
  0
LINE
  5
A9
100
AcDbEntity
  8
0
  6
CONTINUOUS
 62
               7
100
AcDbLine
 10
137.63999999999999
 20
-24.499999999999716
 30
0.0
 11
138.43999999999994
 21
-24.499999999999716
 31
0.0
  0
LINE
  5
AA
100
AcDbEntity
  8
0
  6
CENTER
 62
               2
100
AcDbLine
 10
17.0
 20
-3.2499999999999858
 30
0.0
 11
17.0
 21
-12.749999999999972
 31
0.0
  0
CIRCLE
  5
AB
100
AcDbEntity
  8
0
  6
CONTINUOUS
 62
               7
100
AcDbCircle
 10
57.0
 20
-7.9999999999999858
 30
0.0
 40
3.2499999999999996
  0
LINE
  5
AC
100
AcDbEntity
  8
0
  6
CONTINUOUS
 62
               7
100
AcDbLine
 10
9.9999999831935042
 20
21.500000000000156
 30
0.0
 11
136.99999998319333
 21
21.500000000000156
 31
0.0
  0
LINE
  5
AD
100
AcDbEntity
  8
0
  6
CONTINUOUS
 62
               7
100
AcDbLine
 10
9.9999999831935042
 20
20.600000000000009
 30
0.0
 11
136.99999998319333
 21
20.600000000000009
 31
0.0
  0
LINE
  5
AE
100
AcDbEntity
  8
0
  6
CONTINUOUS
 62
               7
100
AcDbLine
 10
9.9999999831935042
 20
27.999999999999986
 30
0.0
 11
136.99999998319333
 21
27.999999999999986
 31
0.0
  0
LINE
  5
AF
100
AcDbEntity
  8
0
  6
CONTINUOUS
 62
               7
100
AcDbLine
 10
9.9999999831935042
 20
14.0
 30
0.0
 11
136.99999998319333
 21
14.0
 31
0.0
  0
LINE
  5
B0
100
AcDbEntity
  8
0
  6
CONTINUOUS
 62
               7
100
AcDbLine
 10
8.0
 20
12.500000000000014
 30
0.0
 11
136.99999999999989
 21
12.500000000000014
 31
0.0
  0
LINE
  5
B1
100
AcDbEntity
  8
0
  6
CONTINUOUS
 62
               7
100
AcDbLine
 10
8.0
 20
12.0
 30
0.0
 11
136.99999998319333
 21
12.0
 31
0.0
  0
LINE
  5
B2
100
AcDbEntity
  8
0
  6
CONTINUOUS
 62
               7
100
AcDbLine
 10
7.9999999831935042
 20
3.0000000000000142
 30
0.0
 11
136.99999998319333
 21
3.0000000000000142
 31
0.0
  0
LINE
  5
B3
100
AcDbEntity
  8
0
  6
CONTINUOUS
 62
               7
100
AcDbLine
 10
7.9999999831935042
 20
2.5000000000000284
 30
0.0
 11
136.99999998319333
 21
2.5000000000000284
 31
0.0
  0
LINE
  5
B4
100
AcDbEntity
  8
0
  6
CONTINUOUS
 62
               7
100
AcDbLine
 10
9.9999999831935042
 20
16.499999999999801
 30
0.0
 11
136.99999998319333
 21
16.499999999999758
 31
0.0
  0
LINE
  5
B5
100
AcDbEntity
  8
0
  6
CONTINUOUS
 62
               7
100
AcDbLine
 10
9.9999999831935042
 20
17.399999999999949
 30
0.0
 11
136.99999998319333
 21
17.399999999999906
 31
0.0
  0
LINE
  5
B6
100
AcDbEntity
  8
0
  6
CONTINUOUS
 62
               7
100
AcDbLine
 10
9.9999999831935042
 20
-27.999999999999986
 30
0.0
 11
52.0
 21
-27.999999999999986
 31
0.0
  0
LINE
  5
B7
100
AcDbEntity
  8
0
  6
CONTINUOUS
 62
               7
100
AcDbLine
 10
9.9999999831935042
 20
-14.0
 30
0.0
 11
136.99999998319333
 21
-14.0
 31
0.0
  0
LINE
  5
B8
100
AcDbEntity
  8
0
  6
CONTINUOUS
 62
               7
100
AcDbLine
 10
7.9999999831935042
 20
-12.499999999999986
 30
0.0
 11
136.99999999999989
 21
-12.499999999999986
 31
0.0
  0
LINE
  5
B9
100
AcDbEntity
  8
0
  6
CONTINUOUS
 62
               7
100
AcDbLine
 10
8.0
 20
-11.999999999999986
 30
0.0
 11
136.99999998319333
 21
-11.999999999999986
 31
0.0
  0
LINE
  5
BA
100
AcDbEntity
  8
0
  6
CONTINUOUS
 62
               7
100
AcDbLine
 10
7.9999999831935042
 20
-2.9999999999999858
 30
0.0
 11
136.99999998319333
 21
-2.9999999999999858
 31
0.0
  0
LINE
  5
BB
100
AcDbEntity
  8
0
  6
CONTINUOUS
 62
               7
100
AcDbLine
 10
7.9999999831935042
 20
-2.5
 30
0.0
 11
136.99999998319333
 21
-2.5
 31
0.0
  0
LINE
  5
BC
100
AcDbEntity
  8
0
  6
CONTINUOUS
 62
               7
100
AcDbLine
 10
8.0
 20
15.5
 30
0.0
 11
9.1000000000000227
 21
15.5
 31
0.0
  0
LINE
  5
BD
100
AcDbEntity
  8
0
  6
CONTINUOUS
 62
               7
100
AcDbLine
 10
9.1000000000000227
 20
22.5
 30
0.0
 11
9.1000000000000227
 21
15.5
 31
0.0
  0
LINE
  5
BE
100
AcDbEntity
  8
0
  6
CENTER
 62
               2
100
AcDbLine
 10
17.0
 20
3.25
 30
0.0
 11
17.0
 21
12.750000000000014
 31
0.0
  0
CIRCLE
  5
BF
100
AcDbEntity
  8
0
  6
CONTINUOUS
 62
               7
100
AcDbCircle
 10
17.0
 20
8.0000000000000142
 30
0.0
 40
3.2499999999999996
  0
CIRCLE
  5
C0
100
AcDbEntity
  8
0
  6
CONTINUOUS
 62
               7
100
AcDbCircle
 10
17.0
 20
8.0000000000000142
 30
0.0
 40
1.7
  0
LINE
  5
C1
100
AcDbEntity
  8
0
  6
CONTINUOUS
 62
               7
100
AcDbLine
 10
8.0
 20
22.5
 30
0.0
 11
9.1000000000000227
 21
22.5
 31
0.0
  0
LINE
  5
C2
100
AcDbEntity
  8
0
  6
CONTINUOUS
 62
               7
100
AcDbLine
 10
9.1000000000000227
 20
21.000000000000014
 30
0.0
 11
10.000000000000057
 21
21.000000000000014
 31
0.0
  0
LINE
  5
C3
100
AcDbEntity
  8
0
  6
CONTINUOUS
 62
               7
100
AcDbLine
 10
9.1000000000000227
 20
17.000000000000014
 30
0.0
 11
10.000000000000057
 21
17.000000000000014
 31
0.0
  0
LINE
  5
C4
100
AcDbEntity
  8
0
  6
CENTER
 62
               2
100
AcDbLine
 10
57.0
 20
3.25
 30
0.0
 11
57.0
 21
12.750000000000014
 31
0.0
  0
CIRCLE
  5
C5
100
AcDbEntity
  8
0
  6
CONTINUOUS
 62
               7
100
AcDbCircle
 10
57.0
 20
8.0000000000000142
 30
0.0
 40
3.2499999999999996
  0
LINE
  5
C6
100
AcDbEntity
  8
0
  6
CENTER
 62
               2
100
AcDbLine
 10
52.25
 20
8.0000000000000142
 30
0.0
 11
61.75
 21
8.0000000000000142
 31
0.0
  0
CIRCLE
  5
C7
100
AcDbEntity
  8
0
  6
CONTINUOUS
 62
               7
100
AcDbCircle
 10
57.0
 20
8.0000000000000142
 30
0.0
 40
1.7
  0
LINE
  5
C8
100
AcDbEntity
  8
0
  6
CONTINUOUS
 62
               7
100
AcDbLine
 10
136.99999999999989
 20
21.0
 30
0.0
 11
138.43999999999994
 21
21.0
 31
0.0
  0
LINE
  5
C9
100
AcDbEntity
  8
0
  6
CONTINUOUS
 62
               7
100
AcDbLine
 10
138.43999999999994
 20
21.0
 30
0.0
 11
138.43999999999994
 21
24.499999999999744
 31
0.0
  0
LINE
  5
CA
100
AcDbEntity
  8
0
  6
CONTINUOUS
 62
               7
100
AcDbLine
 10
137.34000000000003
 20
21.0
 30
0.0
 11
137.34000000000003
 21
29.0
 31
0.0
  0
LINE
  5
CB
100
AcDbEntity
  8
0
  6
CONTINUOUS
 62
               7
100
AcDbLine
 10
136.99999999999989
 20
28.999999999999986
 30
0.0
 11
138.43999999999994
 21
28.999999999999986
 31
0.0
  0
LINE
  5
CC
100
AcDbEntity
  8
0
  6
CENTER
 62
               2
100
AcDbLine
 10
135.49999999999989
 20
25.000000000000057
 30
0.0
 11
139.93999999999994
 21
25.0
 31
0.0
  0
LINE
  5
CD
100
AcDbEntity
  8
0
  6
CONTINUOUS
 62
               7
100
AcDbLine
 10
137.63999999999999
 20
24.499999999999744
 30
0.0
 11
138.43999999999994
 21
24.499999999999744
 31
0.0
  0
LINE
  5
CE
100
AcDbEntity
  8
0
  6
CONTINUOUS
 62
               7
100
AcDbLine
 10
137.63999999999999
 20
25.49999999999973
 30
0.0
 11
138.43999999999994
 21
25.49999999999973
 31
0.0
  0
LINE
  5
CF
100
AcDbEntity
  8
0
  6
CONTINUOUS
 62
               7
100
AcDbLine
 10
137.63999999999999
 20
24.499999999999744
 30
0.0
 11
137.63999999999999
 21
25.49999999999973
 31
0.0
  0
LINE
  5
D0
100
AcDbEntity
  8
0
  6
CONTINUOUS
 62
               7
100
AcDbLine
 10
138.43999999999994
 20
25.49999999999973
 30
0.0
 11
138.43999999999994
 21
28.999999999999986
 31
0.0
  0
LINE
  5
D1
100
AcDbEntity
  8
0
  6
CONTINUOUS
 62
               7
100
AcDbLine
 10
10.000000000000057
 20
-30.999999999999986
 30
0.0
 11
10.000000000000057
 21
-12.499999999999986
 31
0.0
  0
LINE
  5
D2
100
AcDbEntity
  8
0
  6
CENTER
 62
               2
100
AcDbLine
 10
19.000000000000057
 20
-3.4999999999999858
 30
0.0
 11
19.000000000000057
 21
3.5000000000000142
 31
0.0
  0
CIRCLE
  5
D3
100
AcDbEntity
  8
0
  6
CONTINUOUS
 62
               2
100
AcDbCircle
 10
25.0
 20
8.0000000000000142
 30
0.0
 40
1.9999999999999998
  0
CIRCLE
  5
D4
100
AcDbEntity
  8
0
  6
CONTINUOUS
 62
               7
100
AcDbCircle
 10
25.0
 20
8.0000000000000142
 30
0.0
 40
1.5
  0
LINE
  5
D5
100
AcDbEntity
  8
0
  6
CENTER
 62
               2
100
AcDbLine
 10
25.0
 20
11.5
 30
0.0
 11
25.0
 21
4.5
 31
0.0
  0
CIRCLE
  5
D6
100
AcDbEntity
  8
0
  6
CONTINUOUS
 62
               2
100
AcDbCircle
 10
47.0
 20
8.0000000000000142
 30
0.0
 40
1.9999999999999998
  0
CIRCLE
  5
D7
100
AcDbEntity
  8
0
  6
CONTINUOUS
 62
               7
100
AcDbCircle
 10
47.0
 20
8.0000000000000142
 30
0.0
 40
1.5
  0
LINE
  5
D8
100
AcDbEntity
  8
0
  6
CENTER
 62
               2
100
AcDbLine
 10
47.0
 20
11.5
 30
0.0
 11
47.0
 21
4.5
 31
0.0
  0
LINE
  5
D9
100
AcDbEntity
  8
0
  6
CENTER
 62
               2
100
AcDbLine
 10
50.500000000000057
 20
8.0000000000000142
 30
0.0
 11
43.5
 21
8.0000000000000142
 31
0.0
  0
CIRCLE
  5
DA
100
AcDbEntity
  8
0
  6
CONTINUOUS
 62
               2
100
AcDbCircle
 10
25.0
 20
-7.9999999999999858
 30
0.0
 40
1.9999999999999998
  0
CIRCLE
  5
DB
100
AcDbEntity
  8
0
  6
CONTINUOUS
 62
               7
100
AcDbCircle
 10
25.0
 20
-7.9999999999999858
 30
0.0
 40
1.5
  0
LINE
  5
DC
100
AcDbEntity
  8
0
  6
CENTER
 62
               2
100
AcDbLine
 10
25.0
 20
-11.5
 30
0.0
 11
25.0
 21
-4.5
 31
0.0
  0
CIRCLE
  5
DD
100
AcDbEntity
  8
0
  6
CONTINUOUS
 62
               2
100
AcDbCircle
 10
47.0
 20
-7.9999999999999858
 30
0.0
 40
1.9999999999999998
  0
LINE
  5
DE
100
AcDbEntity
  8
0
  6
CENTER
 62
               2
100
AcDbLine
 10
47.0
 20
-11.5
 30
0.0
 11
47.0
 21
-4.5
 31
0.0
  0
LINE
  5
DF
100
AcDbEntity
  8
0
  6
CENTER
 62
               2
100
AcDbLine
 10
50.500000000000057
 20
-7.9999999999999858
 30
0.0
 11
43.5
 21
-7.9999999999999858
 31
0.0
  0
CIRCLE
  5
E0
100
AcDbEntity
  8
0
  6
CONTINUOUS
 62
               7
100
AcDbCircle
 10
47.0
 20
-7.9999999999999858
 30
0.0
 40
1.5
  0
CIRCLE
  5
E1
100
AcDbEntity
  8
0
  6
CONTINUOUS
 62
               2
100
AcDbCircle
 10
127.99999999999989
 20
8.0000000000000142
 30
0.0
 40
1.9999999999999998
  0
CIRCLE
  5
E2
100
AcDbEntity
  8
0
  6
CONTINUOUS
 62
               7
100
AcDbCircle
 10
127.99999999999989
 20
8.0000000000000142
 30
0.0
 40
1.5
  0
LINE
  5
E3
100
AcDbEntity
  8
0
  6
CENTER
 62
               2
100
AcDbLine
 10
127.99999999999989
 20
11.5
 30
0.0
 11
127.99999999999989
 21
4.5
 31
0.0
  0
LINE
  5
E4
100
AcDbEntity
  8
0
  6
CENTER
 62
               2
100
AcDbLine
 10
52.25
 20
-7.9999999999999858
 30
0.0
 11
61.75
 21
-7.9999999999999858
 31
0.0
  0
LINE
  5
E5
100
AcDbEntity
  8
0
  6
CENTER
 62
               2
100
AcDbLine
 10
127.99999999999989
 20
-11.5
 30
0.0
 11
127.99999999999989
 21
-4.5
 31
0.0
  0
CIRCLE
  5
E6
100
AcDbEntity
  8
0
  6
CONTINUOUS
 62
               7
100
AcDbCircle
 10
127.99999999999989
 20
-7.9999999999999858
 30
0.0
 40
1.5
  0
CIRCLE
  5
E7
100
AcDbEntity
  8
0
  6
CONTINUOUS
 62
               2
100
AcDbCircle
 10
127.99999999999989
 20
-7.9999999999999858
 30
0.0
 40
1.9999999999999998
  0
LINE
  5
E8
100
AcDbEntity
  8
0
  6
CONTINUOUS
 62
               4
100
AcDbLine
 10
52.0
 20
-14.0
 30
0.0
 11
52.0
 21
-28.999999999999993
 31
0.0
  0
LINE
  5
E9
100
AcDbEntity
  8
0
  6
CONTINUOUS
 62
               4
100
AcDbLine
 10
59.000000000000057
 20
-14.0
 30
0.0
 11
59.000000000000057
 21
-28.999999999999993
 31
0.0
  0
LINE
  5
EA
100
AcDbEntity
  8
0
  6
CONTINUOUS
 62
               7
100
AcDbLine
 10
59.000000000000057
 20
-27.999999999999986
 30
0.0
 11
136.99999998319333
 21
-27.999999999999986
 31
0.0
  0
LINE
  5
EB
100
AcDbEntity
  8
0
  6
CENTER
 62
               2
100
AcDbLine
 10
124.49999999999989
 20
8.0000000000000142
 30
0.0
 11
131.49999999999989
 21
8.0000000000000142
 31
0.0
  0
LINE
  5
EC
100
AcDbEntity
  8
0
  6
CENTER
 62
               2
100
AcDbLine
 10
124.49999999999989
 20
-8.0
 30
0.0
 11
131.49999999999989
 21
-8.0
 31
0.0
  0
LINE
  5
ED
100
AcDbEntity
  8
0
  6
CONTINUOUS
 62
               7
100
AcDbLine
 10
51.999999983193447
 20
-29.499999999999844
 30
0.0
 11
59.000000000000057
 21
-29.499999999999844
 31
0.0
  0
LINE
  5
EE
100
AcDbEntity
  8
0
  6
CENTER
 62
               2
100
AcDbLine
 10
135.49999999999989
 20
-24.999999999999972
 30
0.0
 11
139.93999999999994
 21
-24.999999999999972
 31
0.0
  0
LINE
  5
EF
100
AcDbEntity
  8
0
  6
CONTINUOUS
 62
               4
100
AcDbLine
 10
136.99999999999989
 20
12.500000000000014
 30
0.0
 11
151.99999999999989
 21
12.500000000000014
 31
0.0
  0
LINE
  5
F0
100
AcDbEntity
  8
0
  6
CONTINUOUS
 62
               4
100
AcDbLine
 10
136.99999999999989
 20
-12.499999999999986
 30
0.0
 11
139.99999999999989
 21
-12.499999999999986
 31
0.0
  0
LINE
  5
F1
100
AcDbEntity
  8
0
  6
CONTINUOUS
 62
               7
100
AcDbLine
 10
52.0
 20
-28.999999999999993
 30
0.0
 11
52.0
 21
-29.499999999999844
 31
0.0
  0
LINE
  5
F2
100
AcDbEntity
  8
0
  6
CONTINUOUS
 62
               7
100
AcDbLine
 10
59.000000000000057
 20
-28.999999999999993
 30
0.0
 11
59.000000000000057
 21
-29.499999999999844
 31
0.0
  0
LINE
  5
F3
100
AcDbEntity
  8
0
  6
CENTER
 62
               2
100
AcDbLine
 10
28.500000000000057
 20
-7.9999999999999858
 30
0.0
 11
12.25
 21
-7.9999999999999858
 31
0.0
  0
LINE
  5
F4
100
AcDbEntity
  8
0
  6
CENTER
 62
               2
100
AcDbLine
 10
28.500000000000057
 20
8.0000000000000142
 30
0.0
 11
12.25
 21
8.0000000000000142
 31
0.0
  0
ENDBLK
  5
F5
100
AcDbEntity
  8
0
100
AcDbBlockEnd
  0
BLOCK
  5
F6
100
AcDbEntity
  8
0
100
AcDbBlockBegin
  2
ZS10SS-2
 70
               0
 10
0.0
 20
0.0
 30
0.0
  3
ZS10SS-2
  1

  0
LINE
  5
F7
100
AcDbEntity
  8
0
  6
CONTINUOUS
 62
               4
100
AcDbLine
 10
1.2999999999998977
 20
10.650000000000006
 30
0.0
 11
1.2999999999999261
 21
6.9000000000000057
 31
0.0
  0
LINE
  5
F8
100
AcDbEntity
  8
0
  6
CONTINUOUS
 62
               4
100
AcDbLine
 10
-1.3000000000000966
 20
9.1499999999999773
 30
0.0
 11
-1.3000000000000682
 21
6.8999999999999773
 31
0.0
  0
LINE
  5
F9
100
AcDbEntity
  8
0
  6
CONTINUOUS
 62
               4
100
AcDbLine
 10
-1.25
 20
0.4999999999999716
 30
0.0
 11
1.2499999999999716
 21
0.5
 31
0.0
  0
LINE
  5
FA
100
AcDbEntity
  8
0
  6
CONTINUOUS
 62
               4
100
AcDbLine
 10
1.2499999999999716
 20
0.5
 30
0.0
 11
1.2500000000000284
 21
-0.0000000000000284
 31
0.0
  0
LINE
  5
FB
100
AcDbEntity
  8
0
  6
CONTINUOUS
 62
             200
100
AcDbLine
 10
1.0200000000000102
 20
0.5
 30
0.0
 11
1.0200000000000387
 21
-0.0000000000000284
 31
0.0
  0
LINE
  5
FC
100
AcDbEntity
  8
0
  6
CONTINUOUS
 62
             200
100
AcDbLine
 10
-1.0200000000000102
 20
0.4999999999999716
 30
0.0
 11
-1.0199999999999818
 21
-0.0000000000000284
 31
0.0
  0
LINE
  5
FD
100
AcDbEntity
  8
0
  6
CONTINUOUS
 62
               4
100
AcDbLine
 10
-1.25
 20
0.4999999999999716
 30
0.0
 11
-1.2500000000000284
 21
-0.0000000000000284
 31
0.0
  0
LINE
  5
FE
100
AcDbEntity
  8
0
  6
CONTINUOUS
 62
               4
100
AcDbLine
 10
-1.2499999999999432
 20
-3.7700000000000387
 30
0.0
 11
1.2500000000000284
 21
-3.7700000000000102
 31
0.0
  0
LINE
  5
FF
100
AcDbEntity
  8
0
  6
CONTINUOUS
 62
               4
100
AcDbLine
 10
1.2500000000000568
 20
-2.5999999999999943
 30
0.0
 11
1.2500000000000284
 21
-3.7700000000000102
 31
0.0
  0
LINE
  5
100
100
AcDbEntity
  8
0
  6
CONTINUOUS
 62
             200
100
AcDbLine
 10
1.0200000000000671
 20
-2.5999999999999943
 30
0.0
 11
1.0200000000000671
 21
-4.0000000000000284
 31
0.0
  0
LINE
  5
101
100
AcDbEntity
  8
0
  6
CONTINUOUS
 62
             200
100
AcDbLine
 10
-1.0199999999999534
 20
-2.6000000000000512
 30
0.0
 11
-1.0199999999999534
 21
-4.0000000000000284
 31
0.0
  0
LINE
  5
102
100
AcDbEntity
  8
0
  6
CONTINUOUS
 62
               4
100
AcDbLine
 10
-1.2499999999999432
 20
-2.6000000000000512
 30
0.0
 11
-1.2499999999999432
 21
-3.7700000000000387
 31
0.0
  0
LINE
  5
103
100
AcDbEntity
  8
0
  6
CONTINUOUS
 62
               4
100
AcDbLine
 10
-1.0199999999999534
 20
-4.0000000000000284
 30
0.0
 11
-1.2499999999999432
 21
-3.7700000000000387
 31
0.0
  0
LINE
  5
104
100
AcDbEntity
  8
0
  6
CONTINUOUS
 62
               4
100
AcDbLine
 10
1.0200000000000671
 20
-4.0000000000000284
 30
0.0
 11
1.2500000000000284
 21
-3.7700000000000102
 31
0.0
  0
LINE
  5
105
100
AcDbEntity
  8
0
  6
CONTINUOUS
 62
               4
100
AcDbLine
 10
-1.0199999999999534
 20
-4.0000000000000284
 30
0.0
 11
1.0200000000000671
 21
-4.0000000000000284
 31
0.0
  0
LINE
  5
106
100
AcDbEntity
  8
0
  6
CONTINUOUS
 62
             200
100
AcDbLine
 10
-2.1600000000000534
 20
8.6499999999999773
 30
0.0
 11
2.1599999999998545
 21
11.150000000000034
 31
0.0
  0
LINE
  5
107
100
AcDbEntity
  8
0
  6
CONTINUOUS
 62
               4
100
AcDbLine
 10
-2.2500000000000568
 20
6.8999999999999488
 30
0.0
 11
2.2499999999999716
 21
6.9000000000000057
 31
0.0
  0
LINE
  5
108
100
AcDbEntity
  8
0
  6
CONTINUOUS
 62
               4
100
AcDbLine
 10
-2.049390153191899
 20
-2.6000000000000512
 30
0.0
 11
2.0493901531919398
 21
-2.5999999999999943
 31
0.0
  0
LINE
  5
109
100
AcDbEntity
  8
0
  6
CONTINUOUS
 62
               4
100
AcDbLine
 10
-2.0499999999999545
 20
-1.8000000000000114
 30
0.0
 11
2.0500000000000682
 21
-1.7999999999999829
 31
0.0
  0
LINE
  5
10A
100
AcDbEntity
  8
0
  6
CONTINUOUS
 62
               4
100
AcDbLine
 10
-1.5
 20
-0.0000000000000284
 30
0.0
 11
1.5
 21
0.0
 31
0.0
  0
LINE
  5
10B
100
AcDbEntity
  8
0
  6
CENTER
 62
             200
100
AcDbLine
 10
-0.0000000000001421
 20
12.559999999999974
 30
0.0
 11
0.0000000000000568
 21
-6.0600000000000307
 31
0.0
  0
LINE
  5
10C
100
AcDbEntity
  8
0
  6
CONTINUOUS
 62
               4
100
AcDbLine
 10
2.2499999999999716
 20
6.9000000000000057
 30
0.0
 11
2.2499999999999716
 21
1.1500000000000341
 31
0.0
  0
LINE
  5
10D
100
AcDbEntity
  8
0
  6
CONTINUOUS
 62
               4
100
AcDbLine
 10
1.5000000000000284
 20
0.4000000000000057
 30
0.0
 11
2.2499999999999716
 21
1.1500000000000341
 31
0.0
  0
LINE
  5
10E
100
AcDbEntity
  8
0
  6
CONTINUOUS
 62
               4
100
AcDbLine
 10
1.5
 20
-0.4499999999999886
 30
0.0
 11
1.5000000000000284
 21
0.4000000000000057
 31
0.0
  0
LINE
  5
10F
100
AcDbEntity
  8
0
  6
CONTINUOUS
 62
               4
100
AcDbLine
 10
2.0500000000000114
 20
-1.0
 30
0.0
 11
1.5
 21
-0.4499999999999886
 31
0.0
  0
LINE
  5
110
100
AcDbEntity
  8
0
  6
CONTINUOUS
 62
               4
100
AcDbLine
 10
2.0500000000000114
 20
-1.0
 30
0.0
 11
2.0500000000000398
 21
-2.5499999999999829
 31
0.0
  0
LINE
  5
111
100
AcDbEntity
  8
0
  6
CONTINUOUS
 62
               4
100
AcDbLine
 10
-2.0499999999999545
 20
-1.0000000000000568
 30
0.0
 11
-2.0499999999999261
 21
-2.5500000000000398
 31
0.0
  0
LINE
  5
112
100
AcDbEntity
  8
0
  6
CONTINUOUS
 62
               4
100
AcDbLine
 10
-2.0499999999999545
 20
-1.0000000000000568
 30
0.0
 11
-1.5
 21
-0.4500000000000455
 31
0.0
  0
LINE
  5
113
100
AcDbEntity
  8
0
  6
CONTINUOUS
 62
               4
100
AcDbLine
 10
-1.5
 20
-0.4500000000000455
 30
0.0
 11
-1.5000000000000284
 21
0.3999999999999488
 31
0.0
  0
LINE
  5
114
100
AcDbEntity
  8
0
  6
CONTINUOUS
 62
               4
100
AcDbLine
 10
-1.5000000000000284
 20
0.3999999999999488
 30
0.0
 11
-2.2500000000000284
 21
1.1499999999999773
 31
0.0
  0
LINE
  5
115
100
AcDbEntity
  8
0
  6
CONTINUOUS
 62
               4
100
AcDbLine
 10
-2.2500000000000568
 20
6.8999999999999488
 30
0.0
 11
-2.2500000000000284
 21
1.1499999999999773
 31
0.0
  0
LINE
  5
116
100
AcDbEntity
  8
0
  6
CONTINUOUS
 62
               4
100
AcDbLine
 10
-2.2500000000000568
 20
5.3999999999999773
 30
0.0
 11
2.2499999999999716
 21
5.4000000000000341
 31
0.0
  0
ARC
  5
117
100
AcDbEntity
  8
0
  6
CONTINUOUS
 62
               4
100
AcDbCircle
 10
0.0000000000000193
 20
-2.5500000000000149
 30
0.0
 40
2.0499999999999998
100
AcDbArc
 50
180.00000000000028
 51
0.000000000000916
  0
ENDBLK
  5
118
100
AcDbEntity
  8
0
100
AcDbBlockEnd
  0
BLOCK
  5
119
100
AcDbEntity
  8
0
100
AcDbBlockBegin
  2
ZS10SS-3
 70
               0
 10
0.0
 20
0.0
 30
0.0
  3
ZS10SS-3
  1

  0
CIRCLE
  5
11A
100
AcDbEntity
  8
0
  6
CONTINUOUS
 62
               4
100
AcDbCircle
 10
19.117279052734375
 20
0.3181533813476563
 30
0.0
 40
0.25
  0
CIRCLE
  5
11B
100
AcDbEntity
  8
0
  6
CONTINUOUS
 62
               4
100
AcDbCircle
 10
19.729156494140625
 20
-0.34100341796875
 30
0.0
 40
0.25
  0
CIRCLE
  5
11C
100
AcDbEntity
  8
0
  6
CONTINUOUS
 62
               4
100
AcDbCircle
 10
19.117279052734375
 20
0.3181533813476563
 30
0.0
 40
0.449999988079071
  0
CIRCLE
  5
11D
100
AcDbEntity
  8
0
  6
CONTINUOUS
 62
               4
100
AcDbCircle
 10
19.729156494140625
 20
-0.34100341796875
 30
0.0
 40
0.449999988079071
  0
CIRCLE
  5
11E
100
AcDbEntity
  8
0
  6
CONTINUOUS
 62
               4
100
AcDbCircle
 10
19.4073486328125
 20
0.0
 30
0.0
 40
1.2999992370605469
  0
CIRCLE
  5
11F
100
AcDbEntity
  8
0
  6
CONTINUOUS
 62
               4
100
AcDbCircle
 10
2.0
 20
0.0
 30
0.0
 40
1.3999996185302734
  0
CIRCLE
  5
120
100
AcDbEntity
  8
0
  6
CONTINUOUS
 62
               4
100
AcDbCircle
 10
2.0
 20
0.0
 30
0.0
 40
1.25
  0
ARC
  5
121
100
AcDbEntity
  8
0
  6
CONTINUOUS
 62
               4
100
AcDbCircle
 10
19.5
 20
0.0
 30
0.0
 40
3.3043758866085451
100
AcDbArc
 50
137.08479304050996
 51
222.91520695948927
  0
LINE
  5
122
100
AcDbEntity
  8
0
  6
CONTINUOUS
 62
               4
100
AcDbLine
 10
0.9300000000000068
 20
-0.6400000000000006
 30
0.0
 11
2.6399999999999864
 21
1.0699999999999932
 31
0.0
  0
LINE
  5
123
100
AcDbEntity
  8
0
  6
CONTINUOUS
 62
               4
100
AcDbLine
 10
1.3500000000000227
 20
-1.0699999999999932
 30
0.0
 11
3.0699999999999932
 21
0.6400000000000006
 31
0.0
  0
LINE
  5
124
100
AcDbEntity
  8
0
  6
CONTINUOUS
 62
               4
100
AcDbLine
 10
22.0
 20
2.25
 30
0.0
 11
22.0
 21
-2.25
 31
0.0
  0
LINE
  5
125
100
AcDbEntity
  8
0
  6
CONTINUOUS
 62
               4
100
AcDbLine
 10
17.079999999999984
 20
-2.25
 30
0.0
 11
22.0
 21
-2.25
 31
0.0
  0
LINE
  5
126
100
AcDbEntity
  8
0
  6
CONTINUOUS
 62
               4
100
AcDbLine
 10
17.079999999999984
 20
2.25
 30
0.0
 11
22.0
 21
2.25
 31
0.0
  0
LINE
  5
127
100
AcDbEntity
  8
0
  6
CENTER
 62
             200
100
AcDbLine
 10
2.0
 20
2.8299999999999983
 30
0.0
 11
2.0
 21
-2.75
 31
0.0
  0
LINE
  5
128
100
AcDbEntity
  8
0
  6
CONTINUOUS
 62
               4
100
AcDbLine
 10
0.0
 20
2.0499999999999972
 30
0.0
 11
0.0
 21
-2.0499999999999972
 31
0.0
  0
LINE
  5
129
100
AcDbEntity
  8
0
  6
CONTINUOUS
 62
               4
100
AcDbLine
 10
0.0
 20
2.0499999999999972
 30
0.0
 11
16.910000000000025
 21
2.0499999999999972
 31
0.0
  0
LINE
  5
12A
100
AcDbEntity
  8
0
  6
CONTINUOUS
 62
               4
100
AcDbLine
 10
0.0
 20
-2.0499999999999972
 30
0.0
 11
16.910000000000025
 21
-2.0499999999999972
 31
0.0
  0
LINE
  5
12B
100
AcDbEntity
  8
0
  6
CONTINUOUS
 62
               4
100
AcDbLine
 10
0.0
 20
1.5
 30
0.0
 11
16.560000000000002
 21
1.5
 31
0.0
  0
LINE
  5
12C
100
AcDbEntity
  8
0
  6
CONTINUOUS
 62
               4
100
AcDbLine
 10
0.0
 20
-1.5
 30
0.0
 11
16.560000000000002
 21
-1.5
 31
0.0
  0
LINE
  5
12D
100
AcDbEntity
  8
0
  6
CENTER
 62
             200
100
AcDbLine
 10
-1.3199999999999932
 20
0.0
 30
0.0
 11
23.579999999999984
 21
0.0
 31
0.0
  0
ENDBLK
  5
12E
100
AcDbEntity
  8
0
100
AcDbBlockEnd
  0
BLOCK
  5
12F
100
AcDbEntity
  8
0
100
AcDbBlockBegin
  2
ZS10SS-4
 70
               0
 10
0.0
 20
0.0
 30
0.0
  3
ZS10SS-4
  1

  0
LINE
  5
130
100
AcDbEntity
  8
0
  6
CONTINUOUS
 62
               4
100
AcDbLine
 10
22.500000019773438
 20
12.499999999999915
 30
0.0
 11
21.499999999999943
 21
12.499999999999915
 31
0.0
  0
ARC
  5
131
100
AcDbEntity
  8
0
  6
CONTINUOUS
 62
               4
100
AcDbCircle
 10
20.5
 20
-14.000000000000085
 30
0.0
 40
1.5
100
AcDbArc
 50
0.0
 51
48.189685104223763
  0
ARC
  5
132
100
AcDbEntity
  8
0
  6
CONTINUOUS
 62
               4
100
AcDbCircle
 10
27.500000000000057
 20
-17.000000000000085
 30
0.0
 40
3.9999999999999996
100
AcDbArc
 50
48.590377890729158
 51
131.40962210927043
  0
ARC
  5
133
100
AcDbEntity
  8
0
  6
CONTINUOUS
 62
               4
100
AcDbCircle
 10
27.500000000000057
 20
-17.000000000000085
 30
0.0
 40
3.5
100
AcDbArc
 50
58.997280866126054
 51
121.00271913387355
  0
LINE
  5
134
100
AcDbEntity
  8
0
  6
CENTER
 62
             200
100
AcDbLine
 10
27.500000000000057
 20
-10.879000000000076
 30
0.0
 11
27.500000000000057
 21
-23.12100000000008
 31
0.0
  0
LINE
  5
135
100
AcDbEntity
  8
0
  6
CONTINUOUS
 62
               4
100
AcDbLine
 10
24.500000000000057
 20
-21.500000000000085
 30
0.0
 11
24.500000000000114
 21
-29.000000000000085
 31
0.0
  0
LINE
  5
136
100
AcDbEntity
  8
0
  6
CONTINUOUS
 62
               4
100
AcDbLine
 10
28.500000000000114
 20
-22.000000000000085
 30
0.0
 11
28.500000000000114
 21
-29.000000000000085
 31
0.0
  0
LINE
  5
137
100
AcDbEntity
  8
0
  6
CONTINUOUS
 62
               4
100
AcDbLine
 10
33.499999999999943
 20
-22.500000000000085
 30
0.0
 11
33.499999999999943
 21
-11.089576083200825
 31
0.0
  0
LINE
  5
138
100
AcDbEntity
  8
0
  6
CONTINUOUS
 62
               4
100
AcDbLine
 10
33.499999999999943
 20
-22.500000000000085
 30
0.0
 11
28.500000000000114
 21
-22.500000000000085
 31
0.0
  0
LINE
  5
139
100
AcDbEntity
  8
0
  6
CONTINUOUS
 62
               4
100
AcDbLine
 10
24.500000000000057
 20
-21.500000000000085
 30
0.0
 11
30.500000000000057
 21
-21.500000000000085
 31
0.0
  0
LINE
  5
13A
100
AcDbEntity
  8
0
  6
CONTINUOUS
 62
               4
100
AcDbLine
 10
24.500000000000057
 20
-22.000000000000085
 30
0.0
 11
28.500000000000114
 21
-22.000000000000085
 31
0.0
  0
LINE
  5
13B
100
AcDbEntity
  8
0
  6
CONTINUOUS
 62
               4
100
AcDbLine
 10
30.500000000000057
 20
-21.500000000000085
 30
0.0
 11
30.5
 21
-14.000000000000085
 31
0.0
  0
ARC
  5
13C
100
AcDbEntity
  8
0
  6
CONTINUOUS
 62
               4
100
AcDbCircle
 10
27.500000000000057
 20
-17.000000000000085
 30
0.0
 40
3.9999999999999996
100
AcDbArc
 50
318.5903778907296
 51
41.40962210927129
  0
ARC
  5
13D
100
AcDbEntity
  8
0
  6
CONTINUOUS
 62
               4
100
AcDbCircle
 10
27.500000000000057
 20
-17.000000000000085
 30
0.0
 40
3.5
100
AcDbArc
 50
328.99728086612646
 51
31.002719133874578
  0
LINE
  5
13E
100
AcDbEntity
  8
0
  6
CENTER
 62
             200
100
AcDbLine
 10
19.500000000000057
 20
-25.500000000000085
 30
0.0
 11
30.000000000000114
 21
-25.500000000000085
 31
0.0
  0
LINE
  5
13F
100
AcDbEntity
  8
0
  6
CONTINUOUS
 62
               4
100
AcDbLine
 10
19.999999999999943
 20
-29.000000000000085
 30
0.0
 11
28.500000000000114
 21
-29.000000000000085
 31
0.0
  0
LINE
  5
140
100
AcDbEntity
  8
0
  6
CONTINUOUS
 62
               4
100
AcDbLine
 10
33.499999999999943
 20
-11.089576083200825
 30
0.0
 11
22.500000019773438
 21
12.499999999999915
 31
0.0
  0
LINE
  5
141
100
AcDbEntity
  8
0
  6
CENTER
 62
             200
100
AcDbLine
 10
33.621000000000038
 20
-17.000000000000085
 30
0.0
 11
21.379000000000019
 21
-17.000000000000085
 31
0.0
  0
LINE
  5
142
100
AcDbEntity
  8
0
  6
CONTINUOUS
 62
               4
100
AcDbLine
 10
21.5
 20
-14.000000000000085
 30
0.0
 11
30.5
 21
-14.000000000000085
 31
0.0
  0
LINE
  5
143
100
AcDbEntity
  8
0
  6
CONTINUOUS
 62
               7
100
AcDbLine
 10
0.0
 20
-2.5
 30
0.0
 11
0.3000000000000682
 21
-2.1999999999999886
 31
0.0
  0
LINE
  5
144
100
AcDbEntity
  8
0
  6
CONTINUOUS
 62
               7
100
AcDbLine
 10
0.0
 20
-13.0
 30
0.0
 11
0.0
 21
-2.5
 31
0.0
  0
LINE
  5
145
100
AcDbEntity
  8
0
  6
CONTINUOUS
 62
               7
100
AcDbLine
 10
0.0
 20
2.5
 30
0.0
 11
0.3000000000000682
 21
2.1999999999999886
 31
0.0
  0
LINE
  5
146
100
AcDbEntity
  8
0
  6
CONTINUOUS
 62
               7
100
AcDbLine
 10
0.3000000000000682
 20
2.1999999999999886
 30
0.0
 11
0.3000000000000682
 21
-2.1999999999999886
 31
0.0
  0
LINE
  5
147
100
AcDbEntity
  8
0
  6
CONTINUOUS
 62
               7
100
AcDbLine
 10
0.0
 20
13.000000000000014
 30
0.0
 11
0.0
 21
2.5
 31
0.0
  0
LINE
  5
148
100
AcDbEntity
  8
0
  6
CONTINUOUS
 62
               7
100
AcDbLine
 10
22.0
 20
-11.999999999999986
 30
0.0
 11
21.5
 21
-12.499999999999986
 31
0.0
  0
LINE
  5
149
100
AcDbEntity
  8
0
  6
CONTINUOUS
 62
               7
100
AcDbLine
 10
22.0
 20
-11.999999999999986
 30
0.0
 11
22.0
 21
-2.9999999999999858
 31
0.0
  0
LINE
  5
14A
100
AcDbEntity
  8
0
  6
CONTINUOUS
 62
               7
100
AcDbLine
 10
22.0
 20
-2.9999999999999858
 30
0.0
 11
21.5
 21
-2.5
 31
0.0
  0
LINE
  5
14B
100
AcDbEntity
  8
0
  6
CONTINUOUS
 62
               7
100
AcDbLine
 10
22.0
 20
12.000000000000014
 30
0.0
 11
21.5
 21
12.500000000000014
 31
0.0
  0
LINE
  5
14C
100
AcDbEntity
  8
0
  6
CONTINUOUS
 62
               7
100
AcDbLine
 10
22.0
 20
12.000000000000014
 30
0.0
 11
22.0
 21
3.0000000000000142
 31
0.0
  0
LINE
  5
14D
100
AcDbEntity
  8
0
  6
CONTINUOUS
 62
               7
100
AcDbLine
 10
22.0
 20
3.0000000000000142
 30
0.0
 11
21.5
 21
2.5000000000000284
 31
0.0
  0
LINE
  5
14E
100
AcDbEntity
  8
0
  6
CONTINUOUS
 62
               7
100
AcDbLine
 10
0.8000000000000682
 20
31.0
 30
0.0
 11
2.9999999999999432
 21
31.0
 31
0.0
  0
ARC
  5
14F
100
AcDbEntity
  8
0
  6
CONTINUOUS
 62
               7
100
AcDbCircle
 10
0.8000000000000682
 20
-30.499999999999986
 30
0.0
 40
0.4999999999999999
100
AcDbArc
 50
179.99999999999963
 51
269.99999999999937
  0
LINE
  5
150
100
AcDbEntity
  8
0
  6
CONTINUOUS
 62
               7
100
AcDbLine
 10
0.3000000119209858
 20
-29.300000011920915
 30
0.0
 11
0.0000000000000568
 21
-28.999999999999993
 31
0.0
  0
LINE
  5
151
100
AcDbEntity
  8
0
  6
CONTINUOUS
 62
               7
100
AcDbLine
 10
0.3000000000000682
 20
-30.499999999999986
 30
0.0
 11
0.3000000000000682
 21
-29.299999999999997
 31
0.0
  0
LINE
  5
152
100
AcDbEntity
  8
0
  6
CONTINUOUS
 62
               7
100
AcDbLine
 10
0.8000000000000682
 20
-30.999999999999986
 30
0.0
 11
18.000000000000057
 21
-30.999999999999986
 31
0.0
  0
LINE
  5
153
100
AcDbEntity
  8
0
  6
CONTINUOUS
 62
               7
100
AcDbLine
 10
0.3000000119209858
 20
-22.699999988079071
 30
0.0
 11
0.0000000596046448
 21
-22.999999940395355
 31
0.0
  0
LINE
  5
154
100
AcDbEntity
  8
0
  6
CONTINUOUS
 62
               7
100
AcDbLine
 10
0.0000000000000568
 20
-28.999999999999979
 30
0.0
 11
0.0
 21
-23.0
 31
0.0
  0
LINE
  5
155
100
AcDbEntity
  8
0
  6
CONTINUOUS
 62
               7
100
AcDbLine
 10
0.3000000119209858
 20
-13.300000011920929
 30
0.0
 11
0.0
 21
-13.0
 31
0.0
  0
LINE
  5
156
100
AcDbEntity
  8
0
  6
CONTINUOUS
 62
               7
100
AcDbLine
 10
0.3000000000000682
 20
-22.700000000000003
 30
0.0
 11
0.3000000000000682
 21
-13.299999999999983
 31
0.0
  0
LINE
  5
157
100
AcDbEntity
  8
0
  6
CONTINUOUS
 62
               7
100
AcDbLine
 10
0.3000000119209858
 20
13.300000011920929
 30
0.0
 11
0.0
 21
13.000000000000014
 31
0.0
  0
LINE
  5
158
100
AcDbEntity
  8
0
  6
CONTINUOUS
 62
               7
100
AcDbLine
 10
0.3000000119209858
 20
22.699999988079071
 30
0.0
 11
0.0000000596046448
 21
22.999999940395355
 31
0.0
  0
LINE
  5
159
100
AcDbEntity
  8
0
  6
CONTINUOUS
 62
               7
100
AcDbLine
 10
0.3000000000000682
 20
22.700000000000031
 30
0.0
 11
0.3000000000000682
 21
13.300000000000011
 31
0.0
  0
LINE
  5
15A
100
AcDbEntity
  8
0
  6
CONTINUOUS
 62
               7
100
AcDbLine
 10
0.3000000119209858
 20
29.300000011920929
 30
0.0
 11
0.0000000000000568
 21
29.0
 31
0.0
  0
LINE
  5
15B
100
AcDbEntity
  8
0
  6
CONTINUOUS
 62
               7
100
AcDbLine
 10
0.3000000000000682
 20
30.500000000000014
 30
0.0
 11
0.3000000000000682
 21
29.300000000000011
 31
0.0
  0
LINE
  5
15C
100
AcDbEntity
  8
0
  6
CONTINUOUS
 62
               7
100
AcDbLine
 10
0.0000000000000568
 20
29.0
 30
0.0
 11
0.0
 21
23.0
 31
0.0
  0
ARC
  5
15D
100
AcDbEntity
  8
0
  6
CONTINUOUS
 62
               7
100
AcDbCircle
 10
0.8000000000000682
 20
30.500000000000014
 30
0.0
 40
0.4999999999999999
100
AcDbArc
 50
89.999999999999815
 51
179.99999999999963
  0
CIRCLE
  5
15E
100
AcDbEntity
  8
0
  6
CONTINUOUS
 62
               7
100
AcDbCircle
 10
17.5
 20
-7.9999999999999858
 30
0.0
 40
2.7499999999999996
  0
LINE
  5
15F
100
AcDbEntity
  8
0
  6
CONTINUOUS
 62
               7
100
AcDbLine
 10
18.221687833600299
 20
-9.249999994999996
 30
0.0
 11
18.943375667200598
 21
-7.9999999999999858
 31
0.0
  0
LINE
  5
160
100
AcDbEntity
  8
0
  6
CONTINUOUS
 62
               7
100
AcDbLine
 10
16.778312166399758
 20
-9.249999994999996
 30
0.0
 11
18.221687833600299
 21
-9.249999994999996
 31
0.0
  0
LINE
  5
161
100
AcDbEntity
  8
0
  6
CONTINUOUS
 62
               7
100
AcDbLine
 10
16.778312166399758
 20
-9.249999994999996
 30
0.0
 11
16.056624332799458
 21
-7.9999999999999858
 31
0.0
  0
LINE
  5
162
100
AcDbEntity
  8
0
  6
CONTINUOUS
 62
               7
100
AcDbLine
 10
16.778312166399758
 20
-6.7500000049999755
 30
0.0
 11
16.056624332799458
 21
-7.9999999999999858
 31
0.0
  0
LINE
  5
163
100
AcDbEntity
  8
0
  6
CONTINUOUS
 62
               7
100
AcDbLine
 10
16.778312166399758
 20
-6.7500000049999755
 30
0.0
 11
18.221687833600299
 21
-6.7500000049999755
 31
0.0
  0
LINE
  5
164
100
AcDbEntity
  8
0
  6
CONTINUOUS
 62
               7
100
AcDbLine
 10
18.221687833600299
 20
-6.7500000049999755
 30
0.0
 11
18.943375667200598
 21
-7.9999999999999858
 31
0.0
  0
CIRCLE
  5
165
100
AcDbEntity
  8
0
  6
CONTINUOUS
 62
               7
100
AcDbCircle
 10
17.5
 20
-14.999999999999972
 30
0.0
 40
1.5
  0
LINE
  5
166
100
AcDbEntity
  8
0
  6
CENTER
 62
               2
100
AcDbLine
 10
21.0
 20
-14.999999999999972
 30
0.0
 11
14.0
 21
-14.999999999999972
 31
0.0
  0
CIRCLE
  5
167
100
AcDbEntity
  8
0
  6
CONTINUOUS
 62
               2
100
AcDbCircle
 10
17.5
 20
-14.999999999999972
 30
0.0
 40
1.9999999999999998
  0
LINE
  5
168
100
AcDbEntity
  8
0
  6
CENTER
 62
               2
100
AcDbLine
 10
22.25
 20
-7.9999999999999858
 30
0.0
 11
12.75
 21
-7.9999999999999858
 31
0.0
  0
LINE
  5
169
100
AcDbEntity
  8
0
  6
CENTER
 62
               2
100
AcDbLine
 10
5.5
 20
-13.5
 30
0.0
 11
5.5
 21
-6.5
 31
0.0
  0
LINE
  5
16A
100
AcDbEntity
  8
0
  6
CONTINUOUS
 62
               7
100
AcDbLine
 10
7.4226497308104058
 20
-20.0
 30
0.0
 11
8.577350269189651
 21
-20.0
 31
0.0
  0
LINE
  5
16B
100
AcDbEntity
  8
0
  6
CONTINUOUS
 62
               7
100
AcDbLine
 10
6.8452994616207548
 20
-18.999999999999986
 30
0.0
 11
7.4226497308104058
 21
-20.0
 31
0.0
  0
LINE
  5
16C
100
AcDbEntity
  8
0
  6
CONTINUOUS
 62
               7
100
AcDbLine
 10
8.577350269189651
 20
-20.0
 30
0.0
 11
9.1547005383793021
 21
-18.999999999999986
 31
0.0
  0
LINE
  5
16D
100
AcDbEntity
  8
0
  6
CONTINUOUS
 62
               7
100
AcDbLine
 10
7.4226497308104058
 20
-18.0
 30
0.0
 11
8.577350269189651
 21
-18.0
 31
0.0
  0
LINE
  5
16E
100
AcDbEntity
  8
0
  6
CONTINUOUS
 62
               7
100
AcDbLine
 10
8.577350269189651
 20
-18.0
 30
0.0
 11
9.1547005383793021
 21
-19.0
 31
0.0
  0
LINE
  5
16F
100
AcDbEntity
  8
0
  6
CONTINUOUS
 62
               7
100
AcDbLine
 10
6.8452994616207548
 20
-18.999999999999986
 30
0.0
 11
7.4226497308104058
 21
-18.0
 31
0.0
  0
CIRCLE
  5
170
100
AcDbEntity
  8
0
  6
CONTINUOUS
 62
               7
100
AcDbCircle
 10
8.0
 20
-18.999999999999986
 30
0.0
 40
2.25
  0
LINE
  5
171
100
AcDbEntity
  8
0
  6
CENTER
 62
               2
100
AcDbLine
 10
8.0
 20
-24.5
 30
0.0
 11
8.0
 21
-13.5
 31
0.0
  0
LINE
  5
172
100
AcDbEntity
  8
0
  6
CENTER
 62
               2
100
AcDbLine
 10
9.0
 20
-9.9999999999999858
 30
0.0
 11
2.0
 21
-9.9999999999999858
 31
0.0
  0
CIRCLE
  5
173
100
AcDbEntity
  8
0
  6
CONTINUOUS
 62
               7
100
AcDbCircle
 10
5.5
 20
-9.9999999999999858
 30
0.0
 40
1.5
  0
CIRCLE
  5
174
100
AcDbEntity
  8
0
  6
CONTINUOUS
 62
               2
100
AcDbCircle
 10
5.5
 20
-9.9999999999999858
 30
0.0
 40
1.9999999999999998
  0
LINE
  5
175
100
AcDbEntity
  8
0
  6
CONTINUOUS
 62
               7
100
AcDbLine
 10
21.5
 20
-25.0
 30
0.0
 11
1.5
 21
-25.0
 31
0.0
  0
CIRCLE
  5
176
100
AcDbEntity
  8
0
  6
CONTINUOUS
 62
               7
100
AcDbCircle
 10
8.0
 20
-18.999999999999986
 30
0.0
 40
3.5
  0
CIRCLE
  5
177
100
AcDbEntity
  8
0
  6
CONTINUOUS
 62
               7
100
AcDbCircle
 10
8.0
 20
-18.999999999999986
 30
0.0
 40
3.9999999999999996
  0
LINE
  5
178
100
AcDbEntity
  8
0
  6
CENTER
 62
               2
100
AcDbLine
 10
2.5000000000000568
 20
-18.999999999999986
 30
0.0
 11
13.5
 21
-18.999999999999986
 31
0.0
  0
LINE
  5
179
100
AcDbEntity
  8
0
  6
CENTER
 62
               2
100
AcDbLine
 10
9.0
 20
10.000000000000014
 30
0.0
 11
2.0
 21
10.000000000000014
 31
0.0
  0
LINE
  5
17A
100
AcDbEntity
  8
0
  6
CENTER
 62
               2
100
AcDbLine
 10
5.5
 20
13.5
 30
0.0
 11
5.5
 21
6.5
 31
0.0
  0
CIRCLE
  5
17B
100
AcDbEntity
  8
0
  6
CONTINUOUS
 62
               7
100
AcDbCircle
 10
5.5
 20
10.000000000000014
 30
0.0
 40
1.5
  0
CIRCLE
  5
17C
100
AcDbEntity
  8
0
  6
CONTINUOUS
 62
               2
100
AcDbCircle
 10
5.5
 20
10.000000000000014
 30
0.0
 40
1.9999999999999998
  0
LINE
  5
17D
100
AcDbEntity
  8
0
  6
CENTER
 62
               2
100
AcDbLine
 10
21.0
 20
15.000000000000014
 30
0.0
 11
14.0
 21
15.000000000000014
 31
0.0
  0
CIRCLE
  5
17E
100
AcDbEntity
  8
0
  6
CONTINUOUS
 62
               7
100
AcDbCircle
 10
17.5
 20
15.000000000000014
 30
0.0
 40
1.5
  0
CIRCLE
  5
17F
100
AcDbEntity
  8
0
  6
CONTINUOUS
 62
               2
100
AcDbCircle
 10
17.5
 20
15.000000000000014
 30
0.0
 40
1.9999999999999998
  0
LINE
  5
180
100
AcDbEntity
  8
0
  6
CONTINUOUS
 62
               7
100
AcDbLine
 10
18.221687833600299
 20
6.7500000050000182
 30
0.0
 11
18.943375667200598
 21
8.0000000000000142
 31
0.0
  0
LINE
  5
181
100
AcDbEntity
  8
0
  6
CONTINUOUS
 62
               7
100
AcDbLine
 10
16.778312166399758
 20
6.7500000050000182
 30
0.0
 11
18.221687833600299
 21
6.7500000050000182
 31
0.0
  0
LINE
  5
182
100
AcDbEntity
  8
0
  6
CONTINUOUS
 62
               7
100
AcDbLine
 10
16.778312166399758
 20
6.7500000050000182
 30
0.0
 11
16.056624332799458
 21
8.0000000000000142
 31
0.0
  0
LINE
  5
183
100
AcDbEntity
  8
0
  6
CONTINUOUS
 62
               7
100
AcDbLine
 10
16.778312166399758
 20
9.2499999950000102
 30
0.0
 11
16.056624332799458
 21
8.0000000000000142
 31
0.0
  0
LINE
  5
184
100
AcDbEntity
  8
0
  6
CONTINUOUS
 62
               7
100
AcDbLine
 10
16.778312166399758
 20
9.2499999950000102
 30
0.0
 11
18.221687833600299
 21
9.2499999950000102
 31
0.0
  0
LINE
  5
185
100
AcDbEntity
  8
0
  6
CONTINUOUS
 62
               7
100
AcDbLine
 10
18.221687833600299
 20
9.2499999950000102
 30
0.0
 11
18.943375667200598
 21
8.0000000000000142
 31
0.0
  0
CIRCLE
  5
186
100
AcDbEntity
  8
0
  6
CONTINUOUS
 62
               7
100
AcDbCircle
 10
17.5
 20
8.0000000000000142
 30
0.0
 40
2.7499999999999996
  0
LINE
  5
187
100
AcDbEntity
  8
0
  6
CENTER
 62
               2
100
AcDbLine
 10
22.25
 20
8.0000000000000142
 30
0.0
 11
12.75
 21
8.0000000000000142
 31
0.0
  0
LINE
  5
188
100
AcDbEntity
  8
0
  6
CONTINUOUS
 62
               7
100
AcDbLine
 10
21.5
 20
25.0
 30
0.0
 11
1.5
 21
25.0
 31
0.0
  0
LINE
  5
189
100
AcDbEntity
  8
0
  6
CONTINUOUS
 62
               7
100
AcDbLine
 10
1.5
 20
25.0
 30
0.0
 11
1.5
 21
-25.0
 31
0.0
  0
LINE
  5
18A
100
AcDbEntity
  8
0
  6
CONTINUOUS
 62
               7
100
AcDbLine
 10
6.8452994616207548
 20
19.000000000000014
 30
0.0
 11
7.4226497308104058
 21
18.0
 31
0.0
  0
LINE
  5
18B
100
AcDbEntity
  8
0
  6
CONTINUOUS
 62
               7
100
AcDbLine
 10
8.577350269189651
 20
18.0
 30
0.0
 11
9.1547005383793021
 21
19.000000000000014
 31
0.0
  0
LINE
  5
18C
100
AcDbEntity
  8
0
  6
CONTINUOUS
 62
               7
100
AcDbLine
 10
7.4226497308104058
 20
18.0
 30
0.0
 11
8.577350269189651
 21
18.0
 31
0.0
  0
LINE
  5
18D
100
AcDbEntity
  8
0
  6
CONTINUOUS
 62
               7
100
AcDbLine
 10
8.577350269189651
 20
20.0
 30
0.0
 11
9.1547005383793021
 21
19.000000000000014
 31
0.0
  0
LINE
  5
18E
100
AcDbEntity
  8
0
  6
CONTINUOUS
 62
               7
100
AcDbLine
 10
6.8452994616207548
 20
19.000000000000014
 30
0.0
 11
7.4226497308104058
 21
20.0
 31
0.0
  0
LINE
  5
18F
100
AcDbEntity
  8
0
  6
CONTINUOUS
 62
               7
100
AcDbLine
 10
7.4226497308104058
 20
20.0
 30
0.0
 11
8.577350269189651
 21
20.0
 31
0.0
  0
CIRCLE
  5
190
100
AcDbEntity
  8
0
  6
CONTINUOUS
 62
               7
100
AcDbCircle
 10
8.0
 20
19.000000000000014
 30
0.0
 40
2.25
  0
CIRCLE
  5
191
100
AcDbEntity
  8
0
  6
CONTINUOUS
 62
               7
100
AcDbCircle
 10
8.0
 20
19.000000000000014
 30
0.0
 40
3.5
  0
CIRCLE
  5
192
100
AcDbEntity
  8
0
  6
CONTINUOUS
 62
               7
100
AcDbCircle
 10
8.0
 20
19.000000000000014
 30
0.0
 40
3.9999999999999996
  0
LINE
  5
193
100
AcDbEntity
  8
0
  6
CONTINUOUS
 62
               7
100
AcDbLine
 10
21.5
 20
25.0
 30
0.0
 11
21.5
 21
-25.0
 31
0.0
  0
LINE
  5
194
100
AcDbEntity
  8
0
  6
CENTER
 62
               2
100
AcDbLine
 10
25.0
 20
0.0
 30
0.0
 11
-3.0
 21
0.0
 31
0.0
  0
LINE
  5
195
100
AcDbEntity
  8
0
  6
CONTINUOUS
 62
               7
100
AcDbLine
 10
21.000000000000057
 20
-27.999999999999979
 30
0.0
 11
18.000000000000057
 21
-30.999999999999986
 31
0.0
  0
LINE
  5
196
100
AcDbEntity
  8
0
  6
CONTINUOUS
 62
               7
100
AcDbLine
 10
21.000000000000171
 20
-25.0
 30
0.0
 11
21.000000000000227
 21
-27.999999999999851
 31
0.0
  0
ARC
  5
197
100
AcDbEntity
  8
0
  6
CONTINUOUS
 62
               7
100
AcDbCircle
 10
5.0000000000000568
 20
27.97499999999998
 30
0.0
 40
2.0750000000000002
100
AcDbArc
 50
179.99999999999963
 51
0.0
  0
LINE
  5
198
100
AcDbEntity
  8
0
  6
CONTINUOUS
 62
               7
100
AcDbLine
 10
7.0750000000000455
 20
29.594999999999985
 30
0.0
 11
6.6000000000000796
 21
30.070000000000007
 31
0.0
  0
LINE
  5
199
100
AcDbEntity
  8
0
  6
CONTINUOUS
 62
               7
100
AcDbLine
 10
6.6000000000000796
 20
30.070000000000007
 30
0.0
 11
6.6000000000000796
 21
30.299999999999969
 31
0.0
  0
ARC
  5
19A
100
AcDbEntity
  8
0
  6
CONTINUOUS
 62
               7
100
AcDbCircle
 10
6.9000000000000909
 20
30.299999999999969
 30
0.0
 40
0.3
100
AcDbArc
 50
89.999999999999815
 51
179.99999999999963
  0
LINE
  5
19B
100
AcDbEntity
  8
0
  6
CONTINUOUS
 62
               7
100
AcDbLine
 10
7.0750000000000455
 20
27.97499999999998
 30
0.0
 11
7.0750000000000455
 21
29.594999999999985
 31
0.0
  0
LINE
  5
19C
100
AcDbEntity
  8
0
  6
CONTINUOUS
 62
               7
100
AcDbLine
 10
3.4000000000000909
 20
30.070000000000007
 30
0.0
 11
3.4000000000000909
 21
30.599999999999994
 31
0.0
  0
LINE
  5
19D
100
AcDbEntity
  8
0
  6
CONTINUOUS
 62
               7
100
AcDbLine
 10
2.9250000000000682
 20
29.59999999999998
 30
0.0
 11
3.4000000000000909
 21
30.075000000000003
 31
0.0
  0
LINE
  5
19E
100
AcDbEntity
  8
0
  6
CONTINUOUS
 62
               7
100
AcDbLine
 10
2.9250000000000682
 20
27.97499999999998
 30
0.0
 11
2.9250000000000682
 21
29.59999999999998
 31
0.0
  0
LINE
  5
19F
100
AcDbEntity
  8
0
  6
CONTINUOUS
 62
               7
100
AcDbLine
 10
3.4000000000000909
 20
30.599999999999994
 30
0.0
 11
3.0000000000001137
 21
31.0
 31
0.0
  0
LINE
  5
1A0
100
AcDbEntity
  8
0
  6
CENTER
 62
               2
100
AcDbLine
 10
5.0000000000000568
 20
24.399997531016837
 30
0.0
 11
5.0000000000000568
 21
32.500000000000014
 31
0.0
  0
LINE
  5
1A1
100
AcDbEntity
  8
0
  6
CONTINUOUS
 62
               7
100
AcDbLine
 10
13.075000000000045
 20
29.599999999999966
 30
0.0
 11
12.600000000000023
 21
30.075000000000003
 31
0.0
  0
LINE
  5
1A2
100
AcDbEntity
  8
0
  6
CONTINUOUS
 62
               7
100
AcDbLine
 10
12.600000000000023
 20
30.070000000000007
 30
0.0
 11
12.600000000000023
 21
30.59999999999998
 31
0.0
  0
LINE
  5
1A3
100
AcDbEntity
  8
0
  6
CONTINUOUS
 62
               7
100
AcDbLine
 10
13.075000000000045
 20
27.97499999999998
 30
0.0
 11
13.075000000000045
 21
29.599999999999966
 31
0.0
  0
ARC
  5
1A4
100
AcDbEntity
  8
0
  6
CONTINUOUS
 62
               7
100
AcDbCircle
 10
11.000000000000114
 20
27.97499999999998
 30
0.0
 40
2.0750000000000002
100
AcDbArc
 50
179.99999999999963
 51
0.0
  0
ARC
  5
1A5
100
AcDbEntity
  8
0
  6
CONTINUOUS
 62
               7
100
AcDbCircle
 10
9.1000000000000796
 20
30.299999999999969
 30
0.0
 40
0.3
100
AcDbArc
 50
0.0
 51
89.999999999999815
  0
LINE
  5
1A6
100
AcDbEntity
  8
0
  6
CONTINUOUS
 62
               7
100
AcDbLine
 10
9.4000000000000909
 20
30.070000000000007
 30
0.0
 11
9.4000000000000909
 21
30.299999999999969
 31
0.0
  0
LINE
  5
1A7
100
AcDbEntity
  8
0
  6
CONTINUOUS
 62
               7
100
AcDbLine
 10
8.9250000000000682
 20
29.594999999999985
 30
0.0
 11
9.4000000000000909
 21
30.070000000000007
 31
0.0
  0
LINE
  5
1A8
100
AcDbEntity
  8
0
  6
CONTINUOUS
 62
               7
100
AcDbLine
 10
8.9250000000000682
 20
27.97499999999998
 30
0.0
 11
8.9250000000000682
 21
29.594999999999985
 31
0.0
  0
LINE
  5
1A9
100
AcDbEntity
  8
0
  6
CONTINUOUS
 62
               7
100
AcDbLine
 10
6.9000000000000909
 20
30.59999999999998
 30
0.0
 11
9.1000000000000796
 21
30.59999999999998
 31
0.0
  0
LINE
  5
1AA
100
AcDbEntity
  8
0
  6
CENTER
 62
               2
100
AcDbLine
 10
1.4399940345174969
 20
27.97499999999998
 30
0.0
 11
14.560005965482674
 21
27.97499999999998
 31
0.0
  0
LINE
  5
1AB
100
AcDbEntity
  8
0
  6
CONTINUOUS
 62
               7
100
AcDbLine
 10
12.600000000000023
 20
30.59999999999998
 30
0.0
 11
13.000000000000114
 21
31.0
 31
0.0
  0
LINE
  5
1AC
100
AcDbEntity
  8
0
  6
CENTER
 62
               2
100
AcDbLine
 10
11.000000000000114
 20
24.399997531016837
 30
0.0
 11
11.000000000000114
 21
32.500000000000014
 31
0.0
  0
LINE
  5
1AD
100
AcDbEntity
  8
0
  6
CONTINUOUS
 62
               7
100
AcDbLine
 10
21.000000000000171
 20
25.0
 30
0.0
 11
21.000000000000227
 21
27.999999999999872
 31
0.0
  0
LINE
  5
1AE
100
AcDbEntity
  8
0
  6
CONTINUOUS
 62
               7
100
AcDbLine
 10
21.000000000000057
 20
28.000000000000014
 30
0.0
 11
18.000000000000057
 21
31.0
 31
0.0
  0
LINE
  5
1AF
100
AcDbEntity
  8
0
  6
CENTER
 62
               2
100
AcDbLine
 10
2.5000000000000568
 20
19.000000000000014
 30
0.0
 11
13.5
 21
19.000000000000014
 31
0.0
  0
LINE
  5
1B0
100
AcDbEntity
  8
0
  6
CENTER
 62
               2
100
AcDbLine
 10
8.0
 20
24.5
 30
0.0
 11
8.0
 21
13.5
 31
0.0
  0
LINE
  5
1B1
100
AcDbEntity
  8
0
  6
CONTINUOUS
 62
               7
100
AcDbLine
 10
13.000000000000114
 20
31.0
 30
0.0
 11
18.000000000000057
 21
31.0
 31
0.0
  0
LINE
  5
1B2
100
AcDbEntity
  8
0
  6
CENTER
 62
               2
100
AcDbLine
 10
17.5
 20
3.2500000000000142
 30
0.0
 11
17.5
 21
18.5
 31
0.0
  0
LINE
  5
1B3
100
AcDbEntity
  8
0
  6
CENTER
 62
               2
100
AcDbLine
 10
17.5
 20
-3.2499999999999858
 30
0.0
 11
17.5
 21
-18.5
 31
0.0
  0
ENDBLK
  5
1B4
100
AcDbEntity
  8
0
100
AcDbBlockEnd
  0
BLOCK
  5
1B5
100
AcDbEntity
  8
0
100
AcDbBlockBegin
  2
ZS10SS-5
 70
               0
 10
0.0
 20
0.0
 30
0.0
  3
ZS10SS-5
  1

  0
LINE
  5
1B6
100
AcDbEntity
  8
0
  6
CONTINUOUS
 62
               4
100
AcDbLine
 10
-18.304343724360706
 20
-2.5
 30
0.0
 11
-13.695656275639521
 21
-2.5
 31
0.0
  0
ARC
  5
1B7
100
AcDbEntity
  8
0
  6
CONTINUOUS
 62
               4
100
AcDbCircle
 10
-16.0
 20
0.0
 30
0.0
 40
2.8999999999999999
100
AcDbArc
 50
120.45031402135497
 51
239.54968597864428
  0
ARC
  5
1B8
100
AcDbEntity
  8
0
  6
CONTINUOUS
 62
               4
100
AcDbCircle
 10
-16.0
 20
0.0
 30
0.0
 40
2.8999999999999999
100
AcDbArc
 50
300.45031402135538
 51
59.549685978644625
  0
LINE
  5
1B9
100
AcDbEntity
  8
0
  6
CONTINUOUS
 62
               4
100
AcDbLine
 10
-18.304343724360706
 20
2.5000000000000142
 30
0.0
 11
-13.695656275639521
 21
2.5000000000000142
 31
0.0
  0
LINE
  5
1BA
100
AcDbEntity
  8
0
  6
CONTINUOUS
 62
               4
100
AcDbLine
 10
-29.804343724360706
 20
-19.5
 30
0.0
 11
-25.195656275639521
 21
-19.5
 31
0.0
  0
ARC
  5
1BB
100
AcDbEntity
  8
0
  6
CONTINUOUS
 62
               4
100
AcDbCircle
 10
-27.500000000000227
 20
-17.0
 30
0.0
 40
2.8999999999999999
100
AcDbArc
 50
120.45031402135497
 51
239.54968597864428
  0
ARC
  5
1BC
100
AcDbEntity
  8
0
  6
CONTINUOUS
 62
               4
100
AcDbCircle
 10
-27.500000000000227
 20
-17.0
 30
0.0
 40
2.8999999999999999
100
AcDbArc
 50
300.45031402135538
 51
59.549685978644625
  0
LINE
  5
1BD
100
AcDbEntity
  8
0
  6
CONTINUOUS
 62
               4
100
AcDbLine
 10
-29.804343724360706
 20
-14.499999999999986
 30
0.0
 11
-25.195656275639521
 21
-14.499999999999986
 31
0.0
  0
ARC
  5
1BE
100
AcDbEntity
  8
0
  6
CONTINUOUS
 62
               7
100
AcDbCircle
 10
-16.0
 20
24.999999999999986
 30
0.0
 40
4.25
100
AcDbArc
 50
338.23701894003142
 51
15.046008580243777
  0
ARC
  5
1BF
100
AcDbEntity
  8
0
  6
CONTINUOUS
 62
               4
100
AcDbCircle
 10
-20.5
 20
-14.0
 30
0.0
 40
1.5
100
AcDbArc
 50
89.999999999999815
 51
179.99999999999963
  0
LINE
  5
1C0
100
AcDbEntity
  8
0
  6
CONTINUOUS
 62
               4
100
AcDbLine
 10
-21.5
 20
-12.5
 30
0.0
 11
-21.5
 21
-0.4737205583711983
 31
0.0
  0
LINE
  5
1C1
100
AcDbEntity
  8
0
  6
CENTER
 62
               2
100
AcDbLine
 10
-21.75
 20
-24.999999999999943
 30
0.0
 11
-10.25
 21
-25.000000000000014
 31
0.0
  0
LINE
  5
1C2
100
AcDbEntity
  8
0
  6
CENTER
 62
               2
100
AcDbLine
 10
-16.0
 20
-19.249999999999986
 30
0.0
 11
-16.000000000000227
 21
-30.749999999999979
 31
0.0
  0
CIRCLE
  5
1C3
100
AcDbEntity
  8
0
  6
CONTINUOUS
 62
               7
100
AcDbCircle
 10
-16.0
 20
-24.999999999999986
 30
0.0
 40
3.9999999999999996
  0
LINE
  5
1C4
100
AcDbEntity
  8
0
  6
CONTINUOUS
 62
               7
100
AcDbLine
 10
-19.968626966596958
 20
-24.499999999999972
 30
0.0
 11
-12.0
 21
-24.5
 31
0.0
  0
LINE
  5
1C5
100
AcDbEntity
  8
0
  6
CONTINUOUS
 62
               7
100
AcDbLine
 10
-19.968626966596958
 20
-25.499999999999972
 30
0.0
 11
-12.0
 21
-25.5
 31
0.0
  0
LINE
  5
1C6
100
AcDbEntity
  8
0
  6
CENTER
 62
               2
100
AcDbLine
 10
-21.75
 20
24.999999999999957
 30
0.0
 11
-10.25
 21
25.000000000000014
 31
0.0
  0
LINE
  5
1C7
100
AcDbEntity
  8
0
  6
CENTER
 62
               2
100
AcDbLine
 10
-16.0
 20
19.249999999999986
 30
0.0
 11
-16.000000000000227
 21
30.749999999999986
 31
0.0
  0
CIRCLE
  5
1C8
100
AcDbEntity
  8
0
  6
CONTINUOUS
 62
               7
100
AcDbCircle
 10
-16.0
 20
25.0
 30
0.0
 40
3.9999999999999996
  0
LINE
  5
1C9
100
AcDbEntity
  8
0
  6
CONTINUOUS
 62
               7
100
AcDbLine
 10
-19.968626966596958
 20
24.499999999999986
 30
0.0
 11
-12.0
 21
24.500000000000028
 31
0.0
  0
LINE
  5
1CA
100
AcDbEntity
  8
0
  6
CONTINUOUS
 62
               7
100
AcDbLine
 10
-19.968626966596958
 20
25.499999999999972
 30
0.0
 11
-12.0
 21
25.500000000000014
 31
0.0
  0
LINE
  5
1CB
100
AcDbEntity
  8
0
  6
CONTINUOUS
 62
               7
100
AcDbLine
 10
-21.5
 20
25.0
 30
0.0
 11
-21.000000000000227
 21
25.0
 31
0.0
  0
LINE
  5
1CC
100
AcDbEntity
  8
0
  6
CONTINUOUS
 62
               7
100
AcDbLine
 10
-21.5
 20
25.0
 30
0.0
 11
-21.5
 21
12.5
 31
0.0
  0
LINE
  5
1CD
100
AcDbEntity
  8
0
  6
CONTINUOUS
 62
               7
100
AcDbLine
 10
-21.0
 20
16.5
 30
0.0
 11
-21.0
 21
14.5
 31
0.0
  0
LINE
  5
1CE
100
AcDbEntity
  8
0
  6
CONTINUOUS
 62
               7
100
AcDbLine
 10
-20.5
 20
14.0
 30
0.0
 11
-13.590169943749515
 21
14.0
 31
0.0
  0
ARC
  5
1CF
100
AcDbEntity
  8
0
  6
CONTINUOUS
 62
               7
100
AcDbCircle
 10
-20.500000000000227
 20
14.5
 30
0.0
 40
0.4999999999999999
100
AcDbArc
 50
179.99999999999963
 51
269.99999999999937
  0
ARC
  5
1D0
100
AcDbEntity
  8
0
  6
CONTINUOUS
 62
               7
100
AcDbCircle
 10
-8.0
 20
19.0
 30
0.0
 40
7.4999999999999991
100
AcDbArc
 50
221.81031489577811
 51
240.07356513338524
  0
LINE
  5
1D1
100
AcDbEntity
  8
0
  6
CONTINUOUS
 62
               4
100
AcDbLine
 10
-22.0
 20
-14.0
 30
0.0
 11
-20.500000000000227
 21
-14.0
 31
0.0
  0
ARC
  5
1D2
100
AcDbEntity
  8
0
  6
CONTINUOUS
 62
               7
100
AcDbCircle
 10
-20.500000000000227
 20
-14.5
 30
0.0
 40
0.4999999999999999
100
AcDbArc
 50
89.999999999999815
 51
179.99999999999963
  0
ARC
  5
1D3
100
AcDbEntity
  8
0
  6
CONTINUOUS
 62
               7
100
AcDbCircle
 10
-8.0
 20
-19.0
 30
0.0
 40
7.4999999999999991
100
AcDbArc
 50
119.92643486661399
 51
138.18968510422107
  0
LINE
  5
1D4
100
AcDbEntity
  8
0
  6
CONTINUOUS
 62
               7
100
AcDbLine
 10
-21.000000000000227
 20
-14.5
 30
0.0
 11
-21.000000000000227
 21
-27.999999999999837
 31
0.0
  0
ARC
  5
1D5
100
AcDbEntity
  8
0
  6
CONTINUOUS
 62
               7
100
AcDbCircle
 10
-11.0
 20
27.97499999999998
 30
0.0
 40
2.0750000000000002
100
AcDbArc
 50
234.17146813084506
 51
0.0
  0
CIRCLE
  5
1D6
100
AcDbEntity
  8
0
  6
CONTINUOUS
 62
               7
100
AcDbCircle
 10
-8.0
 20
19.0
 30
0.0
 40
2.7000000000000002
  0
LINE
  5
1D7
100
AcDbEntity
  8
0
  6
CONTINUOUS
 62
               7
100
AcDbLine
 10
-2.3070243018989913
 20
17.105263157894754
 30
0.0
 11
-3.7397670852951705
 21
17.582108779748822
 31
0.0
  0
CIRCLE
  5
1D8
100
AcDbEntity
  8
0
  6
CONTINUOUS
 62
               7
100
AcDbCircle
 10
-4.2292407695056227
 20
16.111423391072734
 30
0.0
 40
0.75
  0
ARC
  5
1D9
100
AcDbEntity
  8
0
  6
CONTINUOUS
 62
               7
100
AcDbCircle
 10
-4.2292407695056227
 20
16.111423391072734
 30
0.0
 40
1.55
100
AcDbArc
 50
71.591519829414096
 51
209.7084393492313
  0
LINE
  5
1DA
100
AcDbEntity
  8
0
  6
CONTINUOUS
 62
               7
100
AcDbLine
 10
-2.3070243018989913
 20
20.89473684210526
 30
0.0
 11
-3.7397670852951705
 21
20.417891220251178
 31
0.0
  0
CIRCLE
  5
1DB
100
AcDbEntity
  8
0
  6
CONTINUOUS
 62
               7
100
AcDbCircle
 10
-4.2292407695056227
 20
21.888576608927281
 30
0.0
 40
0.75
  0
ARC
  5
1DC
100
AcDbEntity
  8
0
  6
CONTINUOUS
 62
               7
100
AcDbCircle
 10
-4.2292407695056227
 20
21.888576608927281
 30
0.0
 40
1.55
100
AcDbArc
 50
150.29156065076791
 51
288.40848017058511
  0
ARC
  5
1DD
100
AcDbEntity
  8
0
  6
CONTINUOUS
 62
               7
100
AcDbCircle
 10
-6.4440650126241508
 20
23.152322458413877
 30
0.0
 40
0.9999999999999999
100
AcDbArc
 50
330.2915606507683
 51
77.692330280597702
  0
ARC
  5
1DE
100
AcDbEntity
  8
0
  6
CONTINUOUS
 62
               7
100
AcDbCircle
 10
-6.4440650126241508
 20
14.847677541586123
 30
0.0
 40
0.9999999999999999
100
AcDbArc
 50
282.30766971940153
 51
29.708439349231668
  0
ARC
  5
1DF
100
AcDbEntity
  8
0
  6
CONTINUOUS
 62
               7
100
AcDbCircle
 10
-7.3499999999999091
 20
19.0
 30
0.0
 40
5.25
100
AcDbArc
 50
77.692330280597574
 51
282.30766971940164
  0
CIRCLE
  5
1E0
100
AcDbEntity
  8
0
  6
CONTINUOUS
 62
               7
100
AcDbCircle
 10
-8.0
 20
19.0
 30
0.0
 40
6.0
  0
LINE
  5
1E1
100
AcDbEntity
  8
0
  6
CENTER
 62
               2
100
AcDbLine
 10
-8.0
 20
26.5
 30
0.0
 11
-8.0
 21
11.5
 31
0.0
  0
ARC
  5
1E2
100
AcDbEntity
  8
0
  6
CONTINUOUS
 62
               7
100
AcDbCircle
 10
-6.4440650126241508
 20
-23.152322458413863
 30
0.0
 40
0.9999999999999999
100
AcDbArc
 50
282.30766971940153
 51
29.708439349231668
  0
ARC
  5
1E3
100
AcDbEntity
  8
0
  6
CONTINUOUS
 62
               7
100
AcDbCircle
 10
-4.2292407695056227
 20
-21.888576608927266
 30
0.0
 40
1.55
100
AcDbArc
 50
71.591519829414096
 51
209.7084393492313
  0
CIRCLE
  5
1E4
100
AcDbEntity
  8
0
  6
CONTINUOUS
 62
               7
100
AcDbCircle
 10
-4.2292407695056227
 20
-21.888576608927266
 30
0.0
 40
0.75
  0
LINE
  5
1E5
100
AcDbEntity
  8
0
  6
CONTINUOUS
 62
               7
100
AcDbLine
 10
-2.3070243018989913
 20
-20.89473684210526
 30
0.0
 11
-3.7397670852951705
 21
-20.417891220251164
 31
0.0
  0
ARC
  5
1E6
100
AcDbEntity
  8
0
  6
CONTINUOUS
 62
               7
100
AcDbCircle
 10
-6.4440650126241508
 20
-14.847677541586108
 30
0.0
 40
0.9999999999999999
100
AcDbArc
 50
330.2915606507683
 51
77.692330280597645
  0
ARC
  5
1E7
100
AcDbEntity
  8
0
  6
CONTINUOUS
 62
               7
100
AcDbCircle
 10
-7.3499999999999091
 20
-19.0
 30
0.0
 40
5.25
100
AcDbArc
 50
77.692330280597574
 51
282.30766971940164
  0
ARC
  5
1E8
100
AcDbEntity
  8
0
  6
CONTINUOUS
 62
               7
100
AcDbCircle
 10
-4.2292407695056227
 20
-16.111423391072719
 30
0.0
 40
1.55
100
AcDbArc
 50
150.29156065076791
 51
288.40848017058511
  0
CIRCLE
  5
1E9
100
AcDbEntity
  8
0
  6
CONTINUOUS
 62
               7
100
AcDbCircle
 10
-4.2292407695056227
 20
-16.111423391072719
 30
0.0
 40
0.75
  0
LINE
  5
1EA
100
AcDbEntity
  8
0
  6
CONTINUOUS
 62
               7
100
AcDbLine
 10
-2.3070243018989913
 20
-17.10526315789474
 30
0.0
 11
-3.7397670852951705
 21
-17.582108779748808
 31
0.0
  0
CIRCLE
  5
1EB
100
AcDbEntity
  8
0
  6
CONTINUOUS
 62
               7
100
AcDbCircle
 10
-8.0
 20
-19.0
 30
0.0
 40
2.7000000000000002
  0
CIRCLE
  5
1EC
100
AcDbEntity
  8
0
  6
CONTINUOUS
 62
               7
100
AcDbCircle
 10
-8.0
 20
-19.0
 30
0.0
 40
6.0
  0
LINE
  5
1ED
100
AcDbEntity
  8
0
  6
CENTER
 62
               2
100
AcDbLine
 10
-25.0
 20
0.0
 30
0.0
 11
3.0
 21
0.0
 31
0.0
  0
LINE
  5
1EE
100
AcDbEntity
  8
0
  6
CENTER
 62
               2
100
AcDbLine
 10
-0.5
 20
-19.0
 30
0.0
 11
-15.5
 21
-19.0
 31
0.0
  0
LINE
  5
1EF
100
AcDbEntity
  8
0
  6
CONTINUOUS
 62
               7
100
AcDbLine
 10
-0.7999999999999545
 20
-30.999999999999986
 30
0.0
 11
-18.0
 21
-30.999999999999986
 31
0.0
  0
LINE
  5
1F0
100
AcDbEntity
  8
0
  6
CONTINUOUS
 62
               7
100
AcDbLine
 10
0.0
 20
13.000000000000014
 30
0.0
 11
0.0
 21
2.5
 31
0.0
  0
LINE
  5
1F1
100
AcDbEntity
  8
0
  6
CONTINUOUS
 62
               7
100
AcDbLine
 10
-21.0
 20
-27.999999999999986
 30
0.0
 11
-18.0
 21
-30.999999999999986
 31
0.0
  0
LINE
  5
1F2
100
AcDbEntity
  8
0
  6
CONTINUOUS
 62
               7
100
AcDbLine
 10
-19.569999999999936
 20
20.600000000000009
 30
0.0
 11
-20.100000000000136
 21
20.600000000000009
 31
0.0
  0
LINE
  5
1F3
100
AcDbEntity
  8
0
  6
CONTINUOUS
 62
               7
100
AcDbLine
 10
-19.099999999999909
 20
21.074999999999989
 30
0.0
 11
-19.575000000000045
 21
20.600000000000009
 31
0.0
  0
LINE
  5
1F4
100
AcDbEntity
  8
0
  6
CONTINUOUS
 62
               7
100
AcDbLine
 10
-20.100000000000136
 20
20.600000000000009
 30
0.0
 11
-21.000000000000227
 21
21.500000000000128
 31
0.0
  0
LINE
  5
1F5
100
AcDbEntity
  8
0
  6
CENTER
 62
               2
100
AcDbLine
 10
-17.475000000000136
 20
22.574999999999989
 30
0.0
 11
-17.475000000000136
 21
15.439994034517412
 31
0.0
  0
LINE
  5
1F6
100
AcDbEntity
  8
0
  6
CONTINUOUS
 62
               7
100
AcDbLine
 10
-17.475000000000136
 20
21.074999999999989
 30
0.0
 11
-19.095000000000027
 21
21.074999999999989
 31
0.0
  0
LINE
  5
1F7
100
AcDbEntity
  8
0
  6
CONTINUOUS
 62
               7
100
AcDbLine
 10
-19.569999999999936
 20
17.400000000000006
 30
0.0
 11
-20.100000000000136
 21
17.400000000000006
 31
0.0
  0
LINE
  5
1F8
100
AcDbEntity
  8
0
  6
CONTINUOUS
 62
               7
100
AcDbLine
 10
-19.099999999999909
 20
16.925000000000011
 30
0.0
 11
-19.575000000000045
 21
17.400000000000006
 31
0.0
  0
LINE
  5
1F9
100
AcDbEntity
  8
0
  6
CONTINUOUS
 62
               7
100
AcDbLine
 10
-17.475000000000136
 20
16.925000000000011
 30
0.0
 11
-19.099999999999909
 21
16.925000000000011
 31
0.0
  0
LINE
  5
1FA
100
AcDbEntity
  8
0
  6
CONTINUOUS
 62
               7
100
AcDbLine
 10
-20.100000000000136
 20
17.400000000000006
 30
0.0
 11
-21.0
 21
16.5
 31
0.0
  0
ARC
  5
1FB
100
AcDbEntity
  8
0
  6
CONTINUOUS
 62
               7
100
AcDbCircle
 10
-17.475000000000136
 20
19.0
 30
0.0
 40
2.0750000000000002
100
AcDbArc
 50
269.99999999999937
 51
89.999999999999801
  0
ARC
  5
1FC
100
AcDbEntity
  8
0
  6
CONTINUOUS
 62
               7
100
AcDbCircle
 10
-5.0
 20
27.97499999999998
 30
0.0
 40
2.0750000000000002
100
AcDbArc
 50
180.00000000000037
 51
0.0
  0
LINE
  5
1FD
100
AcDbEntity
  8
0
  6
CONTINUOUS
 62
               7
100
AcDbLine
 10
-7.0750000000000455
 20
29.594999999999985
 30
0.0
 11
-6.6000000000001364
 21
30.070000000000007
 31
0.0
  0
LINE
  5
1FE
100
AcDbEntity
  8
0
  6
CONTINUOUS
 62
               7
100
AcDbLine
 10
-6.6000000000001364
 20
30.070000000000007
 30
0.0
 11
-6.6000000000001364
 21
30.299999999999969
 31
0.0
  0
ARC
  5
1FF
100
AcDbEntity
  8
0
  6
CONTINUOUS
 62
               7
100
AcDbCircle
 10
-6.9000000000000909
 20
30.299999999999969
 30
0.0
 40
0.3
100
AcDbArc
 50
0.0
 51
89.999999999999815
  0
LINE
  5
200
100
AcDbEntity
  8
0
  6
CONTINUOUS
 62
               7
100
AcDbLine
 10
-7.0750000000000455
 20
27.97499999999998
 30
0.0
 11
-7.0750000000000455
 21
29.594999999999985
 31
0.0
  0
LINE
  5
201
100
AcDbEntity
  8
0
  6
CONTINUOUS
 62
               7
100
AcDbLine
 10
-3.4000000000000909
 20
30.070000000000007
 30
0.0
 11
-3.4000000000000909
 21
30.599999999999852
 31
0.0
  0
LINE
  5
202
100
AcDbEntity
  8
0
  6
CONTINUOUS
 62
               7
100
AcDbLine
 10
-2.9250000000001819
 20
29.59999999999998
 30
0.0
 11
-3.4000000000000909
 21
30.075000000000003
 31
0.0
  0
LINE
  5
203
100
AcDbEntity
  8
0
  6
CONTINUOUS
 62
               7
100
AcDbLine
 10
-2.9250000000001819
 20
27.97499999999998
 30
0.0
 11
-2.9250000000001819
 21
29.59999999999998
 31
0.0
  0
LINE
  5
204
100
AcDbEntity
  8
0
  6
CENTER
 62
               2
100
AcDbLine
 10
-5.0
 20
24.399997531016837
 30
0.0
 11
-5.0
 21
32.499999999999986
 31
0.0
  0
LINE
  5
205
100
AcDbEntity
  8
0
  6
CONTINUOUS
 62
               7
100
AcDbLine
 10
-13.075000000000045
 20
29.59999999999998
 30
0.0
 11
-12.600000000000136
 21
30.075000000000003
 31
0.0
  0
LINE
  5
206
100
AcDbEntity
  8
0
  6
CONTINUOUS
 62
               7
100
AcDbLine
 10
-12.600000000000136
 20
30.070000000000007
 30
0.0
 11
-12.600000000000136
 21
30.59999999999998
 31
0.0
  0
LINE
  5
207
100
AcDbEntity
  8
0
  6
CONTINUOUS
 62
               7
100
AcDbLine
 10
-13.075000000000045
 20
27.97499999999998
 30
0.0
 11
-13.075000000000045
 21
29.59999999999998
 31
0.0
  0
ARC
  5
208
100
AcDbEntity
  8
0
  6
CONTINUOUS
 62
               7
100
AcDbCircle
 10
-11.0
 20
27.97499999999998
 30
0.0
 40
2.0750000000000002
100
AcDbArc
 50
179.99999999999963
 51
187.33382297141722
  0
ARC
  5
209
100
AcDbEntity
  8
0
  6
CONTINUOUS
 62
               7
100
AcDbCircle
 10
-9.1000000000001364
 20
30.299999999999969
 30
0.0
 40
0.3
100
AcDbArc
 50
89.999999999999815
 51
179.99999999999963
  0
LINE
  5
20A
100
AcDbEntity
  8
0
  6
CONTINUOUS
 62
               7
100
AcDbLine
 10
-9.4000000000000909
 20
30.070000000000007
 30
0.0
 11
-9.4000000000000909
 21
30.299999999999969
 31
0.0
  0
LINE
  5
20B
100
AcDbEntity
  8
0
  6
CONTINUOUS
 62
               7
100
AcDbLine
 10
-8.9250000000001819
 20
29.594999999999985
 30
0.0
 11
-9.4000000000000909
 21
30.070000000000007
 31
0.0
  0
LINE
  5
20C
100
AcDbEntity
  8
0
  6
CONTINUOUS
 62
               7
100
AcDbLine
 10
-8.9250000000001819
 20
27.97499999999998
 30
0.0
 11
-8.9250000000001819
 21
29.594999999999985
 31
0.0
  0
LINE
  5
20D
100
AcDbEntity
  8
0
  6
CONTINUOUS
 62
               7
100
AcDbLine
 10
-6.9000000000000909
 20
30.59999999999998
 30
0.0
 11
-9.1000000000001364
 21
30.59999999999998
 31
0.0
  0
LINE
  5
20E
100
AcDbEntity
  8
0
  6
CENTER
 62
               2
100
AcDbLine
 10
-1.43999403451744
 20
27.97499999999998
 30
0.0
 11
-14.560005965482787
 21
27.97499999999998
 31
0.0
  0
LINE
  5
20F
100
AcDbEntity
  8
0
  6
CONTINUOUS
 62
               7
100
AcDbLine
 10
-3.4000000000000909
 20
30.59999999999998
 30
0.0
 11
-3.0
 21
31.0
 31
0.0
  0
LINE
  5
210
100
AcDbEntity
  8
0
  6
CENTER
 62
               2
100
AcDbLine
 10
-11.0
 20
24.399997531016837
 30
0.0
 11
-11.0
 21
32.499999999999986
 31
0.0
  0
LINE
  5
211
100
AcDbEntity
  8
0
  6
CONTINUOUS
 62
               7
100
AcDbLine
 10
-21.000000000000227
 20
21.500000000000128
 30
0.0
 11
-21.000000000000227
 21
27.999999999999858
 31
0.0
  0
LINE
  5
212
100
AcDbEntity
  8
0
  6
CONTINUOUS
 62
               7
100
AcDbLine
 10
-21.0
 20
27.999999999999986
 30
0.0
 11
-18.0
 21
30.999999999999986
 31
0.0
  0
LINE
  5
213
100
AcDbEntity
  8
0
  6
CONTINUOUS
 62
               7
100
AcDbLine
 10
0.0
 20
29.0
 30
0.0
 11
0.0
 21
25.000000000000014
 31
0.0
  0
LINE
  5
214
100
AcDbEntity
  8
0
  6
CONTINUOUS
 62
               7
100
AcDbLine
 10
-0.300000011920929
 20
24.699999988079071
 30
0.0
 11
-0.0000000596046448
 21
24.999999940395355
 31
0.0
  0
LINE
  5
215
100
AcDbEntity
  8
0
  6
CONTINUOUS
 62
               7
100
AcDbLine
 10
-0.2999999999999545
 20
24.700000000000017
 30
0.0
 11
-0.2999999999999545
 21
13.300000000000011
 31
0.0
  0
LINE
  5
216
100
AcDbEntity
  8
0
  6
CONTINUOUS
 62
               7
100
AcDbLine
 10
-0.7999999999999545
 20
31.0
 30
0.0
 11
-3.0
 21
31.0
 31
0.0
  0
LINE
  5
217
100
AcDbEntity
  8
0
  6
CONTINUOUS
 62
               7
100
AcDbLine
 10
-0.300000011920929
 20
13.300000011920929
 30
0.0
 11
0.0
 21
13.000000000000014
 31
0.0
  0
LINE
  5
218
100
AcDbEntity
  8
0
  6
CONTINUOUS
 62
               7
100
AcDbLine
 10
-13.0
 20
30.999999999999986
 30
0.0
 11
-18.0
 21
30.999999999999986
 31
0.0
  0
LINE
  5
219
100
AcDbEntity
  8
0
  6
CONTINUOUS
 62
               7
100
AcDbLine
 10
-12.600000000000136
 20
30.59999999999998
 30
0.0
 11
-13.0
 21
31.0
 31
0.0
  0
ARC
  5
21A
100
AcDbEntity
  8
0
  6
CONTINUOUS
 62
               7
100
AcDbCircle
 10
-0.7999999999999545
 20
30.499999999999986
 30
0.0
 40
0.4999999999999999
100
AcDbArc
 50
0.0
 51
89.999999999999815
  0
LINE
  5
21B
100
AcDbEntity
  8
0
  6
CENTER
 62
               2
100
AcDbLine
 10
-8.0
 20
-26.5
 30
0.0
 11
-8.0
 21
-11.5
 31
0.0
  0
LINE
  5
21C
100
AcDbEntity
  8
0
  6
CONTINUOUS
 62
               7
100
AcDbLine
 10
-0.2999999999999545
 20
30.499999999999986
 30
0.0
 11
-0.2999999999999545
 21
29.300000000000011
 31
0.0
  0
LINE
  5
21D
100
AcDbEntity
  8
0
  6
CONTINUOUS
 62
               7
100
AcDbLine
 10
-0.300000011920929
 20
29.300000011920929
 30
0.0
 11
0.0
 21
29.0
 31
0.0
  0
LINE
  5
21E
100
AcDbEntity
  8
0
  6
CONTINUOUS
 62
               7
100
AcDbLine
 10
-0.300000011920929
 20
-24.699999988079071
 30
0.0
 11
-0.0000000596046448
 21
-24.999999940395355
 31
0.0
  0
LINE
  5
21F
100
AcDbEntity
  8
0
  6
CONTINUOUS
 62
               7
100
AcDbLine
 10
-0.300000011920929
 20
-13.300000011920929
 30
0.0
 11
0.0
 21
-13.0
 31
0.0
  0
ARC
  5
220
100
AcDbEntity
  8
0
  6
CONTINUOUS
 62
               7
100
AcDbCircle
 10
-0.7999999999999545
 20
-30.499999999999993
 30
0.0
 40
0.4999999999999999
100
AcDbArc
 50
270.00000000000023
 51
0.0
  0
LINE
  5
221
100
AcDbEntity
  8
0
  6
CONTINUOUS
 62
               7
100
AcDbLine
 10
-0.300000011920929
 20
-29.300000011920922
 30
0.0
 11
0.0
 21
-28.999999999999993
 31
0.0
  0
LINE
  5
222
100
AcDbEntity
  8
0
  6
CONTINUOUS
 62
               7
100
AcDbLine
 10
-0.2999999999999545
 20
-30.499999999999993
 30
0.0
 11
-0.2999999999999545
 21
-29.299999999999997
 31
0.0
  0
LINE
  5
223
100
AcDbEntity
  8
0
  6
CONTINUOUS
 62
               7
100
AcDbLine
 10
-0.2999999999999545
 20
-24.700000000000003
 30
0.0
 11
-0.2999999999999545
 21
-13.299999999999997
 31
0.0
  0
LINE
  5
224
100
AcDbEntity
  8
0
  6
CONTINUOUS
 62
               7
100
AcDbLine
 10
0.0
 20
-28.999999999999986
 30
0.0
 11
0.0
 21
-25.0
 31
0.0
  0
LINE
  5
225
100
AcDbEntity
  8
0
  6
CONTINUOUS
 62
               7
100
AcDbLine
 10
-0.2999999999999545
 20
2.1999999999999886
 30
0.0
 11
-0.2999999999999545
 21
-2.1999999999999886
 31
0.0
  0
LINE
  5
226
100
AcDbEntity
  8
0
  6
CONTINUOUS
 62
               7
100
AcDbLine
 10
0.0
 20
2.5
 30
0.0
 11
-0.2999999999999545
 21
2.1999999999999886
 31
0.0
  0
LINE
  5
227
100
AcDbEntity
  8
0
  6
CONTINUOUS
 62
               7
100
AcDbLine
 10
0.0
 20
-2.5
 30
0.0
 11
-0.2999999999999545
 21
-2.1999999999999886
 31
0.0
  0
LINE
  5
228
100
AcDbEntity
  8
0
  6
CONTINUOUS
 62
               7
100
AcDbLine
 10
0.0
 20
-13.0
 30
0.0
 11
0.0
 21
-2.5
 31
0.0
  0
ARC
  5
229
100
AcDbEntity
  8
0
  6
CONTINUOUS
 62
               7
100
AcDbCircle
 10
-16.0
 20
24.999999999999986
 30
0.0
 40
4.25
100
AcDbArc
 50
46.509421063145219
 51
247.44763729922192
  0
ARC
  5
22A
100
AcDbEntity
  8
0
  6
CONTINUOUS
 62
               7
100
AcDbCircle
 10
-16.0
 20
-24.999999999999972
 30
0.0
 40
4.25
100
AcDbArc
 50
51.976814231719715
 51
21.762981059967885
  0
ARC
  5
22B
100
AcDbEntity
  8
0
  6
CONTINUOUS
 62
               7
100
AcDbCircle
 10
-16.0
 20
24.999999999999986
 30
0.0
 40
4.25
100
AcDbArc
 50
264.75551542389542
 51
308.02318576827952
  0
LINE
  5
22C
100
AcDbEntity
  8
0
  6
CENTER
 62
             200
100
AcDbLine
 10
-10.25
 20
8.0
 30
0.0
 11
-0.75
 21
8.0
 31
0.0
  0
LINE
  5
22D
100
AcDbEntity
  8
0
  6
CENTER
 62
             200
100
AcDbLine
 10
-10.25
 20
-8.0
 30
0.0
 11
-0.75
 21
-8.0
 31
0.0
  0
LINE
  5
22E
100
AcDbEntity
  8
0
  6
CONTINUOUS
 62
               4
100
AcDbLine
 10
-22.0
 20
-17.473720558371127
 30
0.0
 11
-22.000000000000227
 21
-22.5
 31
0.0
  0
LINE
  5
22F
100
AcDbEntity
  8
0
  6
CONTINUOUS
 62
               4
100
AcDbLine
 10
-30.386751345948142
 20
-22.0
 30
0.0
 11
-33.27350269189651
 21
-17.0
 31
0.0
  0
LINE
  5
230
100
AcDbEntity
  8
0
  6
CONTINUOUS
 62
               4
100
AcDbLine
 10
-24.613248654052086
 20
-22.0
 30
0.0
 11
-30.386751345948142
 21
-22.0
 31
0.0
  0
LINE
  5
231
100
AcDbEntity
  8
0
  6
CONTINUOUS
 62
               4
100
AcDbLine
 10
-30.386751345948142
 20
-12.0
 30
0.0
 11
-33.27350269189651
 21
-17.0
 31
0.0
  0
LINE
  5
232
100
AcDbEntity
  8
0
  6
CONTINUOUS
 62
               4
100
AcDbLine
 10
-24.613248654052086
 20
-12.0
 30
0.0
 11
-30.386751345948142
 21
-12.0
 31
0.0
  0
LINE
  5
233
100
AcDbEntity
  8
0
  6
CONTINUOUS
 62
               4
100
AcDbLine
 10
-24.613248654052086
 20
-22.0
 30
0.0
 11
-21.726497308103944
 21
-17.0
 31
0.0
  0
LINE
  5
234
100
AcDbEntity
  8
0
  6
CONTINUOUS
 62
               4
100
AcDbLine
 10
-24.613248654052086
 20
-12.0
 30
0.0
 11
-21.726497308103944
 21
-17.0
 31
0.0
  0
CIRCLE
  5
235
100
AcDbEntity
  8
0
  6
CONTINUOUS
 62
               4
100
AcDbCircle
 10
-27.500000000000227
 20
-17.0
 30
0.0
 40
4.9999999999999991
  0
CIRCLE
  5
236
100
AcDbEntity
  8
0
  6
CONTINUOUS
 62
               4
100
AcDbCircle
 10
-27.500000000000227
 20
-17.0
 30
0.0
 40
3.9999999999999996
  0
CIRCLE
  5
237
100
AcDbEntity
  8
0
  6
CONTINUOUS
 62
               4
100
AcDbCircle
 10
-27.500000000000227
 20
-17.0
 30
0.0
 40
3.5
  0
LINE
  5
238
100
AcDbEntity
  8
0
  6
CENTER
 62
             200
100
AcDbLine
 10
-27.500000000000227
 20
-9.75
 30
0.0
 11
-27.500000000000227
 21
-24.25
 31
0.0
  0
LINE
  5
239
100
AcDbEntity
  8
0
  6
CENTER
 62
             200
100
AcDbLine
 10
-35.00555349946535
 20
-17.0
 30
0.0
 11
-19.994446500534877
 21
-17.0
 31
0.0
  0
LINE
  5
23A
100
AcDbEntity
  8
0
  6
CONTINUOUS
 62
               4
100
AcDbLine
 10
-22.0
 20
-14.0
 30
0.0
 11
-22.0
 21
-16.526279441628873
 31
0.0
  0
LINE
  5
23B
100
AcDbEntity
  8
0
  6
CONTINUOUS
 62
               7
100
AcDbLine
 10
-21.5
 20
-14.0
 30
0.0
 11
-21.5
 21
-12.881966011250057
 31
0.0
  0
LINE
  5
23C
100
AcDbEntity
  8
0
  6
CONTINUOUS
 62
               4
100
AcDbLine
 10
-6.2216878336002992
 20
-6.750000005000004
 30
0.0
 11
-6.9433756672005984
 21
-8.0
 31
0.0
  0
LINE
  5
23D
100
AcDbEntity
  8
0
  6
CONTINUOUS
 62
               4
100
AcDbLine
 10
-6.2216878336002992
 20
-9.249999994999996
 30
0.0
 11
-6.9433756672005984
 21
-8.0
 31
0.0
  0
LINE
  5
23E
100
AcDbEntity
  8
0
  6
CONTINUOUS
 62
               4
100
AcDbLine
 10
-4.7783121663997008
 20
-6.750000005000004
 30
0.0
 11
-6.2216878336002992
 21
-6.750000005000004
 31
0.0
  0
LINE
  5
23F
100
AcDbEntity
  8
0
  6
CONTINUOUS
 62
               4
100
AcDbLine
 10
-4.7783121663997008
 20
-9.249999994999996
 30
0.0
 11
-6.2216878336002992
 21
-9.249999994999996
 31
0.0
  0
LINE
  5
240
100
AcDbEntity
  8
0
  6
CENTER
 62
             200
100
AcDbLine
 10
-5.5
 20
-3.25
 30
0.0
 11
-5.5
 21
-12.75
 31
0.0
  0
LINE
  5
241
100
AcDbEntity
  8
0
  6
CONTINUOUS
 62
               4
100
AcDbLine
 10
-4.7783121663997008
 20
-9.249999994999996
 30
0.0
 11
-4.0566243327994016
 21
-8.0
 31
0.0
  0
LINE
  5
242
100
AcDbEntity
  8
0
  6
CONTINUOUS
 62
               4
100
AcDbLine
 10
-4.7783121663997008
 20
-6.750000005000004
 30
0.0
 11
-4.0566243327994016
 21
-8.0
 31
0.0
  0
CIRCLE
  5
243
100
AcDbEntity
  8
0
  6
CONTINUOUS
 62
               4
100
AcDbCircle
 10
-5.5
 20
-8.0
 30
0.0
 40
3.2499999999999996
  0
CIRCLE
  5
244
100
AcDbEntity
  8
0
  6
CONTINUOUS
 62
               4
100
AcDbCircle
 10
-5.5
 20
-8.0
 30
0.0
 40
2.7499999999999996
  0
LINE
  5
245
100
AcDbEntity
  8
0
  6
CONTINUOUS
 62
               4
100
AcDbLine
 10
-21.5
 20
-12.5
 30
0.0
 11
-1.5
 21
-12.5
 31
0.0
  0
LINE
  5
246
100
AcDbEntity
  8
0
  6
CONTINUOUS
 62
               4
100
AcDbLine
 10
-18.886751345948142
 20
-5.0
 30
0.0
 11
-21.773502691896283
 21
0.0
 31
0.0
  0
LINE
  5
247
100
AcDbEntity
  8
0
  6
CONTINUOUS
 62
               4
100
AcDbLine
 10
-13.113248654051858
 20
-5.0
 30
0.0
 11
-10.226497308103717
 21
0.0
 31
0.0
  0
LINE
  5
248
100
AcDbEntity
  8
0
  6
CONTINUOUS
 62
               4
100
AcDbLine
 10
-13.113248654051858
 20
-5.0
 30
0.0
 11
-18.886751345948142
 21
-5.0
 31
0.0
  0
LINE
  5
249
100
AcDbEntity
  8
0
  6
CONTINUOUS
 62
               4
100
AcDbLine
 10
-13.113248654051858
 20
5.0
 30
0.0
 11
-10.226497308103717
 21
0.0
 31
0.0
  0
LINE
  5
24A
100
AcDbEntity
  8
0
  6
CONTINUOUS
 62
               4
100
AcDbLine
 10
-13.113248654051858
 20
5.0
 30
0.0
 11
-18.886751345948142
 21
5.0
 31
0.0
  0
LINE
  5
24B
100
AcDbEntity
  8
0
  6
CONTINUOUS
 62
               4
100
AcDbLine
 10
-18.886751345948142
 20
5.0
 30
0.0
 11
-21.773502691896283
 21
0.0
 31
0.0
  0
LINE
  5
24C
100
AcDbEntity
  8
0
  6
CONTINUOUS
 62
               4
100
AcDbLine
 10
-4.7783121663997008
 20
6.7500000050000182
 30
0.0
 11
-6.2216878336002992
 21
6.7500000050000182
 31
0.0
  0
LINE
  5
24D
100
AcDbEntity
  8
0
  6
CONTINUOUS
 62
               4
100
AcDbLine
 10
-4.7783121663997008
 20
9.249999994999996
 30
0.0
 11
-4.0566243327994016
 21
8.0
 31
0.0
  0
LINE
  5
24E
100
AcDbEntity
  8
0
  6
CONTINUOUS
 62
               4
100
AcDbLine
 10
-4.7783121663997008
 20
9.249999994999996
 30
0.0
 11
-6.2216878336002992
 21
9.249999994999996
 31
0.0
  0
LINE
  5
24F
100
AcDbEntity
  8
0
  6
CONTINUOUS
 62
               4
100
AcDbLine
 10
-6.2216878336002992
 20
9.249999994999996
 30
0.0
 11
-6.9433756672005984
 21
8.0
 31
0.0
  0
LINE
  5
250
100
AcDbEntity
  8
0
  6
CONTINUOUS
 62
               4
100
AcDbLine
 10
-4.7783121663997008
 20
6.7500000050000182
 30
0.0
 11
-4.0566243327994016
 21
8.0
 31
0.0
  0
LINE
  5
251
100
AcDbEntity
  8
0
  6
CONTINUOUS
 62
               4
100
AcDbLine
 10
-6.2216878336002992
 20
6.7500000050000182
 30
0.0
 11
-6.9433756672005984
 21
8.0
 31
0.0
  0
CIRCLE
  5
252
100
AcDbEntity
  8
0
  6
CONTINUOUS
 62
               4
100
AcDbCircle
 10
-16.0
 20
0.0
 30
0.0
 40
4.9999999999999991
  0
CIRCLE
  5
253
100
AcDbEntity
  8
0
  6
CONTINUOUS
 62
               4
100
AcDbCircle
 10
-16.0
 20
0.0
 30
0.0
 40
3.9999999999999996
  0
CIRCLE
  5
254
100
AcDbEntity
  8
0
  6
CONTINUOUS
 62
               4
100
AcDbCircle
 10
-16.0
 20
0.0
 30
0.0
 40
3.5
  0
LINE
  5
255
100
AcDbEntity
  8
0
  6
CENTER
 62
             200
100
AcDbLine
 10
-16.0
 20
7.25
 30
0.0
 11
-16.0
 21
-7.25
 31
0.0
  0
LINE
  5
256
100
AcDbEntity
  8
0
  6
CENTER
 62
             200
100
AcDbLine
 10
-5.5
 20
3.25
 30
0.0
 11
-5.5
 21
12.75
 31
0.0
  0
CIRCLE
  5
257
100
AcDbEntity
  8
0
  6
CONTINUOUS
 62
               4
100
AcDbCircle
 10
-5.5
 20
8.0
 30
0.0
 40
3.2499999999999996
  0
CIRCLE
  5
258
100
AcDbEntity
  8
0
  6
CONTINUOUS
 62
               4
100
AcDbCircle
 10
-5.5
 20
8.0
 30
0.0
 40
2.7499999999999996
  0
LINE
  5
259
100
AcDbEntity
  8
0
  6
CONTINUOUS
 62
               7
100
AcDbLine
 10
-1.5
 20
-12.5
 30
0.0
 11
-1.5
 21
12.5
 31
0.0
  0
LINE
  5
25A
100
AcDbEntity
  8
0
  6
CONTINUOUS
 62
               4
100
AcDbLine
 10
-22.500000019773552
 20
12.5
 30
0.0
 11
-1.5
 21
12.5
 31
0.0
  0
LINE
  5
25B
100
AcDbEntity
  8
0
  6
CONTINUOUS
 62
               4
100
AcDbLine
 10
-24.500000000000227
 20
-22.5
 30
0.0
 11
-24.500000000000227
 21
-28.999999999999993
 31
0.0
  0
LINE
  5
25C
100
AcDbEntity
  8
0
  6
CONTINUOUS
 62
               4
100
AcDbLine
 10
-28.500000000000227
 20
-22.5
 30
0.0
 11
-28.500000000000227
 21
-28.999999999999993
 31
0.0
  0
LINE
  5
25D
100
AcDbEntity
  8
0
  6
CONTINUOUS
 62
               4
100
AcDbLine
 10
-33.5
 20
-22.5
 30
0.0
 11
-33.5
 21
-11.08957608320074
 31
0.0
  0
LINE
  5
25E
100
AcDbEntity
  8
0
  6
CONTINUOUS
 62
               4
100
AcDbLine
 10
-33.5
 20
-11.08957608320074
 30
0.0
 11
-22.500000019773552
 21
12.500000000000014
 31
0.0
  0
LINE
  5
25F
100
AcDbEntity
  8
0
  6
CONTINUOUS
 62
               4
100
AcDbLine
 10
-33.5
 20
-22.5
 30
0.0
 11
-22.0
 21
-22.5
 31
0.0
  0
LINE
  5
260
100
AcDbEntity
  8
0
  6
CONTINUOUS
 62
               4
100
AcDbLine
 10
-20.0
 20
-28.999999999999993
 30
0.0
 11
-28.500000000000227
 21
-28.999999999999993
 31
0.0
  0
LINE
  5
261
100
AcDbEntity
  8
0
  6
CENTER
 62
             200
100
AcDbLine
 10
-19.500000000000227
 20
-25.5
 30
0.0
 11
-30.000000000000227
 21
-25.5
 31
0.0
  0
LINE
  5
262
100
AcDbEntity
  8
0
  6
CONTINUOUS
 62
               4
100
AcDbLine
 10
-21.5
 20
12.5
 30
0.0
 11
-21.5
 21
0.4737205583711983
 31
0.0
  0
LINE
  5
263
100
AcDbEntity
  8
0
  6
CONTINUOUS
 62
               7
100
AcDbLine
 10
-20.500000000000227
 20
-14.0
 30
0.0
 11
-13.590169943749515
 21
-14.0
 31
0.0
  0
LINE
  5
264
100
AcDbEntity
  8
0
  6
CENTER
 62
               2
100
AcDbLine
 10
-0.5
 20
19.0
 30
0.0
 11
-22.5
 21
19.0
 31
0.0
  0
ENDBLK
  5
265
100
AcDbEntity
  8
0
100
AcDbBlockEnd
  0
BLOCK
  5
266
100
AcDbEntity
  8
0
100
AcDbBlockBegin
  2
ZS10SS-6
 70
               0
 10
0.0
 20
0.0
 30
0.0
  3
ZS10SS-6
  1

  0
LINE
  5
267
100
AcDbEntity
  8
0
  6
PHANTOM
 62
               3
100
AcDbLine
 10
112.50000001680641
 20
156.8801246646577
 30
0.0
 11
112.50000001680641
 21
28.824611037524818
 31
0.0
  0
LINE
  5
268
100
AcDbEntity
  8
0
  6
PHANTOM
 62
               3
100
AcDbLine
 10
112.50000001680641
 20
28.824611037524804
 30
0.0
 11
112.50000001680641
 21
-38.175388962475196
 31
0.0
  0
LINE
  5
269
100
AcDbEntity
  8
0
  6
CONTINUOUS
 62
               4
100
AcDbLine
 10
141.20000001680643
 20
12.599999999999991
 30
0.0
 11
140.00000001680638
 21
12.599999999999991
 31
0.0
  0
LINE
  5
26A
100
AcDbEntity
  8
0
  6
CONTINUOUS
 62
               4
100
AcDbLine
 10
141.80000001680656
 20
11.999999999999993
 30
0.0
 11
141.20000001680643
 21
12.599999999999991
 31
0.0
  0
LINE
  5
26B
100
AcDbEntity
  8
0
  6
CONTINUOUS
 62
               4
100
AcDbLine
 10
141.80000001680656
 20
13.5
 30
0.0
 11
141.80000001680656
 21
11.999999999999993
 31
0.0
  0
LINE
  5
26C
100
AcDbEntity
  8
0
  6
CONTINUOUS
 62
               4
100
AcDbLine
 10
141.20000001680643
 20
13.5
 30
0.0
 11
141.20000001680643
 21
12.599999999999991
 31
0.0
  0
LINE
  5
26D
100
AcDbEntity
  8
0
  6
CONTINUOUS
 62
             200
100
AcDbLine
 10
146.00000001680638
 20
12.399999999999991
 30
0.0
 11
141.40000001680647
 21
12.399999999999991
 31
0.0
  0
LINE
  5
26E
100
AcDbEntity
  8
0
  6
CONTINUOUS
 62
               4
100
AcDbLine
 10
146.00000001680638
 20
11.999999999999996
 30
0.0
 11
141.80000001680656
 21
11.999999999999996
 31
0.0
  0
LINE
  5
26F
100
AcDbEntity
  8
0
  6
CONTINUOUS
 62
               4
100
AcDbLine
 10
140.00000001680638
 20
33.499999999999993
 30
0.0
 11
140.00000001680638
 21
12.599999999999991
 31
0.0
  0
LINE
  5
270
100
AcDbEntity
  8
0
  6
CONTINUOUS
 62
               4
100
AcDbLine
 10
139.00000001680638
 20
30.899999999999999
 30
0.0
 11
139.00000001680638
 21
24.099999999999987
 31
0.0
  0
LINE
  5
271
100
AcDbEntity
  8
0
  6
CONTINUOUS
 62
               4
100
AcDbLine
 10
134.00000001680661
 20
28.749999999999993
 30
0.0
 11
139.00000001680638
 21
28.749999999999993
 31
0.0
  0
LINE
  5
272
100
AcDbEntity
  8
0
  6
CONTINUOUS
 62
               4
100
AcDbLine
 10
134.00000001680661
 20
26.249999999999993
 30
0.0
 11
139.00000001680638
 21
26.249999999999993
 31
0.0
  0
LINE
  5
273
100
AcDbEntity
  8
0
  6
CONTINUOUS
 62
               4
100
AcDbLine
 10
134.00000001680661
 20
28.749999999999993
 30
0.0
 11
134.00000001680661
 21
26.249999999999993
 31
0.0
  0
LINE
  5
274
100
AcDbEntity
  8
0
  6
CONTINUOUS
 62
               4
100
AcDbLine
 10
140.00000001680638
 20
24.099999999999987
 30
0.0
 11
139.00000001680638
 21
24.099999999999987
 31
0.0
  0
LINE
  5
275
100
AcDbEntity
  8
0
  6
CONTINUOUS
 62
               4
100
AcDbLine
 10
140.00000001680638
 20
30.899999999999999
 30
0.0
 11
139.00000001680638
 21
30.899999999999999
 31
0.0
  0
LINE
  5
276
100
AcDbEntity
  8
0
  6
CONTINUOUS
 62
               4
100
AcDbLine
 10
165.00000001680638
 20
30.399999999999999
 30
0.0
 11
165.00000001680638
 21
24.599999999999987
 31
0.0
  0
LINE
  5
277
100
AcDbEntity
  8
0
  6
CONTINUOUS
 62
               4
100
AcDbLine
 10
164.50000001680638
 20
30.899999999999999
 30
0.0
 11
164.50000001680638
 21
29.804343724360571
 31
0.0
  0
LINE
  5
278
100
AcDbEntity
  8
0
  6
CONTINUOUS
 62
               4
100
AcDbLine
 10
159.00000001680638
 20
30.899999999999999
 30
0.0
 11
159.00000001680638
 21
24.099999999999987
 31
0.0
  0
LINE
  5
279
100
AcDbEntity
  8
0
  6
CONTINUOUS
 62
               4
100
AcDbLine
 10
159.00000001680638
 20
30.899999999999999
 30
0.0
 11
164.50000001680638
 21
30.899999999999999
 31
0.0
  0
LINE
  5
27A
100
AcDbEntity
  8
0
  6
CONTINUOUS
 62
               4
100
AcDbLine
 10
158.40000001680647
 20
31.499999999999996
 30
0.0
 11
158.40000001680647
 21
23.499999999999989
 31
0.0
  0
LINE
  5
27B
100
AcDbEntity
  8
0
  6
CONTINUOUS
 62
               4
100
AcDbLine
 10
158.40000001680647
 20
31.499999999999996
 30
0.0
 11
159.00000001680638
 21
30.899999999999999
 31
0.0
  0
LINE
  5
27C
100
AcDbEntity
  8
0
  6
CONTINUOUS
 62
               4
100
AcDbLine
 10
158.40000001680647
 20
23.499999999999989
 30
0.0
 11
159.00000001680638
 21
24.099999999999987
 31
0.0
  0
LINE
  5
27D
100
AcDbEntity
  8
0
  6
CONTINUOUS
 62
               4
100
AcDbLine
 10
165.00000001680638
 20
30.399999999999999
 30
0.0
 11
164.50000001680638
 21
30.899999999999999
 31
0.0
  0
LINE
  5
27E
100
AcDbEntity
  8
0
  6
CONTINUOUS
 62
               4
100
AcDbLine
 10
159.00000001680638
 20
24.099999999999987
 30
0.0
 11
164.50000001680638
 21
24.099999999999987
 31
0.0
  0
LINE
  5
27F
100
AcDbEntity
  8
0
  6
CONTINUOUS
 62
               4
100
AcDbLine
 10
165.00000001680638
 20
24.599999999999987
 30
0.0
 11
164.50000001680638
 21
24.099999999999987
 31
0.0
  0
LINE
  5
280
100
AcDbEntity
  8
0
  6
CONTINUOUS
 62
               4
100
AcDbLine
 10
162.00000001680638
 20
29.804343724360571
 30
0.0
 11
162.00000001680638
 21
25.195656275639415
 31
0.0
  0
LINE
  5
281
100
AcDbEntity
  8
0
  6
CONTINUOUS
 62
               4
100
AcDbLine
 10
164.50000001680638
 20
29.804343724360571
 30
0.0
 11
162.00000001680638
 21
29.804343724360571
 31
0.0
  0
LINE
  5
282
100
AcDbEntity
  8
0
  6
CONTINUOUS
 62
               4
100
AcDbLine
 10
164.50000001680638
 20
24.099999999999987
 30
0.0
 11
164.50000001680638
 21
25.195656275639415
 31
0.0
  0
LINE
  5
283
100
AcDbEntity
  8
0
  6
CONTINUOUS
 62
               4
100
AcDbLine
 10
164.50000001680638
 20
25.195656275639415
 30
0.0
 11
162.00000001680638
 21
25.195656275639415
 31
0.0
  0
ARC
  5
284
100
AcDbEntity
  8
0
  6
CONTINUOUS
 62
               4
100
AcDbCircle
 10
159.44000001680666
 20
27.499999999999993
 30
0.0
 40
5.5599999999999197
100
AcDbArc
 50
335.51529533404675
 51
24.484704665952457
  0
LINE
  5
285
100
AcDbEntity
  8
0
  6
CONTINUOUS
 62
             200
100
AcDbLine
 10
162.00000001680638
 20
29.804343724360571
 30
0.0
 11
164.69056482670209
 21
25.671019634581661
 31
0.0
  0
LINE
  5
286
100
AcDbEntity
  8
0
  6
CONTINUOUS
 62
             200
100
AcDbLine
 10
162.00000001680638
 20
25.195656275639415
 30
0.0
 11
164.69056482670209
 21
29.328980365418325
 31
0.0
  0
LINE
  5
287
100
AcDbEntity
  8
0
  6
CONTINUOUS
 62
             200
100
AcDbLine
 10
163.00000001680638
 20
13.695656275639418
 30
0.0
 11
165.69056482670209
 21
17.828980365418328
 31
0.0
  0
LINE
  5
288
100
AcDbEntity
  8
0
  6
CONTINUOUS
 62
             200
100
AcDbLine
 10
163.00000001680638
 20
18.304343724360574
 30
0.0
 11
165.69056482670209
 21
14.171019634581665
 31
0.0
  0
ARC
  5
289
100
AcDbEntity
  8
0
  6
CONTINUOUS
 62
               4
100
AcDbCircle
 10
160.44000001680666
 20
15.999999999999996
 30
0.0
 40
5.5599999999999197
100
AcDbArc
 50
335.51529533404675
 51
24.484704665952457
  0
LINE
  5
28A
100
AcDbEntity
  8
0
  6
CONTINUOUS
 62
               4
100
AcDbLine
 10
165.50000001680638
 20
13.695656275639418
 30
0.0
 11
163.00000001680638
 21
13.695656275639418
 31
0.0
  0
LINE
  5
28B
100
AcDbEntity
  8
0
  6
CONTINUOUS
 62
               4
100
AcDbLine
 10
165.50000001680638
 20
12.599999999999991
 30
0.0
 11
165.50000001680638
 21
13.695656275639418
 31
0.0
  0
LINE
  5
28C
100
AcDbEntity
  8
0
  6
CONTINUOUS
 62
               4
100
AcDbLine
 10
165.50000001680638
 20
18.304343724360574
 30
0.0
 11
163.00000001680638
 21
18.304343724360574
 31
0.0
  0
LINE
  5
28D
100
AcDbEntity
  8
0
  6
CONTINUOUS
 62
               4
100
AcDbLine
 10
163.00000001680638
 20
18.304343724360574
 30
0.0
 11
163.00000001680638
 21
13.695656275639418
 31
0.0
  0
LINE
  5
28E
100
AcDbEntity
  8
0
  6
CONTINUOUS
 62
               4
100
AcDbLine
 10
166.00000001680638
 20
13.099999999999991
 30
0.0
 11
165.50000001680638
 21
12.599999999999991
 31
0.0
  0
LINE
  5
28F
100
AcDbEntity
  8
0
  6
CONTINUOUS
 62
               4
100
AcDbLine
 10
160.00000001680638
 20
12.599999999999991
 30
0.0
 11
165.50000001680638
 21
12.599999999999991
 31
0.0
  0
LINE
  5
290
100
AcDbEntity
  8
0
  6
CONTINUOUS
 62
               4
100
AcDbLine
 10
166.00000001680638
 20
18.900000000000002
 30
0.0
 11
165.50000001680638
 21
19.400000000000002
 31
0.0
  0
LINE
  5
291
100
AcDbEntity
  8
0
  6
CONTINUOUS
 62
               4
100
AcDbLine
 10
159.40000001680647
 20
11.999999999999993
 30
0.0
 11
160.00000001680638
 21
12.599999999999991
 31
0.0
  0
LINE
  5
292
100
AcDbEntity
  8
0
  6
CONTINUOUS
 62
               4
100
AcDbLine
 10
159.40000001680647
 20
20.0
 30
0.0
 11
160.00000001680638
 21
19.400000000000002
 31
0.0
  0
LINE
  5
293
100
AcDbEntity
  8
0
  6
CONTINUOUS
 62
               4
100
AcDbLine
 10
159.40000001680647
 20
20.0
 30
0.0
 11
159.40000001680647
 21
11.999999999999993
 31
0.0
  0
LINE
  5
294
100
AcDbEntity
  8
0
  6
CONTINUOUS
 62
               4
100
AcDbLine
 10
160.00000001680638
 20
19.400000000000002
 30
0.0
 11
165.50000001680638
 21
19.400000000000002
 31
0.0
  0
LINE
  5
295
100
AcDbEntity
  8
0
  6
CONTINUOUS
 62
               4
100
AcDbLine
 10
160.00000001680638
 20
19.400000000000002
 30
0.0
 11
160.00000001680638
 21
12.599999999999991
 31
0.0
  0
LINE
  5
296
100
AcDbEntity
  8
0
  6
CONTINUOUS
 62
               4
100
AcDbLine
 10
165.50000001680638
 20
19.400000000000002
 30
0.0
 11
165.50000001680638
 21
18.304343724360574
 31
0.0
  0
LINE
  5
297
100
AcDbEntity
  8
0
  6
CONTINUOUS
 62
               4
100
AcDbLine
 10
166.00000001680638
 20
18.900000000000002
 30
0.0
 11
166.00000001680638
 21
13.099999999999991
 31
0.0
  0
LINE
  5
298
100
AcDbEntity
  8
0
  6
CONTINUOUS
 62
               4
100
AcDbLine
 10
154.00000001680638
 20
11.999999999999993
 30
0.0
 11
159.40000001680647
 21
11.999999999999993
 31
0.0
  0
LINE
  5
299
100
AcDbEntity
  8
0
  6
CONTINUOUS
 62
             200
100
AcDbLine
 10
154.00000001680638
 20
12.399999999999995
 30
0.0
 11
159.80000001680656
 21
12.399999999999995
 31
0.0
  0
LINE
  5
29A
100
AcDbEntity
  8
0
  6
CONTINUOUS
 62
               4
100
AcDbLine
 10
154.00000001680638
 20
20.0
 30
0.0
 11
159.40000001680647
 21
20.0
 31
0.0
  0
LINE
  5
29B
100
AcDbEntity
  8
0
  6
CONTINUOUS
 62
             200
100
AcDbLine
 10
154.00000001680638
 20
19.599999999999998
 30
0.0
 11
159.80000001680656
 21
19.599999999999998
 31
0.0
  0
LINE
  5
29C
100
AcDbEntity
  8
0
  6
CONTINUOUS
 62
               4
100
AcDbLine
 10
147.00000001680638
 20
23.499999999999989
 30
0.0
 11
158.40000001680647
 21
23.499999999999989
 31
0.0
  0
LINE
  5
29D
100
AcDbEntity
  8
0
  6
CONTINUOUS
 62
             200
100
AcDbLine
 10
147.00000001680638
 20
23.899999999999991
 30
0.0
 11
158.80000001680656
 21
23.899999999999991
 31
0.0
  0
LINE
  5
29E
100
AcDbEntity
  8
0
  6
CONTINUOUS
 62
               4
100
AcDbLine
 10
147.00000001680638
 20
31.499999999999996
 30
0.0
 11
158.40000001680647
 21
31.499999999999996
 31
0.0
  0
LINE
  5
29F
100
AcDbEntity
  8
0
  6
CONTINUOUS
 62
             200
100
AcDbLine
 10
147.00000001680638
 20
31.099999999999994
 30
0.0
 11
158.80000001680656
 21
31.099999999999994
 31
0.0
  0
LINE
  5
2A0
100
AcDbEntity
  8
0
  6
CENTER
 62
             200
100
AcDbLine
 10
132.50000001680638
 20
27.499999999999993
 30
0.0
 11
166.50000001680638
 21
27.499999999999993
 31
0.0
  0
LINE
  5
2A1
100
AcDbEntity
  8
0
  6
CENTER
 62
             200
100
AcDbLine
 10
138.44000001680644
 20
15.999999999999996
 30
0.0
 11
167.50000001680638
 21
15.999999999999996
 31
0.0
  0
LINE
  5
2A2
100
AcDbEntity
  8
0
  6
CONTINUOUS
 62
               7
100
AcDbLine
 10
59.000000016806553
 20
22.0
 30
0.0
 11
137.00000001680638
 21
22.0
 31
0.0
  0
LINE
  5
2A3
100
AcDbEntity
  8
0
  6
CONTINUOUS
 62
               7
100
AcDbLine
 10
59.000000016806553
 20
21.499999999999996
 30
0.0
 11
137.00000001680638
 21
21.499999999999996
 31
0.0
  0
LINE
  5
2A4
100
AcDbEntity
  8
0
  6
CONTINUOUS
 62
               4
100
AcDbLine
 10
52.000000016806496
 20
30.500000000000007
 30
0.0
 11
59.000000016806553
 21
30.500000000000007
 31
0.0
  0
LINE
  5
2A5
100
AcDbEntity
  8
0
  6
CONTINUOUS
 62
               4
100
AcDbLine
 10
52.000000016806496
 20
28.500000000000004
 30
0.0
 11
59.000000016806553
 21
28.500000000000004
 31
0.0
  0
LINE
  5
2A6
100
AcDbEntity
  8
0
  6
CONTINUOUS
 62
               4
100
AcDbLine
 10
52.000000016806496
 20
24.500000000000007
 30
0.0
 11
59.000000016806553
 21
24.500000000000007
 31
0.0
  0
LINE
  5
2A7
100
AcDbEntity
  8
0
  6
CENTER
 62
             200
100
AcDbLine
 10
55.500000016806553
 20
32.0
 30
0.0
 11
55.500000016806553
 21
18.000000000000004
 31
0.0
  0
LINE
  5
2A8
100
AcDbEntity
  8
0
  6
CONTINUOUS
 62
               4
100
AcDbLine
 10
146.00000001680638
 20
21.499999999999996
 30
0.0
 11
146.00000001680638
 21
11.999999999999996
 31
0.0
  0
LINE
  5
2A9
100
AcDbEntity
  8
0
  6
CONTINUOUS
 62
               4
100
AcDbLine
 10
152.00000001680661
 20
21.499999999999996
 30
0.0
 11
152.00000001680661
 21
1.4999999999999929
 31
0.0
  0
LINE
  5
2AA
100
AcDbEntity
  8
0
  6
CONTINUOUS
 62
               4
100
AcDbLine
 10
152.00000001680661
 20
20.999999999999996
 30
0.0
 11
152.44658200419173
 21
21.773502691896269
 31
0.0
  0
ARC
  5
2AB
100
AcDbEntity
  8
0
  6
CONTINUOUS
 62
               4
100
AcDbCircle
 10
154.55582276522961
 20
20.330127018922195
 30
0.0
 40
2.5558227484231528
100
AcDbArc
 50
145.61575253195758
 51
214.38424746804159
  0
ARC
  5
2AC
100
AcDbEntity
  8
0
  6
CONTINUOUS
 62
               4
100
AcDbCircle
 10
151.44417726838338
 20
20.330127018922195
 30
0.0
 40
2.5558227484231528
100
AcDbArc
 50
325.61575253195798
 51
34.384247468042005
  0
LINE
  5
2AD
100
AcDbEntity
  8
0
  6
CONTINUOUS
 62
               4
100
AcDbLine
 10
154.00000001680638
 20
20.999999999999996
 30
0.0
 11
153.55341802942127
 21
21.773502691896269
 31
0.0
  0
LINE
  5
2AE
100
AcDbEntity
  8
0
  6
CONTINUOUS
 62
               4
100
AcDbLine
 10
152.4465820193289
 20
21.773502691896269
 30
0.0
 11
153.55341804027563
 21
21.773502691896269
 31
0.0
  0
LINE
  5
2AF
100
AcDbEntity
  8
0
  6
CONTINUOUS
 62
               4
100
AcDbLine
 10
145.4465820193289
 20
21.726497308103731
 30
0.0
 11
146.5534180402754
 21
21.726497308103731
 31
0.0
  0
LINE
  5
2B0
100
AcDbEntity
  8
0
  6
CONTINUOUS
 62
               4
100
AcDbLine
 10
145.00000001680638
 20
22.5
 30
0.0
 11
145.44658200419173
 21
21.726497308103731
 31
0.0
  0
LINE
  5
2B1
100
AcDbEntity
  8
0
  6
CONTINUOUS
 62
               4
100
AcDbLine
 10
147.00000001680638
 20
22.5
 30
0.0
 11
146.55341802942127
 21
21.726497308103731
 31
0.0
  0
LINE
  5
2B2
100
AcDbEntity
  8
0
  6
CONTINUOUS
 62
               4
100
AcDbLine
 10
152.00000001680661
 20
21.499999999999996
 30
0.0
 11
146.00000001680638
 21
21.499999999999996
 31
0.0
  0
LINE
  5
2B3
100
AcDbEntity
  8
0
  6
CONTINUOUS
 62
               4
100
AcDbLine
 10
154.00000001680638
 20
20.999999999999996
 30
0.0
 11
154.00000001680638
 21
11.0
 31
0.0
  0
LINE
  5
2B4
100
AcDbEntity
  8
0
  6
CONTINUOUS
 62
               4
100
AcDbLine
 10
152.4465820193289
 20
18.88675134594812
 30
0.0
 11
153.55341802942127
 21
18.88675134594812
 31
0.0
  0
LINE
  5
2B5
100
AcDbEntity
  8
0
  6
CONTINUOUS
 62
               4
100
AcDbLine
 10
154.00000001680638
 20
11.0
 30
0.0
 11
153.55341802942127
 21
10.226497308103731
 31
0.0
  0
LINE
  5
2B6
100
AcDbEntity
  8
0
  6
CONTINUOUS
 62
               4
100
AcDbLine
 10
152.4465820193289
 20
10.226497308103731
 30
0.0
 11
153.55341804027563
 21
10.226497308103731
 31
0.0
  0
ARC
  5
2B7
100
AcDbEntity
  8
0
  6
CONTINUOUS
 62
               4
100
AcDbCircle
 10
144.44658200419173
 20
15.999999999999996
 30
0.0
 40
9.5534180126147081
100
AcDbArc
 50
342.41204622600611
 51
17.587953773993881
  0
ARC
  5
2B8
100
AcDbEntity
  8
0
  6
CONTINUOUS
 62
               4
100
AcDbCircle
 10
151.44417726838338
 20
11.669872981077802
 30
0.0
 40
2.5558227484231528
100
AcDbArc
 50
325.61575253195718
 51
34.384247468042005
  0
LINE
  5
2B9
100
AcDbEntity
  8
0
  6
CONTINUOUS
 62
               4
100
AcDbLine
 10
152.4465820193289
 20
13.113248654051869
 30
0.0
 11
153.55341802942127
 21
13.113248654051869
 31
0.0
  0
ARC
  5
2BA
100
AcDbEntity
  8
0
  6
CONTINUOUS
 62
               4
100
AcDbCircle
 10
161.55341802942127
 20
15.999999999999996
 30
0.0
 40
9.5534180126147081
100
AcDbArc
 50
162.41204622600571
 51
197.58795377399349
  0
ARC
  5
2BB
100
AcDbEntity
  8
0
  6
CONTINUOUS
 62
               4
100
AcDbCircle
 10
154.55582276522961
 20
11.669872981077802
 30
0.0
 40
2.5558227484231528
100
AcDbArc
 50
145.61575253195758
 51
214.38424746804159
  0
LINE
  5
2BC
100
AcDbEntity
  8
0
  6
CONTINUOUS
 62
               4
100
AcDbLine
 10
152.00000001680661
 20
11.0
 30
0.0
 11
152.44658200419173
 21
10.226497308103731
 31
0.0
  0
ARC
  5
2BD
100
AcDbEntity
  8
0
  6
CONTINUOUS
 62
               4
100
AcDbCircle
 10
144.50000001680638
 20
11.999999999999996
 30
0.0
 40
1.5
100
AcDbArc
 50
269.99999999999937
 51
0.0
  0
LINE
  5
2BE
100
AcDbEntity
  8
0
  6
CONTINUOUS
 62
               4
100
AcDbLine
 10
145.00000001680638
 20
14.749999999999996
 30
0.0
 11
146.00000001680638
 21
14.749999999999996
 31
0.0
  0
LINE
  5
2BF
100
AcDbEntity
  8
0
  6
CONTINUOUS
 62
               4
100
AcDbLine
 10
145.00000001680638
 20
20.25
 30
0.0
 11
146.00000001680638
 21
20.25
 31
0.0
  0
LINE
  5
2C0
100
AcDbEntity
  8
0
  6
CENTER
 62
             200
100
AcDbLine
 10
135.50000001680638
 20
17.499999999999996
 30
0.0
 11
147.50000001680638
 21
17.499999999999996
 31
0.0
  0
LINE
  5
2C1
100
AcDbEntity
  8
0
  6
CONTINUOUS
 62
               4
100
AcDbLine
 10
144.50000001680638
 20
10.499999999999993
 30
0.0
 11
137.00000001680638
 21
10.499999999999993
 31
0.0
  0
LINE
  5
2C2
100
AcDbEntity
  8
0
  6
CONTINUOUS
 62
               4
100
AcDbLine
 10
145.00000001680638
 20
13.5
 30
0.0
 11
138.44000001680644
 21
13.5
 31
0.0
  0
LINE
  5
2C3
100
AcDbEntity
  8
0
  6
CONTINUOUS
 62
               4
100
AcDbLine
 10
152.00000001680661
 20
1.4999999999999929
 30
0.0
 11
137.00000001680638
 21
1.4999999999999929
 31
0.0
  0
LINE
  5
2C4
100
AcDbEntity
  8
0
  6
CONTINUOUS
 62
               4
100
AcDbLine
 10
145.00000001680638
 20
21.999999999999996
 30
0.0
 11
140.00000001680638
 21
21.999999999999996
 31
0.0
  0
LINE
  5
2C5
100
AcDbEntity
  8
0
  6
CONTINUOUS
 62
               4
100
AcDbLine
 10
145.4465820193289
 20
24.613248654051866
 30
0.0
 11
146.55341802942127
 21
24.613248654051866
 31
0.0
  0
ARC
  5
2C6
100
AcDbEntity
  8
0
  6
CONTINUOUS
 62
               4
100
AcDbCircle
 10
137.44658200419173
 20
27.499999999999993
 30
0.0
 40
9.5534180126147081
100
AcDbArc
 50
342.41204622600611
 51
17.587953773993881
  0
ARC
  5
2C7
100
AcDbEntity
  8
0
  6
CONTINUOUS
 62
               4
100
AcDbCircle
 10
144.44417726838338
 20
31.830127018922191
 30
0.0
 40
2.5558227484231528
100
AcDbArc
 50
325.61575253195798
 51
34.384247468042005
  0
ARC
  5
2C8
100
AcDbEntity
  8
0
  6
CONTINUOUS
 62
               4
100
AcDbCircle
 10
154.55341802942127
 20
27.499999999999993
 30
0.0
 40
9.5534180126147081
100
AcDbArc
 50
162.41204622600571
 51
197.58795377399349
  0
ARC
  5
2C9
100
AcDbEntity
  8
0
  6
CONTINUOUS
 62
               4
100
AcDbCircle
 10
147.55582276522961
 20
31.830127018922191
 30
0.0
 40
2.5558227484231528
100
AcDbArc
 50
145.61575253195758
 51
214.38424746804159
  0
LINE
  5
2CA
100
AcDbEntity
  8
0
  6
CONTINUOUS
 62
               4
100
AcDbLine
 10
145.00000001680638
 20
32.5
 30
0.0
 11
145.44658200419173
 21
33.273502691896269
 31
0.0
  0
LINE
  5
2CB
100
AcDbEntity
  8
0
  6
CONTINUOUS
 62
               4
100
AcDbLine
 10
147.00000001680638
 20
32.5
 30
0.0
 11
146.55341802942127
 21
33.273502691896269
 31
0.0
  0
LINE
  5
2CC
100
AcDbEntity
  8
0
  6
CONTINUOUS
 62
               4
100
AcDbLine
 10
145.4465820193289
 20
30.386751345948124
 30
0.0
 11
146.55341802942127
 21
30.386751345948124
 31
0.0
  0
LINE
  5
2CD
100
AcDbEntity
  8
0
  6
CONTINUOUS
 62
               4
100
AcDbLine
 10
145.4465820193289
 20
33.273502691896269
 30
0.0
 11
146.5534180402754
 21
33.273502691896269
 31
0.0
  0
LINE
  5
2CE
100
AcDbEntity
  8
0
  6
CONTINUOUS
 62
               4
100
AcDbLine
 10
145.00000001680638
 20
33.499999999999993
 30
0.0
 11
140.00000001680638
 21
33.499999999999993
 31
0.0
  0
LINE
  5
2CF
100
AcDbEntity
  8
0
  6
CONTINUOUS
 62
               4
100
AcDbLine
 10
147.00000001680638
 20
32.5
 30
0.0
 11
147.00000001680638
 21
22.5
 31
0.0
  0
ARC
  5
2D0
100
AcDbEntity
  8
0
  6
CONTINUOUS
 62
               4
100
AcDbCircle
 10
147.55582276522961
 20
23.169872981077798
 30
0.0
 40
2.5558227484231528
100
AcDbArc
 50
145.61575253195758
 51
214.38424746804159
  0
ARC
  5
2D1
100
AcDbEntity
  8
0
  6
CONTINUOUS
 62
               4
100
AcDbCircle
 10
144.44417726838338
 20
23.169872981077798
 30
0.0
 40
2.5558227484231528
100
AcDbArc
 50
325.61575253195718
 51
34.384247468042005
  0
LINE
  5
2D2
100
AcDbEntity
  8
0
  6
CONTINUOUS
 62
               4
100
AcDbLine
 10
145.00000001680638
 20
33.499999999999993
 30
0.0
 11
145.00000001680638
 21
13.5
 31
0.0
  0
LINE
  5
2D3
100
AcDbEntity
  8
0
  6
CENTER
 62
               2
100
AcDbLine
 10
11.500000016806496
 20
5.0
 30
0.0
 11
6.5000000168065526
 21
5.0
 31
0.0
  0
LINE
  5
2D4
100
AcDbEntity
  8
0
  6
CONTINUOUS
 62
               7
100
AcDbLine
 10
10.0
 20
2.25
 30
0.0
 11
8.0000000168064958
 21
2.25
 31
0.0
  0
LINE
  5
2D5
100
AcDbEntity
  8
0
  6
CONTINUOUS
 62
               7
100
AcDbLine
 10
8.0000000168064958
 20
22.0
 30
0.0
 11
52.000000016806496
 21
22.0
 31
0.0
  0
LINE
  5
2D6
100
AcDbEntity
  8
0
  6
CONTINUOUS
 62
               7
100
AcDbLine
 10
0.0
 20
21.499999999999996
 30
0.0
 11
52.000000016806496
 21
21.499999999999996
 31
0.0
  0
LINE
  5
2D7
100
AcDbEntity
  8
0
  6
CONTINUOUS
 62
               7
100
AcDbLine
 10
10.0
 20
21.0
 30
0.0
 11
52.000000016806496
 21
21.0
 31
0.0
  0
LINE
  5
2D8
100
AcDbEntity
  8
0
  6
CONTINUOUS
 62
               7
100
AcDbLine
 10
10.0
 20
0.0
 30
0.0
 11
137.00000001680638
 21
0.0
 31
0.0
  0
LINE
  5
2D9
100
AcDbEntity
  8
0
  6
CONTINUOUS
 62
               7
100
AcDbLine
 10
10.0
 20
0.5000000000000071
 30
0.0
 11
137.00000001680638
 21
0.5000000000000071
 31
0.0
  0
LINE
  5
2DA
100
AcDbEntity
  8
0
  6
CENTER
 62
               2
100
AcDbLine
 10
-3.0
 20
8.0
 30
0.0
 11
155.00000001680638
 21
8.0
 31
0.0
  0
LINE
  5
2DB
100
AcDbEntity
  8
0
  6
CONTINUOUS
 62
               7
100
AcDbLine
 10
8.0000000168064958
 20
22.0
 30
0.0
 11
8.0000000168064958
 21
1.5000000000000071
 31
0.0
  0
LINE
  5
2DC
100
AcDbEntity
  8
0
  6
CONTINUOUS
 62
               7
100
AcDbLine
 10
10.000000016806553
 20
21.0
 30
0.0
 11
10.000000016806553
 21
0.0
 31
0.0
  0
LINE
  5
2DD
100
AcDbEntity
  8
0
  6
CONTINUOUS
 62
               7
100
AcDbLine
 10
0.0
 20
21.499999999999996
 30
0.0
 11
0.0
 21
1.5000000000000071
 31
0.0
  0
LINE
  5
2DE
100
AcDbEntity
  8
0
  6
CONTINUOUS
 62
               7
100
AcDbLine
 10
137.00000001680638
 20
22.0
 30
0.0
 11
137.00000001680638
 21
0.0
 31
0.0
  0
LINE
  5
2DF
100
AcDbEntity
  8
0
  6
CONTINUOUS
 62
               7
100
AcDbLine
 10
10.0
 20
14.000000000000004
 30
0.0
 11
8.0000000168064958
 21
14.000000000000004
 31
0.0
  0
LINE
  5
2E0
100
AcDbEntity
  8
0
  6
CONTINUOUS
 62
               7
100
AcDbLine
 10
0.0
 20
1.5000000000000071
 30
0.0
 11
8.0000000168064958
 21
1.5000000000000071
 31
0.0
  0
LINE
  5
2E1
100
AcDbEntity
  8
0
  6
CONTINUOUS
 62
               7
100
AcDbLine
 10
8.0
 20
11.500000000000007
 30
0.0
 11
9.0999999999999659
 21
11.500000000000007
 31
0.0
  0
LINE
  5
2E2
100
AcDbEntity
  8
0
  6
CONTINUOUS
 62
               7
100
AcDbLine
 10
9.0999999999999659
 20
11.500000000000007
 30
0.0
 11
9.0999999999999659
 21
4.5
 31
0.0
  0
LINE
  5
2E3
100
AcDbEntity
  8
0
  6
CONTINUOUS
 62
               7
100
AcDbLine
 10
8.0
 20
4.5
 30
0.0
 11
9.0999999999999659
 21
4.5
 31
0.0
  0
LINE
  5
2E4
100
AcDbEntity
  8
0
  6
CONTINUOUS
 62
               7
100
AcDbLine
 10
9.0999999999999659
 20
5.5
 30
0.0
 11
10.000000016806553
 21
5.5
 31
0.0
  0
LINE
  5
2E5
100
AcDbEntity
  8
0
  6
CONTINUOUS
 62
               7
100
AcDbLine
 10
9.0999999999999659
 20
10.500000000000007
 30
0.0
 11
10.000000016806553
 21
10.500000000000007
 31
0.0
  0
LINE
  5
2E6
100
AcDbEntity
  8
0
  6
CONTINUOUS
 62
               7
100
AcDbLine
 10
9.0999999999999659
 20
9.5000000000000036
 30
0.0
 11
10.000000016806553
 21
9.5000000000000036
 31
0.0
  0
LINE
  5
2E7
100
AcDbEntity
  8
0
  6
CONTINUOUS
 62
               7
100
AcDbLine
 10
9.0999999999999659
 20
6.5
 30
0.0
 11
10.000000016806553
 21
6.5
 31
0.0
  0
LINE
  5
2E8
100
AcDbEntity
  8
0
  6
CONTINUOUS
 62
               7
100
AcDbLine
 10
10.0
 20
18.0
 30
0.0
 11
137.00000001680638
 21
18.0
 31
0.0
  0
LINE
  5
2E9
100
AcDbEntity
  8
0
  6
CONTINUOUS
 62
               4
100
AcDbLine
 10
52.000000016806496
 20
30.500000000000007
 30
0.0
 11
52.000000016806496
 21
19.500000000000007
 31
0.0
  0
LINE
  5
2EA
100
AcDbEntity
  8
0
  6
CONTINUOUS
 62
               4
100
AcDbLine
 10
59.000000016806553
 20
30.500000000000007
 30
0.0
 11
59.000000016806553
 21
19.500000000000007
 31
0.0
  0
LINE
  5
2EB
100
AcDbEntity
  8
0
  6
CONTINUOUS
 62
               4
100
AcDbLine
 10
52.000000016806496
 20
19.500000000000007
 30
0.0
 11
59.000000016806553
 21
19.500000000000007
 31
0.0
  0
LINE
  5
2EC
100
AcDbEntity
  8
0
  6
CONTINUOUS
 62
               7
100
AcDbLine
 10
59.000000016806553
 20
21.0
 30
0.0
 11
137.00000001680638
 21
21.0
 31
0.0
  0
LINE
  5
2ED
100
AcDbEntity
  8
0
  6
CONTINUOUS
 62
               7
100
AcDbLine
 10
137.00000001680638
 20
20.0
 30
0.0
 11
138.44000001680644
 21
20.0
 31
0.0
  0
LINE
  5
2EE
100
AcDbEntity
  8
0
  6
CONTINUOUS
 62
               7
100
AcDbLine
 10
137.00000001680638
 20
12.0
 30
0.0
 11
138.44000001680644
 21
12.0
 31
0.0
  0
LINE
  5
2EF
100
AcDbEntity
  8
0
  6
CONTINUOUS
 62
             200
100
AcDbLine
 10
135.50000001680638
 20
16.000000000000007
 30
0.0
 11
139.94000001680644
 21
16.000000000000007
 31
0.0
  0
LINE
  5
2F0
100
AcDbEntity
  8
0
  6
CONTINUOUS
 62
               7
100
AcDbLine
 10
137.34000001680653
 20
19.999999999999989
 30
0.0
 11
137.34000001680653
 21
11.999999999999993
 31
0.0
  0
LINE
  5
2F1
100
AcDbEntity
  8
0
  6
CONTINUOUS
 62
               7
100
AcDbLine
 10
138.44000001680644
 20
19.999999999999989
 30
0.0
 11
138.44000001680644
 21
12.0
 31
0.0
  0
CIRCLE
  5
2F2
100
AcDbEntity
  8
0
  6
CONTINUOUS
 62
               2
100
AcDbCircle
 10
122.00000001680638
 20
11.0
 30
0.0
 40
2.4999999999999996
  0
CIRCLE
  5
2F3
100
AcDbEntity
  8
0
  6
CONTINUOUS
 62
               7
100
AcDbCircle
 10
122.00000001680638
 20
11.0
 30
0.0
 40
1.9999999999999998
  0
LINE
  5
2F4
100
AcDbEntity
  8
0
  6
CENTER
 62
               2
100
AcDbLine
 10
126.00000001680638
 20
11.0
 30
0.0
 11
118.00000001680655
 21
11.0
 31
0.0
  0
LINE
  5
2F5
100
AcDbEntity
  8
0
  6
CENTER
 62
               2
100
AcDbLine
 10
122.00000001680638
 20
7.0000000000000071
 30
0.0
 11
122.00000001680638
 21
15.000000000000007
 31
0.0
  0
CIRCLE
  5
2F6
100
AcDbEntity
  8
0
  6
CONTINUOUS
 62
               7
100
AcDbCircle
 10
122.00000001680638
 20
11.0
 30
0.0
 40
0.4
  0
CIRCLE
  5
2F7
100
AcDbEntity
  8
0
  6
CONTINUOUS
 62
               2
100
AcDbCircle
 10
22.000000016806496
 20
11.0
 30
0.0
 40
2.4999999999999996
  0
CIRCLE
  5
2F8
100
AcDbEntity
  8
0
  6
CONTINUOUS
 62
               7
100
AcDbCircle
 10
22.000000016806496
 20
11.0
 30
0.0
 40
1.9999999999999998
  0
CIRCLE
  5
2F9
100
AcDbEntity
  8
0
  6
CONTINUOUS
 62
               7
100
AcDbCircle
 10
22.000000016806496
 20
11.0
 30
0.0
 40
0.4
  0
LINE
  5
2FA
100
AcDbEntity
  8
0
  6
CENTER
 62
               2
100
AcDbLine
 10
22.000000016806496
 20
7.0000000000000071
 30
0.0
 11
22.000000016806496
 21
15.000000000000007
 31
0.0
  0
LINE
  5
2FB
100
AcDbEntity
  8
0
  6
CENTER
 62
               2
100
AcDbLine
 10
26.000000016806496
 20
11.0
 30
0.0
 11
18.000000016806496
 21
11.0
 31
0.0
  0
LINE
  5
2FC
100
AcDbEntity
  8
0
  6
CONTINUOUS
 62
               4
100
AcDbLine
 10
137.00000001680638
 20
21.499999999999996
 30
0.0
 11
140.00000001680638
 21
21.499999999999996
 31
0.0
  0
ENDBLK
  5
2FD
100
AcDbEntity
  8
0
100
AcDbBlockEnd
  0
BLOCK
  5
2FE
100
AcDbEntity
  8
0
100
AcDbBlockBegin
  2
ZS10SS-7
 70
               0
 10
0.0
 20
0.0
 30
0.0
  3
ZS10SS-7
  1

  0
LINE
  5
2FF
100
AcDbEntity
  8
0
  6
PHANTOM
 62
               3
100
AcDbLine
 10
112.49999999999991
 20
-51.0
 30
0.0
 11
112.49999999999991
 21
47.577086285049532
 31
0.0
  0
LINE
  5
300
100
AcDbEntity
  8
0
  6
CONTINUOUS
 62
               4
100
AcDbLine
 10
162.99999999999989
 20
2.5
 30
0.0
 11
165.99999999999989
 21
2.5
 31
0.0
  0
LINE
  5
301
100
AcDbEntity
  8
0
  6
CONTINUOUS
 62
               4
100
AcDbLine
 10
159.99999999999989
 20
3.4000000000000057
 30
0.0
 11
162.99999999999989
 21
3.4000000000000057
 31
0.0
  0
LINE
  5
302
100
AcDbEntity
  8
0
  6
CONTINUOUS
 62
               4
100
AcDbLine
 10
159.39999999999998
 20
4.0
 30
0.0
 11
159.99999999999989
 21
3.4000000000000057
 31
0.0
  0
LINE
  5
303
100
AcDbEntity
  8
0
  6
CONTINUOUS
 62
               4
100
AcDbLine
 10
162.99999999999989
 20
3.4000000000000057
 30
0.0
 11
162.99999999999989
 21
2.5
 31
0.0
  0
LINE
  5
304
100
AcDbEntity
  8
0
  6
CONTINUOUS
 62
               4
100
AcDbLine
 10
159.39999999999998
 20
-4.0
 30
0.0
 11
159.39999999999998
 21
4.0
 31
0.0
  0
LINE
  5
305
100
AcDbEntity
  8
0
  6
CONTINUOUS
 62
               4
100
AcDbLine
 10
159.99999999999989
 20
-3.4000000000000057
 30
0.0
 11
159.99999999999989
 21
3.4000000000000057
 31
0.0
  0
LINE
  5
306
100
AcDbEntity
  8
0
  6
CONTINUOUS
 62
               4
100
AcDbLine
 10
165.49999999999989
 20
-2.5
 30
0.0
 11
165.49999999999989
 21
2.5
 31
0.0
  0
LINE
  5
307
100
AcDbEntity
  8
0
  6
CONTINUOUS
 62
               4
100
AcDbLine
 10
165.99999999999989
 20
-2.5
 30
0.0
 11
165.99999999999989
 21
2.5
 31
0.0
  0
LINE
  5
308
100
AcDbEntity
  8
0
  6
CONTINUOUS
 62
               4
100
AcDbLine
 10
153.99999999999989
 20
4.0
 30
0.0
 11
159.39999999999998
 21
4.0
 31
0.0
  0
LINE
  5
309
100
AcDbEntity
  8
0
  6
CONTINUOUS
 62
             200
100
AcDbLine
 10
153.99999999999989
 20
3.5999999999999943
 30
0.0
 11
159.80000000000007
 21
3.5999999999999943
 31
0.0
  0
LINE
  5
30A
100
AcDbEntity
  8
0
  6
CONTINUOUS
 62
               4
100
AcDbLine
 10
136.99999999999989
 20
15.750000000000028
 30
0.0
 11
138.99999999999989
 21
15.750000000000028
 31
0.0
  0
LINE
  5
30B
100
AcDbEntity
  8
0
  6
CONTINUOUS
 62
               4
100
AcDbLine
 10
139.99999999999989
 20
13.599999999999994
 30
0.0
 11
138.99999999999989
 21
13.599999999999994
 31
0.0
  0
LINE
  5
30C
100
AcDbEntity
  8
0
  6
CONTINUOUS
 62
               4
100
AcDbLine
 10
136.99999999999989
 20
18.250000000000028
 30
0.0
 11
138.99999999999989
 21
18.250000000000028
 31
0.0
  0
LINE
  5
30D
100
AcDbEntity
  8
0
  6
CONTINUOUS
 62
               4
100
AcDbLine
 10
139.99999999999989
 20
20.400000000000006
 30
0.0
 11
138.99999999999989
 21
20.400000000000006
 31
0.0
  0
LINE
  5
30E
100
AcDbEntity
  8
0
  6
CONTINUOUS
 62
               4
100
AcDbLine
 10
138.99999999999989
 20
20.400000000000006
 30
0.0
 11
138.99999999999989
 21
13.599999999999994
 31
0.0
  0
LINE
  5
30F
100
AcDbEntity
  8
0
  6
CONTINUOUS
 62
               4
100
AcDbLine
 10
158.99999999999989
 20
13.599999999999994
 30
0.0
 11
161.99999999999989
 21
13.599999999999994
 31
0.0
  0
LINE
  5
310
100
AcDbEntity
  8
0
  6
CONTINUOUS
 62
               4
100
AcDbLine
 10
161.99999999999989
 20
13.599999999999994
 30
0.0
 11
161.99999999999989
 21
14.5
 31
0.0
  0
LINE
  5
311
100
AcDbEntity
  8
0
  6
CONTINUOUS
 62
               4
100
AcDbLine
 10
158.39999999999998
 20
13.0
 30
0.0
 11
158.99999999999989
 21
13.599999999999994
 31
0.0
  0
LINE
  5
312
100
AcDbEntity
  8
0
  6
CONTINUOUS
 62
               4
100
AcDbLine
 10
161.99999999999989
 20
14.5
 30
0.0
 11
164.99999999999989
 21
14.5
 31
0.0
  0
LINE
  5
313
100
AcDbEntity
  8
0
  6
CONTINUOUS
 62
               4
100
AcDbLine
 10
146.99999999999989
 20
13.0
 30
0.0
 11
158.39999999999998
 21
13.0
 31
0.0
  0
LINE
  5
314
100
AcDbEntity
  8
0
  6
CONTINUOUS
 62
             200
100
AcDbLine
 10
146.99999999999989
 20
13.400000000000006
 30
0.0
 11
158.80000000000007
 21
13.400000000000006
 31
0.0
  0
LINE
  5
315
100
AcDbEntity
  8
0
  6
CONTINUOUS
 62
               4
100
AcDbLine
 10
161.99999999999989
 20
20.400000000000006
 30
0.0
 11
161.99999999999989
 21
19.500000000000028
 31
0.0
  0
LINE
  5
316
100
AcDbEntity
  8
0
  6
CONTINUOUS
 62
               4
100
AcDbLine
 10
158.39999999999998
 20
21.000000000000028
 30
0.0
 11
158.99999999999989
 21
20.400000000000006
 31
0.0
  0
LINE
  5
317
100
AcDbEntity
  8
0
  6
CONTINUOUS
 62
               4
100
AcDbLine
 10
158.99999999999989
 20
20.400000000000006
 30
0.0
 11
161.99999999999989
 21
20.400000000000006
 31
0.0
  0
LINE
  5
318
100
AcDbEntity
  8
0
  6
CONTINUOUS
 62
               4
100
AcDbLine
 10
161.99999999999989
 20
19.500000000000028
 30
0.0
 11
164.99999999999989
 21
19.500000000000028
 31
0.0
  0
LINE
  5
319
100
AcDbEntity
  8
0
  6
CONTINUOUS
 62
               4
100
AcDbLine
 10
164.99999999999989
 20
19.500000000000028
 30
0.0
 11
164.99999999999989
 21
14.5
 31
0.0
  0
LINE
  5
31A
100
AcDbEntity
  8
0
  6
CONTINUOUS
 62
               4
100
AcDbLine
 10
164.49999999999989
 20
19.500000000000028
 30
0.0
 11
164.49999999999989
 21
14.5
 31
0.0
  0
LINE
  5
31B
100
AcDbEntity
  8
0
  6
CONTINUOUS
 62
               4
100
AcDbLine
 10
158.99999999999989
 20
20.400000000000006
 30
0.0
 11
158.99999999999989
 21
13.599999999999994
 31
0.0
  0
LINE
  5
31C
100
AcDbEntity
  8
0
  6
CONTINUOUS
 62
               4
100
AcDbLine
 10
158.39999999999998
 20
21.000000000000028
 30
0.0
 11
158.39999999999998
 21
13.0
 31
0.0
  0
LINE
  5
31D
100
AcDbEntity
  8
0
  6
CONTINUOUS
 62
               4
100
AcDbLine
 10
146.99999999999989
 20
21.000000000000028
 30
0.0
 11
158.39999999999998
 21
21.000000000000028
 31
0.0
  0
LINE
  5
31E
100
AcDbEntity
  8
0
  6
CONTINUOUS
 62
             200
100
AcDbLine
 10
146.99999999999989
 20
20.600000000000023
 30
0.0
 11
158.80000000000007
 21
20.600000000000023
 31
0.0
  0
LINE
  5
31F
100
AcDbEntity
  8
0
  6
CENTER
 62
             200
100
AcDbLine
 10
135.49999999999989
 20
8.0
 30
0.0
 11
153.49999999999989
 21
8.0
 31
0.0
  0
LINE
  5
320
100
AcDbEntity
  8
0
  6
CONTINUOUS
 62
               4
100
AcDbLine
 10
152.44658198738523
 20
0.0
 30
0.0
 11
153.55341801261477
 21
0.0
 31
0.0
  0
LINE
  5
321
100
AcDbEntity
  8
0
  6
CONTINUOUS
 62
               4
100
AcDbLine
 10
146.99999999999989
 20
12.5
 30
0.0
 11
146.99999999999989
 21
22.0
 31
0.0
  0
ARC
  5
322
100
AcDbEntity
  8
0
  6
CONTINUOUS
 62
               4
100
AcDbCircle
 10
139.77911374211578
 20
19.5
 30
0.0
 40
7.2208862578843052
100
AcDbArc
 50
339.74384199958382
 51
20.256158000416054
  0
ARC
  5
323
100
AcDbEntity
  8
0
  6
CONTINUOUS
 62
               4
100
AcDbCircle
 10
152.22088625788422
 20
19.5
 30
0.0
 40
7.2208862578843052
100
AcDbArc
 50
159.74384199958354
 51
200.25615800041575
  0
ARC
  5
324
100
AcDbEntity
  8
0
  6
CONTINUOUS
 62
               4
100
AcDbCircle
 10
139.77911374211578
 20
14.5
 30
0.0
 40
7.2208862578843052
100
AcDbArc
 50
343.92029514274685
 51
20.256158000416153
  0
ARC
  5
325
100
AcDbEntity
  8
0
  6
CONTINUOUS
 62
               4
100
AcDbCircle
 10
152.22088625788422
 20
14.5
 30
0.0
 40
7.2208862578843052
100
AcDbArc
 50
159.74384199958342
 51
196.07970485725204
  0
LINE
  5
326
100
AcDbEntity
  8
0
  6
CONTINUOUS
 62
               4
100
AcDbLine
 10
145.44658198738523
 20
17.0
 30
0.0
 11
146.55341801261477
 21
17.0
 31
0.0
  0
LINE
  5
327
100
AcDbEntity
  8
0
  6
CONTINUOUS
 62
               4
100
AcDbLine
 10
151.99999999999989
 20
5.0
 30
0.0
 11
153.99999999999989
 21
5.0
 31
0.0
  0
LINE
  5
328
100
AcDbEntity
  8
0
  6
CONTINUOUS
 62
               4
100
AcDbLine
 10
139.99999998319333
 20
22.5
 30
0.0
 11
144.99999999999989
 21
22.5
 31
0.0
  0
LINE
  5
329
100
AcDbEntity
  8
0
  6
CONTINUOUS
 62
               4
100
AcDbLine
 10
144.99999999999989
 20
22.0
 30
0.0
 11
146.99999999999989
 21
22.0
 31
0.0
  0
LINE
  5
32A
100
AcDbEntity
  8
0
  6
CONTINUOUS
 62
               4
100
AcDbLine
 10
153.99999999999989
 20
-5.0
 30
0.0
 11
153.99999999999989
 21
5.0
 31
0.0
  0
ARC
  5
32B
100
AcDbEntity
  8
0
  6
CONTINUOUS
 62
               4
100
AcDbCircle
 10
146.77911374211578
 20
2.5
 30
0.0
 40
7.2208862578843052
100
AcDbArc
 50
339.74384199958382
 51
20.256158000416054
  0
ARC
  5
32C
100
AcDbEntity
  8
0
  6
CONTINUOUS
 62
               4
100
AcDbCircle
 10
159.22088625788422
 20
2.5
 30
0.0
 40
7.2208862578843052
100
AcDbArc
 50
159.74384199958354
 51
200.25615800041575
  0
LINE
  5
32D
100
AcDbEntity
  8
0
  6
CONTINUOUS
 62
               4
100
AcDbLine
 10
151.99999999999989
 20
-12.5
 30
0.0
 11
151.99999999999989
 21
12.5
 31
0.0
  0
LINE
  5
32E
100
AcDbEntity
  8
0
  6
CENTER
 62
             200
100
AcDbLine
 10
135.49999999999989
 20
17.0
 30
0.0
 11
166.49999999999989
 21
17.0
 31
0.0
  0
LINE
  5
32F
100
AcDbEntity
  8
0
  6
CONTINUOUS
 62
               4
100
AcDbLine
 10
144.99999999999989
 20
12.5
 30
0.0
 11
144.99999999999989
 21
22.5
 31
0.0
  0
LINE
  5
330
100
AcDbEntity
  8
0
  6
CONTINUOUS
 62
               4
100
AcDbLine
 10
139.99999999999989
 20
12.5
 30
0.0
 11
139.99999999999989
 21
22.5
 31
0.0
  0
LINE
  5
331
100
AcDbEntity
  8
0
  6
CONTINUOUS
 62
               4
100
AcDbLine
 10
136.99999999999989
 20
12.5
 30
0.0
 11
151.99999999999989
 21
12.5
 31
0.0
  0
CIRCLE
  5
332
100
AcDbEntity
  8
0
  6
CONTINUOUS
 62
               7
100
AcDbCircle
 10
42.000000000000057
 20
6.0000000000000568
 30
0.0
 40
1.8999999999999999
  0
LINE
  5
333
100
AcDbEntity
  8
0
  6
CONTINUOUS
 62
               7
100
AcDbLine
 10
41.56698729810779
 20
6.7500000000000568
 30
0.0
 11
41.13397459621558
 21
6.0000000000000568
 31
0.0
  0
LINE
  5
334
100
AcDbEntity
  8
0
  6
CONTINUOUS
 62
               7
100
AcDbLine
 10
41.56698729810779
 20
5.2500000000000568
 30
0.0
 11
41.13397459621558
 21
6.0000000000000568
 31
0.0
  0
LINE
  5
335
100
AcDbEntity
  8
0
  6
CONTINUOUS
 62
               7
100
AcDbLine
 10
41.56698729810779
 20
5.2500000000000568
 30
0.0
 11
42.43301270189221
 21
5.2500000000000568
 31
0.0
  0
LINE
  5
336
100
AcDbEntity
  8
0
  6
CONTINUOUS
 62
               7
100
AcDbLine
 10
42.43301270189221
 20
5.2500000000000568
 30
0.0
 11
42.866025403784477
 21
6.0000000000000568
 31
0.0
  0
LINE
  5
337
100
AcDbEntity
  8
0
  6
CONTINUOUS
 62
               7
100
AcDbLine
 10
42.43301270189221
 20
6.7500000000000568
 30
0.0
 11
42.866025403784477
 21
6.0000000000000568
 31
0.0
  0
LINE
  5
338
100
AcDbEntity
  8
0
  6
CONTINUOUS
 62
               7
100
AcDbLine
 10
41.56698729810779
 20
6.7500000000000568
 30
0.0
 11
42.43301270189221
 21
6.7500000000000568
 31
0.0
  0
CIRCLE
  5
339
100
AcDbEntity
  8
0
  6
CONTINUOUS
 62
               7
100
AcDbCircle
 10
30.0
 20
6.0000000000000568
 30
0.0
 40
1.8999999999999999
  0
LINE
  5
33A
100
AcDbEntity
  8
0
  6
CONTINUOUS
 62
               7
100
AcDbLine
 10
29.56698729810779
 20
6.7500000000000568
 30
0.0
 11
29.133974596215523
 21
6.0000000000000568
 31
0.0
  0
LINE
  5
33B
100
AcDbEntity
  8
0
  6
CONTINUOUS
 62
               7
100
AcDbLine
 10
29.56698729810779
 20
5.2500000000000568
 30
0.0
 11
29.133974596215523
 21
6.0000000000000568
 31
0.0
  0
LINE
  5
33C
100
AcDbEntity
  8
0
  6
CONTINUOUS
 62
               7
100
AcDbLine
 10
29.56698729810779
 20
5.2500000000000568
 30
0.0
 11
30.43301270189221
 21
5.2500000000000568
 31
0.0
  0
LINE
  5
33D
100
AcDbEntity
  8
0
  6
CONTINUOUS
 62
               7
100
AcDbLine
 10
30.43301270189221
 20
5.2500000000000568
 30
0.0
 11
30.866025403784477
 21
6.0000000000000568
 31
0.0
  0
LINE
  5
33E
100
AcDbEntity
  8
0
  6
CONTINUOUS
 62
               7
100
AcDbLine
 10
30.43301270189221
 20
6.7500000000000568
 30
0.0
 11
30.866025403784477
 21
6.0000000000000568
 31
0.0
  0
LINE
  5
33F
100
AcDbEntity
  8
0
  6
CONTINUOUS
 62
               7
100
AcDbLine
 10
29.56698729810779
 20
6.7500000000000568
 30
0.0
 11
30.43301270189221
 21
6.7500000000000568
 31
0.0
  0
LINE
  5
340
100
AcDbEntity
  8
0
  6
CONTINUOUS
 62
               7
100
AcDbLine
 10
7.9999999831935042
 20
4.0
 30
0.0
 11
10.000000000000057
 21
4.0
 31
0.0
  0
LINE
  5
341
100
AcDbEntity
  8
0
  6
CONTINUOUS
 62
               7
100
AcDbLine
 10
8.0
 20
2.75
 30
0.0
 11
10.000000000000057
 21
2.75
 31
0.0
  0
ARC
  5
342
100
AcDbEntity
  8
0
  6
CONTINUOUS
 62
               7
100
AcDbCircle
 10
58.0
 20
0.0000000000000284
 30
0.0
 40
1.9999999999999998
100
AcDbArc
 50
269.99999999999937
 51
89.999999999999801
  0
LINE
  5
343
100
AcDbEntity
  8
0
  6
CENTER
 62
               2
100
AcDbLine
 10
56.0
 20
-3.5
 30
0.0
 11
56.0
 21
3.5000000000000284
 31
0.0
  0
ARC
  5
344
100
AcDbEntity
  8
0
  6
CONTINUOUS
 62
               7
100
AcDbCircle
 10
56.0
 20
0.0000000000000284
 30
0.0
 40
1.9999999999999998
100
AcDbArc
 50
89.999999999999815
 51
269.99999999999937
  0
LINE
  5
345
100
AcDbEntity
  8
0
  6
CENTER
 62
               2
100
AcDbLine
 10
58.0
 20
-3.5
 30
0.0
 11
58.0
 21
3.5000000000000284
 31
0.0
  0
LINE
  5
346
100
AcDbEntity
  8
0
  6
CENTER
 62
               2
100
AcDbLine
 10
57.0
 20
3.5000000000000284
 30
0.0
 11
57.0
 21
-3.5
 31
0.0
  0
CIRCLE
  5
347
100
AcDbEntity
  8
0
  6
CONTINUOUS
 62
               7
100
AcDbCircle
 10
17.0
 20
0.0000000000000284
 30
0.0
 40
1.9999999999999998
  0
LINE
  5
348
100
AcDbEntity
  8
0
  6
CENTER
 62
               2
100
AcDbLine
 10
17.0
 20
-3.5
 30
0.0
 11
17.0
 21
3.5000000000000284
 31
0.0
  0
LINE
  5
349
100
AcDbEntity
  8
0
  6
CENTER
 62
               2
100
AcDbLine
 10
17.0
 20
4.5000000000000284
 30
0.0
 11
17.0
 21
11.500000000000028
 31
0.0
  0
LINE
  5
34A
100
AcDbEntity
  8
0
  6
CENTER
 62
               2
100
AcDbLine
 10
13.5
 20
8.0000000000000568
 30
0.0
 11
20.5
 21
8.0000000000000568
 31
0.0
  0
LINE
  5
34B
100
AcDbEntity
  8
0
  6
CENTER
 62
               2
100
AcDbLine
 10
30.0
 20
2.0000000000000568
 30
0.0
 11
30.0
 21
10.000000000000057
 31
0.0
  0
LINE
  5
34C
100
AcDbEntity
  8
0
  6
CENTER
 62
               2
100
AcDbLine
 10
34.0
 20
6.0000000000000568
 30
0.0
 11
26.0
 21
6.0000000000000568
 31
0.0
  0
CIRCLE
  5
34D
100
AcDbEntity
  8
0
  6
CONTINUOUS
 62
               7
100
AcDbCircle
 10
30.0
 20
6.0000000000000568
 30
0.0
 40
2.4999999999999996
  0
CIRCLE
  5
34E
100
AcDbEntity
  8
0
  6
CONTINUOUS
 62
               2
100
AcDbCircle
 10
17.0
 20
8.0000000000000568
 30
0.0
 40
1.9999999999999998
  0
CIRCLE
  5
34F
100
AcDbEntity
  8
0
  6
CONTINUOUS
 62
               7
100
AcDbCircle
 10
17.0
 20
8.0000000000000568
 30
0.0
 40
1.5999999999999999
  0
LINE
  5
350
100
AcDbEntity
  8
0
  6
CENTER
 62
               2
100
AcDbLine
 10
57.0
 20
4.5000000000000284
 30
0.0
 11
57.0
 21
11.500000000000028
 31
0.0
  0
LINE
  5
351
100
AcDbEntity
  8
0
  6
CENTER
 62
               2
100
AcDbLine
 10
53.5
 20
8.0000000000000568
 30
0.0
 11
60.5
 21
8.0000000000000568
 31
0.0
  0
CIRCLE
  5
352
100
AcDbEntity
  8
0
  6
CONTINUOUS
 62
               2
100
AcDbCircle
 10
57.0
 20
8.0000000000000568
 30
0.0
 40
1.9999999999999998
  0
CIRCLE
  5
353
100
AcDbEntity
  8
0
  6
CONTINUOUS
 62
               7
100
AcDbCircle
 10
57.0
 20
8.0000000000000568
 30
0.0
 40
1.5999999999999999
  0
LINE
  5
354
100
AcDbEntity
  8
0
  6
CENTER
 62
             200
100
AcDbLine
 10
96.999999999999943
 20
4.5000000000000284
 30
0.0
 11
96.999999999999943
 21
11.500000000000028
 31
0.0
  0
LINE
  5
355
100
AcDbEntity
  8
0
  6
CENTER
 62
             200
100
AcDbLine
 10
93.499999999999943
 20
8.0000000000000568
 30
0.0
 11
100.49999999999994
 21
8.0000000000000568
 31
0.0
  0
CIRCLE
  5
356
100
AcDbEntity
  8
0
  6
CONTINUOUS
 62
             200
100
AcDbCircle
 10
96.999999999999943
 20
8.0000000000000568
 30
0.0
 40
1.9999999999999998
  0
CIRCLE
  5
357
100
AcDbEntity
  8
0
  6
CONTINUOUS
 62
               4
100
AcDbCircle
 10
96.999999999999943
 20
8.0000000000000568
 30
0.0
 40
1.5999999999999999
  0
LINE
  5
358
100
AcDbEntity
  8
0
  6
CENTER
 62
               2
100
AcDbLine
 10
42.000000000000057
 20
2.0000000000000568
 30
0.0
 11
42.000000000000057
 21
10.000000000000057
 31
0.0
  0
LINE
  5
359
100
AcDbEntity
  8
0
  6
CENTER
 62
               2
100
AcDbLine
 10
46.000000000000057
 20
6.0000000000000568
 30
0.0
 11
38.0
 21
6.0000000000000568
 31
0.0
  0
CIRCLE
  5
35A
100
AcDbEntity
  8
0
  6
CONTINUOUS
 62
               7
100
AcDbCircle
 10
42.000000000000057
 20
6.0000000000000568
 30
0.0
 40
2.4999999999999996
  0
LINE
  5
35B
100
AcDbEntity
  8
0
  6
CONTINUOUS
 62
               7
100
AcDbLine
 10
136.99999999999989
 20
13.500000000000028
 30
0.0
 11
10.000000000000057
 21
13.500000000000028
 31
0.0
  0
LINE
  5
35C
100
AcDbEntity
  8
0
  6
CONTINUOUS
 62
               7
100
AcDbLine
 10
136.99999999999989
 20
13.000000000000028
 30
0.0
 11
10.000000000000057
 21
13.000000000000028
 31
0.0
  0
LINE
  5
35D
100
AcDbEntity
  8
0
  6
CONTINUOUS
 62
               7
100
AcDbLine
 10
136.99999999999989
 20
22.500000000000028
 30
0.0
 11
10.000000000000057
 21
22.500000000000028
 31
0.0
  0
LINE
  5
35E
100
AcDbEntity
  8
0
  6
CONTINUOUS
 62
               7
100
AcDbLine
 10
136.99999999999989
 20
23.000000000000028
 30
0.0
 11
10.0
 21
23.000000000000028
 31
0.0
  0
LINE
  5
35F
100
AcDbEntity
  8
0
  6
CONTINUOUS
 62
               7
100
AcDbLine
 10
136.99999999999989
 20
29.500000000000014
 30
0.0
 11
10.000000000000057
 21
29.500000000000014
 31
0.0
  0
LINE
  5
360
100
AcDbEntity
  8
0
  6
CONTINUOUS
 62
               7
100
AcDbLine
 10
136.99999999999989
 20
29.000000000000028
 30
0.0
 11
10.000000000000057
 21
29.000000000000028
 31
0.0
  0
LINE
  5
361
100
AcDbEntity
  8
0
  6
CONTINUOUS
 62
               7
100
AcDbLine
 10
136.99999999999989
 20
2.0000000000000284
 30
0.0
 11
10.000000000000057
 21
2.0000000000000284
 31
0.0
  0
LINE
  5
362
100
AcDbEntity
  8
0
  6
CONTINUOUS
 62
               7
100
AcDbLine
 10
136.99999999999989
 20
2.5000000000000284
 30
0.0
 11
10.000000000000057
 21
2.5000000000000284
 31
0.0
  0
LINE
  5
363
100
AcDbEntity
  8
0
  6
CENTER
 62
               2
100
AcDbLine
 10
11.5
 20
19.000000000000028
 30
0.0
 11
-1.4999999999999432
 21
19.000000000000028
 31
0.0
  0
LINE
  5
364
100
AcDbEntity
  8
0
  6
CENTER
 62
               2
100
AcDbLine
 10
135.49999999999989
 20
25.0
 30
0.0
 11
139.93999999999994
 21
25.0
 31
0.0
  0
LINE
  5
365
100
AcDbEntity
  8
0
  6
CONTINUOUS
 62
               7
100
AcDbLine
 10
10.000000000000057
 20
-31.0
 30
0.0
 11
10.000000000000057
 21
31.0
 31
0.0
  0
LINE
  5
366
100
AcDbEntity
  8
0
  6
CONTINUOUS
 62
               7
100
AcDbLine
 10
7.9999999831935042
 20
12.5
 30
0.0
 11
10.000000000000057
 21
12.5
 31
0.0
  0
LINE
  5
367
100
AcDbEntity
  8
0
  6
CONTINUOUS
 62
               7
100
AcDbLine
 10
137.63999999999999
 20
24.499999999999744
 30
0.0
 11
138.43999999999994
 21
24.499999999999744
 31
0.0
  0
LINE
  5
368
100
AcDbEntity
  8
0
  6
CONTINUOUS
 62
               7
100
AcDbLine
 10
137.63999999999999
 20
25.499999999999744
 30
0.0
 11
138.43999999999994
 21
25.499999999999744
 31
0.0
  0
LINE
  5
369
100
AcDbEntity
  8
0
  6
CONTINUOUS
 62
               7
100
AcDbLine
 10
137.34000000000003
 20
21.0
 30
0.0
 11
137.34000000000003
 21
29.0
 31
0.0
  0
LINE
  5
36A
100
AcDbEntity
  8
0
  6
CONTINUOUS
 62
               7
100
AcDbLine
 10
138.43999999999994
 20
21.0
 30
0.0
 11
138.43999999999994
 21
24.499999999999744
 31
0.0
  0
LINE
  5
36B
100
AcDbEntity
  8
0
  6
CONTINUOUS
 62
               7
100
AcDbLine
 10
137.63999999999999
 20
24.499999999999744
 30
0.0
 11
137.63999999999999
 21
25.499999999999744
 31
0.0
  0
LINE
  5
36C
100
AcDbEntity
  8
0
  6
CONTINUOUS
 62
               7
100
AcDbLine
 10
138.43999999999994
 20
25.499999999999744
 30
0.0
 11
138.43999999999994
 21
29.0
 31
0.0
  0
LINE
  5
36D
100
AcDbEntity
  8
0
  6
CONTINUOUS
 62
               7
100
AcDbLine
 10
136.99999999999989
 20
29.0
 30
0.0
 11
138.43999999999994
 21
29.0
 31
0.0
  0
LINE
  5
36E
100
AcDbEntity
  8
0
  6
CONTINUOUS
 62
               7
100
AcDbLine
 10
136.99999999999989
 20
21.0
 30
0.0
 11
138.43999999999994
 21
21.0
 31
0.0
  0
LINE
  5
36F
100
AcDbEntity
  8
0
  6
CONTINUOUS
 62
               7
100
AcDbLine
 10
9.1000000000000227
 20
22.5
 30
0.0
 11
9.1000000000000227
 21
15.500000000000028
 31
0.0
  0
LINE
  5
370
100
AcDbEntity
  8
0
  6
CONTINUOUS
 62
               7
100
AcDbLine
 10
9.1000000000000227
 20
21.000000000000028
 30
0.0
 11
10.000000000000057
 21
21.000000000000028
 31
0.0
  0
LINE
  5
371
100
AcDbEntity
  8
0
  6
CONTINUOUS
 62
               7
100
AcDbLine
 10
8.0
 20
22.5
 30
0.0
 11
9.1000000000000227
 21
22.5
 31
0.0
  0
LINE
  5
372
100
AcDbEntity
  8
0
  6
CONTINUOUS
 62
               7
100
AcDbLine
 10
9.1000000000000227
 20
17.0
 30
0.0
 11
10.000000000000057
 21
17.0
 31
0.0
  0
LINE
  5
373
100
AcDbEntity
  8
0
  6
CONTINUOUS
 62
               7
100
AcDbLine
 10
8.0
 20
15.500000000000028
 30
0.0
 11
9.1000000000000227
 21
15.500000000000028
 31
0.0
  0
LINE
  5
374
100
AcDbEntity
  8
0
  6
CONTINUOUS
 62
               7
100
AcDbLine
 10
-0.0000000168064958
 20
25.0
 30
0.0
 11
8.0
 21
25.0
 31
0.0
  0
LINE
  5
375
100
AcDbEntity
  8
0
  6
CONTINUOUS
 62
               7
100
AcDbLine
 10
9.9999999831935042
 20
31.0
 30
0.0
 11
136.99999999999989
 21
31.0
 31
0.0
  0
LINE
  5
376
100
AcDbEntity
  8
0
  6
CENTER
 62
               2
100
AcDbLine
 10
-2.9999999999999432
 20
0.0
 30
0.0
 11
168.99999999999989
 21
0.0
 31
0.0
  0
LINE
  5
377
100
AcDbEntity
  8
0
  6
CONTINUOUS
 62
               7
100
AcDbLine
 10
0.0
 20
-25.0
 30
0.0
 11
0.0
 21
25.0
 31
0.0
  0
LINE
  5
378
100
AcDbEntity
  8
0
  6
CONTINUOUS
 62
               7
100
AcDbLine
 10
8.0
 20
-25.0
 30
0.0
 11
8.0
 21
25.0
 31
0.0
  0
LINE
  5
379
100
AcDbEntity
  8
0
  6
CONTINUOUS
 62
               7
100
AcDbLine
 10
136.99999999999989
 20
-31.0
 30
0.0
 11
136.99999999999989
 21
31.0
 31
0.0
  0
LINE
  5
37A
100
AcDbEntity
  8
0
  6
CONTINUOUS
 62
               7
100
AcDbLine
 10
136.99999999999989
 20
-13.500000000000028
 30
0.0
 11
10.000000000000057
 21
-13.500000000000028
 31
0.0
  0
LINE
  5
37B
100
AcDbEntity
  8
0
  6
CONTINUOUS
 62
               7
100
AcDbLine
 10
136.99999999999989
 20
-13.000000000000028
 30
0.0
 11
10.000000000000057
 21
-13.000000000000028
 31
0.0
  0
LINE
  5
37C
100
AcDbEntity
  8
0
  6
CONTINUOUS
 62
               7
100
AcDbLine
 10
136.99999999999989
 20
-22.500000000000028
 30
0.0
 11
10.000000000000057
 21
-22.500000000000028
 31
0.0
  0
LINE
  5
37D
100
AcDbEntity
  8
0
  6
CONTINUOUS
 62
               7
100
AcDbLine
 10
136.99999999999989
 20
-23.000000000000028
 30
0.0
 11
10.0
 21
-23.000000000000028
 31
0.0
  0
LINE
  5
37E
100
AcDbEntity
  8
0
  6
CONTINUOUS
 62
               7
100
AcDbLine
 10
136.99999999999989
 20
-29.500000000000014
 30
0.0
 11
10.000000000000057
 21
-29.500000000000014
 31
0.0
  0
LINE
  5
37F
100
AcDbEntity
  8
0
  6
CONTINUOUS
 62
               7
100
AcDbLine
 10
136.99999999999989
 20
-29.000000000000028
 30
0.0
 11
10.000000000000057
 21
-29.000000000000028
 31
0.0
  0
LINE
  5
380
100
AcDbEntity
  8
0
  6
CONTINUOUS
 62
               7
100
AcDbLine
 10
136.99999999999989
 20
-2.0000000000000284
 30
0.0
 11
10.000000000000057
 21
-2.0000000000000284
 31
0.0
  0
LINE
  5
381
100
AcDbEntity
  8
0
  6
CONTINUOUS
 62
               7
100
AcDbLine
 10
136.99999999999989
 20
-2.5000000000000284
 30
0.0
 11
10.000000000000057
 21
-2.5000000000000284
 31
0.0
  0
LINE
  5
382
100
AcDbEntity
  8
0
  6
CONTINUOUS
 62
               7
100
AcDbLine
 10
9.9999999831935042
 20
-31.0
 30
0.0
 11
136.99999999999989
 21
-31.0
 31
0.0
  0
LINE
  5
383
100
AcDbEntity
  8
0
  6
CONTINUOUS
 62
               7
100
AcDbLine
 10
-0.0000000168064958
 20
-25.0
 30
0.0
 11
8.0
 21
-25.0
 31
0.0
  0
LINE
  5
384
100
AcDbEntity
  8
0
  6
CONTINUOUS
 62
               7
100
AcDbLine
 10
8.0
 20
-15.500000000000028
 30
0.0
 11
9.1000000000000227
 21
-15.500000000000028
 31
0.0
  0
LINE
  5
385
100
AcDbEntity
  8
0
  6
CONTINUOUS
 62
               7
100
AcDbLine
 10
9.1000000000000227
 20
-17.0
 30
0.0
 11
10.000000000000057
 21
-17.0
 31
0.0
  0
LINE
  5
386
100
AcDbEntity
  8
0
  6
CONTINUOUS
 62
               7
100
AcDbLine
 10
8.0
 20
-22.5
 30
0.0
 11
9.1000000000000227
 21
-22.5
 31
0.0
  0
LINE
  5
387
100
AcDbEntity
  8
0
  6
CONTINUOUS
 62
               7
100
AcDbLine
 10
9.1000000000000227
 20
-21.000000000000028
 30
0.0
 11
10.000000000000057
 21
-21.000000000000028
 31
0.0
  0
LINE
  5
388
100
AcDbEntity
  8
0
  6
CONTINUOUS
 62
               7
100
AcDbLine
 10
9.1000000000000227
 20
-22.5
 30
0.0
 11
9.1000000000000227
 21
-15.500000000000028
 31
0.0
  0
LINE
  5
389
100
AcDbEntity
  8
0
  6
CONTINUOUS
 62
               7
100
AcDbLine
 10
7.9999999831935042
 20
-12.5
 30
0.0
 11
10.000000000000057
 21
-12.5
 31
0.0
  0
LINE
  5
38A
100
AcDbEntity
  8
0
  6
CENTER
 62
               2
100
AcDbLine
 10
11.5
 20
-19.000000000000028
 30
0.0
 11
-1.4999999999999432
 21
-19.000000000000028
 31
0.0
  0
LINE
  5
38B
100
AcDbEntity
  8
0
  6
CONTINUOUS
 62
               7
100
AcDbLine
 10
8.0
 20
-2.75
 30
0.0
 11
10.000000000000057
 21
-2.75
 31
0.0
  0
LINE
  5
38C
100
AcDbEntity
  8
0
  6
CONTINUOUS
 62
               7
100
AcDbLine
 10
7.9999999831935042
 20
-4.0
 30
0.0
 11
10.000000000000057
 21
-4.0
 31
0.0
  0
LINE
  5
38D
100
AcDbEntity
  8
0
  6
CENTER
 62
             200
100
AcDbLine
 10
96.999999999999943
 20
-4.5000000000000284
 30
0.0
 11
96.999999999999943
 21
-11.500000000000028
 31
0.0
  0
CIRCLE
  5
38E
100
AcDbEntity
  8
0
  6
CONTINUOUS
 62
               4
100
AcDbCircle
 10
96.999999999999943
 20
-8.0000000000000568
 30
0.0
 40
1.5999999999999999
  0
CIRCLE
  5
38F
100
AcDbEntity
  8
0
  6
CONTINUOUS
 62
             200
100
AcDbCircle
 10
96.999999999999943
 20
-8.0000000000000568
 30
0.0
 40
1.9999999999999998
  0
LINE
  5
390
100
AcDbEntity
  8
0
  6
CENTER
 62
             200
100
AcDbLine
 10
93.499999999999943
 20
-8.0000000000000568
 30
0.0
 11
100.49999999999994
 21
-8.0000000000000568
 31
0.0
  0
LINE
  5
391
100
AcDbEntity
  8
0
  6
CENTER
 62
               2
100
AcDbLine
 10
17.0
 20
-4.5000000000000284
 30
0.0
 11
17.0
 21
-11.500000000000028
 31
0.0
  0
CIRCLE
  5
392
100
AcDbEntity
  8
0
  6
CONTINUOUS
 62
               2
100
AcDbCircle
 10
17.0
 20
-8.0000000000000568
 30
0.0
 40
1.9999999999999998
  0
CIRCLE
  5
393
100
AcDbEntity
  8
0
  6
CONTINUOUS
 62
               7
100
AcDbCircle
 10
17.0
 20
-8.0000000000000568
 30
0.0
 40
1.5999999999999999
  0
LINE
  5
394
100
AcDbEntity
  8
0
  6
CENTER
 62
               2
100
AcDbLine
 10
13.5
 20
-8.0000000000000568
 30
0.0
 11
20.5
 21
-8.0000000000000568
 31
0.0
  0
CIRCLE
  5
395
100
AcDbEntity
  8
0
  6
CONTINUOUS
 62
               7
100
AcDbCircle
 10
42.000000000000057
 20
-6.0000000000000568
 30
0.0
 40
2.4999999999999996
  0
LINE
  5
396
100
AcDbEntity
  8
0
  6
CENTER
 62
               2
100
AcDbLine
 10
46.000000000000057
 20
-6.0000000000000568
 30
0.0
 11
38.0
 21
-6.0000000000000568
 31
0.0
  0
LINE
  5
397
100
AcDbEntity
  8
0
  6
CENTER
 62
               2
100
AcDbLine
 10
42.000000000000057
 20
-2.0000000000000568
 30
0.0
 11
42.000000000000057
 21
-10.000000000000057
 31
0.0
  0
CIRCLE
  5
398
100
AcDbEntity
  8
0
  6
CONTINUOUS
 62
               7
100
AcDbCircle
 10
30.0
 20
-6.0000000000000568
 30
0.0
 40
2.4999999999999996
  0
LINE
  5
399
100
AcDbEntity
  8
0
  6
CENTER
 62
               2
100
AcDbLine
 10
34.0
 20
-6.0000000000000568
 30
0.0
 11
26.0
 21
-6.0000000000000568
 31
0.0
  0
LINE
  5
39A
100
AcDbEntity
  8
0
  6
CENTER
 62
               2
100
AcDbLine
 10
30.0
 20
-2.0000000000000568
 30
0.0
 11
30.0
 21
-10.000000000000057
 31
0.0
  0
LINE
  5
39B
100
AcDbEntity
  8
0
  6
CONTINUOUS
 62
               7
100
AcDbLine
 10
29.56698729810779
 20
-6.7500000000000568
 30
0.0
 11
30.43301270189221
 21
-6.7500000000000568
 31
0.0
  0
LINE
  5
39C
100
AcDbEntity
  8
0
  6
CONTINUOUS
 62
               7
100
AcDbLine
 10
30.43301270189221
 20
-6.7500000000000568
 30
0.0
 11
30.866025403784477
 21
-6.0000000000000568
 31
0.0
  0
LINE
  5
39D
100
AcDbEntity
  8
0
  6
CONTINUOUS
 62
               7
100
AcDbLine
 10
30.43301270189221
 20
-5.2500000000000568
 30
0.0
 11
30.866025403784477
 21
-6.0000000000000568
 31
0.0
  0
LINE
  5
39E
100
AcDbEntity
  8
0
  6
CONTINUOUS
 62
               7
100
AcDbLine
 10
29.56698729810779
 20
-5.2500000000000568
 30
0.0
 11
30.43301270189221
 21
-5.2500000000000568
 31
0.0
  0
LINE
  5
39F
100
AcDbEntity
  8
0
  6
CONTINUOUS
 62
               7
100
AcDbLine
 10
29.56698729810779
 20
-5.2500000000000568
 30
0.0
 11
29.133974596215523
 21
-6.0000000000000568
 31
0.0
  0
LINE
  5
3A0
100
AcDbEntity
  8
0
  6
CONTINUOUS
 62
               7
100
AcDbLine
 10
29.56698729810779
 20
-6.7500000000000568
 30
0.0
 11
29.133974596215523
 21
-6.0000000000000568
 31
0.0
  0
CIRCLE
  5
3A1
100
AcDbEntity
  8
0
  6
CONTINUOUS
 62
               7
100
AcDbCircle
 10
30.0
 20
-6.0000000000000568
 30
0.0
 40
1.8999999999999999
  0
LINE
  5
3A2
100
AcDbEntity
  8
0
  6
CONTINUOUS
 62
               7
100
AcDbLine
 10
41.56698729810779
 20
-6.7500000000000568
 30
0.0
 11
42.43301270189221
 21
-6.7500000000000568
 31
0.0
  0
LINE
  5
3A3
100
AcDbEntity
  8
0
  6
CONTINUOUS
 62
               7
100
AcDbLine
 10
42.43301270189221
 20
-6.7500000000000568
 30
0.0
 11
42.866025403784477
 21
-6.0000000000000568
 31
0.0
  0
LINE
  5
3A4
100
AcDbEntity
  8
0
  6
CONTINUOUS
 62
               7
100
AcDbLine
 10
42.43301270189221
 20
-5.2500000000000568
 30
0.0
 11
42.866025403784477
 21
-6.0000000000000568
 31
0.0
  0
LINE
  5
3A5
100
AcDbEntity
  8
0
  6
CONTINUOUS
 62
               7
100
AcDbLine
 10
41.56698729810779
 20
-5.2500000000000568
 30
0.0
 11
42.43301270189221
 21
-5.2500000000000568
 31
0.0
  0
LINE
  5
3A6
100
AcDbEntity
  8
0
  6
CONTINUOUS
 62
               7
100
AcDbLine
 10
41.56698729810779
 20
-5.2500000000000568
 30
0.0
 11
41.13397459621558
 21
-6.0000000000000568
 31
0.0
  0
LINE
  5
3A7
100
AcDbEntity
  8
0
  6
CONTINUOUS
 62
               7
100
AcDbLine
 10
41.56698729810779
 20
-6.7500000000000568
 30
0.0
 11
41.13397459621558
 21
-6.0000000000000568
 31
0.0
  0
CIRCLE
  5
3A8
100
AcDbEntity
  8
0
  6
CONTINUOUS
 62
               7
100
AcDbCircle
 10
42.000000000000057
 20
-6.0000000000000568
 30
0.0
 40
1.8999999999999999
  0
LINE
  5
3A9
100
AcDbEntity
  8
0
  6
CENTER
 62
               2
100
AcDbLine
 10
57.0
 20
-4.5000000000000284
 30
0.0
 11
57.0
 21
-11.500000000000028
 31
0.0
  0
CIRCLE
  5
3AA
100
AcDbEntity
  8
0
  6
CONTINUOUS
 62
               2
100
AcDbCircle
 10
57.0
 20
-8.0000000000000568
 30
0.0
 40
1.9999999999999998
  0
CIRCLE
  5
3AB
100
AcDbEntity
  8
0
  6
CONTINUOUS
 62
               7
100
AcDbCircle
 10
57.0
 20
-8.0000000000000568
 30
0.0
 40
1.5999999999999999
  0
LINE
  5
3AC
100
AcDbEntity
  8
0
  6
CENTER
 62
               2
100
AcDbLine
 10
53.5
 20
-8.0000000000000568
 30
0.0
 11
60.5
 21
-8.0000000000000568
 31
0.0
  0
LINE
  5
3AD
100
AcDbEntity
  8
0
  6
CENTER
 62
               2
100
AcDbLine
 10
135.49999999999989
 20
-25.0
 30
0.0
 11
139.93999999999994
 21
-25.0
 31
0.0
  0
LINE
  5
3AE
100
AcDbEntity
  8
0
  6
CONTINUOUS
 62
               7
100
AcDbLine
 10
137.63999999999999
 20
-24.499999999999744
 30
0.0
 11
138.43999999999994
 21
-24.499999999999744
 31
0.0
  0
LINE
  5
3AF
100
AcDbEntity
  8
0
  6
CONTINUOUS
 62
               7
100
AcDbLine
 10
137.63999999999999
 20
-25.499999999999744
 30
0.0
 11
138.43999999999994
 21
-25.499999999999744
 31
0.0
  0
LINE
  5
3B0
100
AcDbEntity
  8
0
  6
CONTINUOUS
 62
               7
100
AcDbLine
 10
137.34000000000003
 20
-21.0
 30
0.0
 11
137.34000000000003
 21
-29.0
 31
0.0
  0
LINE
  5
3B1
100
AcDbEntity
  8
0
  6
CONTINUOUS
 62
               7
100
AcDbLine
 10
136.99999999999989
 20
-29.0
 30
0.0
 11
138.43999999999994
 21
-29.0
 31
0.0
  0
LINE
  5
3B2
100
AcDbEntity
  8
0
  6
CONTINUOUS
 62
               7
100
AcDbLine
 10
137.63999999999999
 20
-24.499999999999744
 30
0.0
 11
137.63999999999999
 21
-25.499999999999744
 31
0.0
  0
LINE
  5
3B3
100
AcDbEntity
  8
0
  6
CONTINUOUS
 62
               7
100
AcDbLine
 10
138.43999999999994
 20
-25.499999999999744
 30
0.0
 11
138.43999999999994
 21
-29.0
 31
0.0
  0
LINE
  5
3B4
100
AcDbEntity
  8
0
  6
CONTINUOUS
 62
               7
100
AcDbLine
 10
136.99999999999989
 20
-21.0
 30
0.0
 11
138.43999999999994
 21
-21.0
 31
0.0
  0
LINE
  5
3B5
100
AcDbEntity
  8
0
  6
CONTINUOUS
 62
               7
100
AcDbLine
 10
138.43999999999994
 20
-21.0
 30
0.0
 11
138.43999999999994
 21
-24.499999999999744
 31
0.0
  0
ARC
  5
3B6
100
AcDbEntity
  8
0
  6
CONTINUOUS
 62
               4
100
AcDbCircle
 10
159.22088625788422
 20
-2.5
 30
0.0
 40
7.2208862578843052
100
AcDbArc
 50
159.74384199958342
 51
200.25615800041567
  0
ARC
  5
3B7
100
AcDbEntity
  8
0
  6
CONTINUOUS
 62
               4
100
AcDbCircle
 10
146.77911374211578
 20
-2.5
 30
0.0
 40
7.2208862578843052
100
AcDbArc
 50
339.74384199958314
 51
20.256158000416153
  0
LINE
  5
3B8
100
AcDbEntity
  8
0
  6
CONTINUOUS
 62
               4
100
AcDbLine
 10
151.99999999999989
 20
-5.0
 30
0.0
 11
153.99999999999989
 21
-5.0
 31
0.0
  0
LINE
  5
3B9
100
AcDbEntity
  8
0
  6
CONTINUOUS
 62
             200
100
AcDbLine
 10
153.99999999999989
 20
-3.5999999999999943
 30
0.0
 11
159.80000000000007
 21
-3.5999999999999943
 31
0.0
  0
LINE
  5
3BA
100
AcDbEntity
  8
0
  6
CONTINUOUS
 62
               4
100
AcDbLine
 10
153.99999999999989
 20
-4.0
 30
0.0
 11
159.39999999999998
 21
-4.0
 31
0.0
  0
LINE
  5
3BB
100
AcDbEntity
  8
0
  6
CONTINUOUS
 62
               4
100
AcDbLine
 10
162.99999999999989
 20
-3.4000000000000057
 30
0.0
 11
162.99999999999989
 21
-2.5
 31
0.0
  0
LINE
  5
3BC
100
AcDbEntity
  8
0
  6
CONTINUOUS
 62
               4
100
AcDbLine
 10
159.39999999999998
 20
-4.0
 30
0.0
 11
159.99999999999989
 21
-3.4000000000000057
 31
0.0
  0
LINE
  5
3BD
100
AcDbEntity
  8
0
  6
CONTINUOUS
 62
               4
100
AcDbLine
 10
159.99999999999989
 20
-3.4000000000000057
 30
0.0
 11
162.99999999999989
 21
-3.4000000000000057
 31
0.0
  0
LINE
  5
3BE
100
AcDbEntity
  8
0
  6
CONTINUOUS
 62
               4
100
AcDbLine
 10
162.99999999999989
 20
-2.5
 30
0.0
 11
165.99999999999989
 21
-2.5
 31
0.0
  0
LINE
  5
3BF
100
AcDbEntity
  8
0
  6
CONTINUOUS
 62
               4
100
AcDbLine
 10
136.99999999999989
 20
-12.5
 30
0.0
 11
151.99999999999989
 21
-12.5
 31
0.0
  0
ENDBLK
  5
3C0
100
AcDbEntity
  8
0
100
AcDbBlockEnd
  0
BLOCK
  5
3C1
100
AcDbEntity
  8
0
100
AcDbBlockBegin
  2
ZS10SS-8
 70
               0
 10
0.0
 20
0.0
 30
0.0
  3
ZS10SS-8
  1

  0
LINE
  5
3C2
100
AcDbEntity
  8
0
  6
CONTINUOUS
 62
               4
100
AcDbLine
 10
27.25
 20
-3.5999999999999943
 30
0.0
 11
30.5
 21
-3.5999999999999943
 31
0.0
  0
LINE
  5
3C3
100
AcDbEntity
  8
0
  6
CONTINUOUS
 62
               4
100
AcDbLine
 10
25.75
 20
-1.0
 30
0.0
 11
30.5
 21
-1.0
 31
0.0
  0
LINE
  5
3C4
100
AcDbEntity
  8
0
  6
CONTINUOUS
 62
               4
100
AcDbLine
 10
22.0
 20
-3.5999999999999943
 30
0.0
 11
25.75
 21
-3.5999999999999943
 31
0.0
  0
LINE
  5
3C5
100
AcDbEntity
  8
0
  6
CONTINUOUS
 62
               4
100
AcDbLine
 10
22.0
 20
-1.0
 30
0.0
 11
24.25
 21
-1.0
 31
0.0
  0
LINE
  5
3C6
100
AcDbEntity
  8
0
  6
CONTINUOUS
 62
               4
100
AcDbLine
 10
0.0
 20
-0.4500000000000028
 30
0.0
 11
22.0
 21
-0.4500000000000028
 31
0.0
  0
LINE
  5
3C7
100
AcDbEntity
  8
0
  6
CONTINUOUS
 62
               4
100
AcDbLine
 10
0.0
 20
-1.0
 30
0.0
 11
22.0
 21
-1.0
 31
0.0
  0
LINE
  5
3C8
100
AcDbEntity
  8
0
  6
CONTINUOUS
 62
               4
100
AcDbLine
 10
0.75
 20
0.5
 30
0.0
 11
3.25
 21
0.5
 31
0.0
  0
LINE
  5
3C9
100
AcDbEntity
  8
0
  6
CONTINUOUS
 62
               4
100
AcDbLine
 10
3.25
 20
0.5
 30
0.0
 11
3.25
 21
0.0
 31
0.0
  0
LINE
  5
3CA
100
AcDbEntity
  8
0
  6
CONTINUOUS
 62
             200
100
AcDbLine
 10
3.0200000000000387
 20
0.5
 30
0.0
 11
3.0200000000000387
 21
0.0
 31
0.0
  0
LINE
  5
3CB
100
AcDbEntity
  8
0
  6
CONTINUOUS
 62
             200
100
AcDbLine
 10
0.9700000000000273
 20
0.5
 30
0.0
 11
0.9700000000000273
 21
0.0
 31
0.0
  0
LINE
  5
3CC
100
AcDbEntity
  8
0
  6
CONTINUOUS
 62
               4
100
AcDbLine
 10
0.75
 20
0.5
 30
0.0
 11
0.75
 21
0.0
 31
0.0
  0
LINE
  5
3CD
100
AcDbEntity
  8
0
  6
CONTINUOUS
 62
               4
100
AcDbLine
 10
0.75
 20
-3.769999999999996
 30
0.0
 11
3.25
 21
-3.769999999999996
 31
0.0
  0
LINE
  5
3CE
100
AcDbEntity
  8
0
  6
CONTINUOUS
 62
               4
100
AcDbLine
 10
3.25
 20
-2.5900000000000034
 30
0.0
 11
3.25
 21
-3.769999999999996
 31
0.0
  0
LINE
  5
3CF
100
AcDbEntity
  8
0
  6
CONTINUOUS
 62
             200
100
AcDbLine
 10
3.0200000000000387
 20
-2.5900000000000034
 30
0.0
 11
3.0200000000000387
 21
-4.0
 31
0.0
  0
LINE
  5
3D0
100
AcDbEntity
  8
0
  6
CONTINUOUS
 62
             200
100
AcDbLine
 10
0.9700000000000273
 20
-2.5900000000000034
 30
0.0
 11
0.9700000000000273
 21
-4.0
 31
0.0
  0
LINE
  5
3D1
100
AcDbEntity
  8
0
  6
CONTINUOUS
 62
               4
100
AcDbLine
 10
0.75
 20
-2.5900000000000034
 30
0.0
 11
0.75
 21
-3.769999999999996
 31
0.0
  0
LINE
  5
3D2
100
AcDbEntity
  8
0
  6
CONTINUOUS
 62
               4
100
AcDbLine
 10
0.9700000000000273
 20
-4.0
 30
0.0
 11
0.75
 21
-3.769999999999996
 31
0.0
  0
LINE
  5
3D3
100
AcDbEntity
  8
0
  6
CONTINUOUS
 62
               4
100
AcDbLine
 10
3.0200000000000387
 20
-4.0
 30
0.0
 11
3.25
 21
-3.769999999999996
 31
0.0
  0
LINE
  5
3D4
100
AcDbEntity
  8
0
  6
CONTINUOUS
 62
               4
100
AcDbLine
 10
0.9700000000000273
 20
-4.0
 30
0.0
 11
3.0200000000000387
 21
-4.0
 31
0.0
  0
LINE
  5
3D5
100
AcDbEntity
  8
0
  6
CONTINUOUS
 62
             200
100
AcDbLine
 10
23.75
 20
-0.1299999999999955
 30
0.0
 11
26.25
 21
-4.4599999999999937
 31
0.0
  0
LINE
  5
3D6
100
AcDbEntity
  8
0
  6
CONTINUOUS
 62
             200
100
AcDbLine
 10
25.25
 20
-0.1299999999999955
 30
0.0
 11
27.75
 21
-4.4599999999999937
 31
0.0
  0
LINE
  5
3D7
100
AcDbEntity
  8
0
  6
CONTINUOUS
 62
             200
100
AcDbLine
 10
32.730000000000018
 20
-0.1299999999999955
 30
0.0
 11
35.230000000000018
 21
-4.4599999999999937
 31
0.0
  0
LINE
  5
3D8
100
AcDbEntity
  8
0
  6
CENTER
 62
             200
100
AcDbLine
 10
20.680000000000064
 20
-2.2999999999999972
 30
0.0
 11
30.5
 21
-2.2999999999999972
 31
0.0
  0
LINE
  5
3D9
100
AcDbEntity
  8
0
  6
CONTINUOUS
 62
             200
100
AcDbLine
 10
34.230000000000018
 20
-0.1299999999999955
 30
0.0
 11
36.730000000000018
 21
-4.4599999999999937
 31
0.0
  0
LINE
  5
3DA
100
AcDbEntity
  8
0
  6
CONTINUOUS
 62
               4
100
AcDbLine
 10
37.5
 20
-3.0
 30
0.0
 11
40.5
 21
-3.0
 31
0.0
  0
LINE
  5
3DB
100
AcDbEntity
  8
0
  6
CONTINUOUS
 62
               4
100
AcDbLine
 10
37.5
 20
-2.5
 30
0.0
 11
40.5
 21
-2.5
 31
0.0
  0
LINE
  5
3DC
100
AcDbEntity
  8
0
  6
CONTINUOUS
 62
               4
100
AcDbLine
 10
37.5
 20
-2.0999999999999943
 30
0.0
 11
40.5
 21
-2.0999999999999943
 31
0.0
  0
LINE
  5
3DD
100
AcDbEntity
  8
0
  6
CONTINUOUS
 62
               4
100
AcDbLine
 10
37.5
 20
-1.5999999999999943
 30
0.0
 11
40.5
 21
-1.5999999999999943
 31
0.0
  0
LINE
  5
3DE
100
AcDbEntity
  8
0
  6
CONTINUOUS
 62
               4
100
AcDbLine
 10
34.960000000000036
 20
-1.4000000000000057
 30
0.0
 11
37.5
 21
-1.4000000000000057
 31
0.0
  0
LINE
  5
3DF
100
AcDbEntity
  8
0
  6
CONTINUOUS
 62
               4
100
AcDbLine
 10
30.5
 20
-1.4000000000000057
 30
0.0
 11
33.460000000000036
 21
-1.4000000000000057
 31
0.0
  0
LINE
  5
3E0
100
AcDbEntity
  8
0
  6
CONTINUOUS
 62
               4
100
AcDbLine
 10
36.0
 20
-3.2000000000000028
 30
0.0
 11
37.5
 21
-3.2000000000000028
 31
0.0
  0
LINE
  5
3E1
100
AcDbEntity
  8
0
  6
CONTINUOUS
 62
               4
100
AcDbLine
 10
35.480000000000018
 20
-2.2999999999999972
 30
0.0
 11
37.5
 21
-2.2999999999999972
 31
0.0
  0
LINE
  5
3E2
100
AcDbEntity
  8
0
  6
CONTINUOUS
 62
               4
100
AcDbLine
 10
30.5
 20
-2.2999999999999972
 30
0.0
 11
33.980000000000018
 21
-2.2999999999999972
 31
0.0
  0
LINE
  5
3E3
100
AcDbEntity
  8
0
  6
CONTINUOUS
 62
               4
100
AcDbLine
 10
30.5
 20
-3.2000000000000028
 30
0.0
 11
34.5
 21
-3.2000000000000028
 31
0.0
  0
LINE
  5
3E4
100
AcDbEntity
  8
0
  6
CONTINUOUS
 62
               4
100
AcDbLine
 10
37.5
 20
-1.4000000000000057
 30
0.0
 11
37.5
 21
-3.2000000000000028
 31
0.0
  0
LINE
  5
3E5
100
AcDbEntity
  8
0
  6
CONTINUOUS
 62
               4
100
AcDbLine
 10
40.5
 20
-2.5
 30
0.0
 11
40.5
 21
-3.0
 31
0.0
  0
LINE
  5
3E6
100
AcDbEntity
  8
0
  6
CONTINUOUS
 62
               4
100
AcDbLine
 10
40.5
 20
-1.5999999999999943
 30
0.0
 11
40.5
 21
-2.0999999999999943
 31
0.0
  0
LINE
  5
3E7
100
AcDbEntity
  8
0
  6
CENTER
 62
             200
100
AcDbLine
 10
28.82000000000005
 20
-2.75
 30
0.0
 11
40.75
 21
-2.75
 31
0.0
  0
LINE
  5
3E8
100
AcDbEntity
  8
0
  6
CENTER
 62
             200
100
AcDbLine
 10
28.769999999999982
 20
-1.8499999999999943
 30
0.0
 11
40.700000000000045
 21
-1.8499999999999943
 31
0.0
  0
LINE
  5
3E9
100
AcDbEntity
  8
0
  6
CONTINUOUS
 62
               4
100
AcDbLine
 10
30.5
 20
-1.0
 30
0.0
 11
30.5
 21
-3.5999999999999943
 31
0.0
  0
LINE
  5
3EA
100
AcDbEntity
  8
0
  6
CONTINUOUS
 62
               4
100
AcDbLine
 10
4.25
 20
-3.0400000000000063
 30
0.0
 11
4.7000000000000455
 21
-3.0400000000000063
 31
0.0
  0
LINE
  5
3EB
100
AcDbEntity
  8
0
  6
CONTINUOUS
 62
               4
100
AcDbLine
 10
4.2000000000000455
 20
-3.7999999999999972
 30
0.0
 11
4.7000000000000455
 21
-3.7999999999999972
 31
0.0
  0
LINE
  5
3EC
100
AcDbEntity
  8
0
  6
CONTINUOUS
 62
               4
100
AcDbLine
 10
4.2000000000000455
 20
-1.7999999999999972
 30
0.0
 11
4.2000000000000455
 21
-3.7999999999999972
 31
0.0
  0
LINE
  5
3ED
100
AcDbEntity
  8
0
  6
CONTINUOUS
 62
               4
100
AcDbLine
 10
0.0
 20
-2.5999999999999943
 30
0.0
 11
4.0
 21
-2.5999999999999943
 31
0.0
  0
LINE
  5
3EE
100
AcDbEntity
  8
0
  6
CONTINUOUS
 62
               4
100
AcDbLine
 10
0.0
 20
-1.7999999999999972
 30
0.0
 11
0.0
 21
-2.5999999999999943
 31
0.0
  0
LINE
  5
3EF
100
AcDbEntity
  8
0
  6
CONTINUOUS
 62
               4
100
AcDbLine
 10
4.0
 20
-1.7999999999999972
 30
0.0
 11
4.0
 21
-2.5999999999999943
 31
0.0
  0
LINE
  5
3F0
100
AcDbEntity
  8
0
  6
CONTINUOUS
 62
               4
100
AcDbLine
 10
4.25
 20
-1.7999999999999972
 30
0.0
 11
4.25
 21
-3.0400000000000063
 31
0.0
  0
LINE
  5
3F1
100
AcDbEntity
  8
0
  6
CENTER
 62
             200
100
AcDbLine
 10
2.0
 20
0.7999999999999972
 30
0.0
 11
2.0
 21
-5.4300000000000068
 31
0.0
  0
LINE
  5
3F2
100
AcDbEntity
  8
0
  6
CONTINUOUS
 62
               4
100
AcDbLine
 10
0.0
 20
-1.7999999999999972
 30
0.0
 11
4.25
 21
-1.7999999999999972
 31
0.0
  0
LINE
  5
3F3
100
AcDbEntity
  8
0
  6
CONTINUOUS
 62
               4
100
AcDbLine
 10
4.7000000000000455
 20
-3.0400000000000063
 30
0.0
 11
4.7000000000000455
 21
-4.5999999999999943
 31
0.0
  0
LINE
  5
3F4
100
AcDbEntity
  8
0
  6
CONTINUOUS
 62
               4
100
AcDbLine
 10
0.0
 20
-1.7999999999999972
 30
0.0
 11
0.0
 21
0.0
 31
0.0
  0
LINE
  5
3F5
100
AcDbEntity
  8
0
  6
CONTINUOUS
 62
               4
100
AcDbLine
 10
22.0
 20
0.0
 30
0.0
 11
22.0
 21
-4.5999999999999943
 31
0.0
  0
LINE
  5
3F6
100
AcDbEntity
  8
0
  6
CONTINUOUS
 62
               4
100
AcDbLine
 10
4.7000000000000455
 20
-4.5999999999999943
 30
0.0
 11
22.0
 21
-4.5999999999999943
 31
0.0
  0
LINE
  5
3F7
100
AcDbEntity
  8
0
  6
CONTINUOUS
 62
               4
100
AcDbLine
 10
0.0
 20
0.0
 30
0.0
 11
22.0
 21
0.0
 31
0.0
  0
ENDBLK
  5
3F8
100
AcDbEntity
  8
0
100
AcDbBlockEnd
  0
BLOCK
  5
3F9
100
AcDbEntity
  8
0
100
AcDbBlockBegin
  2
ZS10SS-9
 70
               0
 10
0.0
 20
0.0
 30
0.0
  3
ZS10SS-9
  1

  0
LINE
  5
3FA
100
AcDbEntity
  8
0
  6
CONTINUOUS
 62
               4
100
AcDbLine
 10
-1.25
 20
0.5
 30
0.0
 11
1.25
 21
0.5
 31
0.0
  0
LINE
  5
3FB
100
AcDbEntity
  8
0
  6
CONTINUOUS
 62
               4
100
AcDbLine
 10
1.25
 20
0.5
 30
0.0
 11
1.25
 21
0.0
 31
0.0
  0
LINE
  5
3FC
100
AcDbEntity
  8
0
  6
CONTINUOUS
 62
             200
100
AcDbLine
 10
1.0199999999999818
 20
0.5
 30
0.0
 11
1.0199999999999818
 21
0.0
 31
0.0
  0
LINE
  5
3FD
100
AcDbEntity
  8
0
  6
CONTINUOUS
 62
             200
100
AcDbLine
 10
-1.0199999999999818
 20
0.5
 30
0.0
 11
-1.0199999999999818
 21
0.0
 31
0.0
  0
LINE
  5
3FE
100
AcDbEntity
  8
0
  6
CONTINUOUS
 62
               4
100
AcDbLine
 10
-1.25
 20
0.5
 30
0.0
 11
-1.25
 21
0.0
 31
0.0
  0
LINE
  5
3FF
100
AcDbEntity
  8
0
  6
CONTINUOUS
 62
               4
100
AcDbLine
 10
-1.25
 20
-3.769999999999996
 30
0.0
 11
1.25
 21
-3.769999999999996
 31
0.0
  0
LINE
  5
400
100
AcDbEntity
  8
0
  6
CONTINUOUS
 62
               4
100
AcDbLine
 10
1.25
 20
-2.5900000000000034
 30
0.0
 11
1.25
 21
-3.769999999999996
 31
0.0
  0
LINE
  5
401
100
AcDbEntity
  8
0
  6
CONTINUOUS
 62
             200
100
AcDbLine
 10
1.0199999999999818
 20
-2.5900000000000034
 30
0.0
 11
1.0199999999999818
 21
-4.0
 31
0.0
  0
LINE
  5
402
100
AcDbEntity
  8
0
  6
CONTINUOUS
 62
             200
100
AcDbLine
 10
-1.0199999999999818
 20
-2.5900000000000034
 30
0.0
 11
-1.0199999999999818
 21
-4.0
 31
0.0
  0
LINE
  5
403
100
AcDbEntity
  8
0
  6
CONTINUOUS
 62
               4
100
AcDbLine
 10
-1.25
 20
-2.5900000000000034
 30
0.0
 11
-1.25
 21
-3.769999999999996
 31
0.0
  0
LINE
  5
404
100
AcDbEntity
  8
0
  6
CONTINUOUS
 62
               4
100
AcDbLine
 10
-1.0199999999999818
 20
-4.0
 30
0.0
 11
-1.25
 21
-3.769999999999996
 31
0.0
  0
LINE
  5
405
100
AcDbEntity
  8
0
  6
CONTINUOUS
 62
               4
100
AcDbLine
 10
1.0199999999999818
 20
-4.0
 30
0.0
 11
1.25
 21
-3.769999999999996
 31
0.0
  0
LINE
  5
406
100
AcDbEntity
  8
0
  6
CONTINUOUS
 62
               4
100
AcDbLine
 10
-1.0199999999999818
 20
-4.0
 30
0.0
 11
1.0199999999999818
 21
-4.0
 31
0.0
  0
LINE
  5
407
100
AcDbEntity
  8
0
  6
CONTINUOUS
 62
               4
100
AcDbLine
 10
-2.0496097189465119
 20
-2.5900000000000034
 30
0.0
 11
2.0496097189465119
 21
-2.5900000000000034
 31
0.0
  0
LINE
  5
408
100
AcDbEntity
  8
0
  6
CONTINUOUS
 62
               4
100
AcDbLine
 10
-2.0499999999999545
 20
-1.7999999999999972
 30
0.0
 11
2.0500000000000682
 21
-1.7999999999999972
 31
0.0
  0
LINE
  5
409
100
AcDbEntity
  8
0
  6
CONTINUOUS
 62
               4
100
AcDbLine
 10
2.0500000000000682
 20
-1.0
 30
0.0
 11
2.0500000000000682
 21
-2.5499999999999972
 31
0.0
  0
LINE
  5
40A
100
AcDbEntity
  8
0
  6
CONTINUOUS
 62
               4
100
AcDbLine
 10
2.0500000000000682
 20
-1.0
 30
0.0
 11
1.5
 21
-0.4500000000000028
 31
0.0
  0
LINE
  5
40B
100
AcDbEntity
  8
0
  6
CONTINUOUS
 62
               4
100
AcDbLine
 10
1.5
 20
0.0
 30
0.0
 11
1.5
 21
-0.4500000000000028
 31
0.0
  0
LINE
  5
40C
100
AcDbEntity
  8
0
  6
CONTINUOUS
 62
               4
100
AcDbLine
 10
-1.5
 20
0.0
 30
0.0
 11
1.5
 21
0.0
 31
0.0
  0
LINE
  5
40D
100
AcDbEntity
  8
0
  6
CONTINUOUS
 62
               4
100
AcDbLine
 10
-1.5
 20
0.0
 30
0.0
 11
-1.5
 21
-0.4500000000000028
 31
0.0
  0
LINE
  5
40E
100
AcDbEntity
  8
0
  6
CONTINUOUS
 62
               4
100
AcDbLine
 10
-2.0499999999999545
 20
-1.0
 30
0.0
 11
-1.5
 21
-0.4500000000000028
 31
0.0
  0
LINE
  5
40F
100
AcDbEntity
  8
0
  6
CONTINUOUS
 62
               4
100
AcDbLine
 10
-2.0499999999999545
 20
-1.0
 30
0.0
 11
-2.0499999999999545
 21
-2.5499999999999972
 31
0.0
  0
LINE
  5
410
100
AcDbEntity
  8
0
  6
CENTER
 62
             200
100
AcDbLine
 10
0.0
 20
2.0499999999999972
 30
0.0
 11
0.0
 21
-6.6599999999999966
 31
0.0
  0
ARC
  5
411
100
AcDbEntity
  8
0
  6
CONTINUOUS
 62
               4
100
AcDbCircle
 10
0.0
 20
-2.5499999999999998
 30
0.0
 40
2.0499999999999998
100
AcDbArc
 50
179.99999999999952
 51
0.0000000000001018
  0
ENDBLK
  5
412
100
AcDbEntity
  8
0
100
AcDbBlockEnd
  0
BLOCK
  5
413
100
AcDbEntity
  8
0
100
AcDbBlockBegin
  2
ZS10SS-10
 70
               0
 10
0.0
 20
0.0
 30
0.0
  3
ZS10SS-10
  1

  0
CIRCLE
  5
414
100
AcDbEntity
  8
0
  6
CONTINUOUS
 62
               4
100
AcDbCircle
 10
2.0000152587890625
 20
0.0
 30
0.0
 40
1.3999996185302734
  0
CIRCLE
  5
415
100
AcDbEntity
  8
0
  6
CONTINUOUS
 62
               4
100
AcDbCircle
 10
2.0000152587890625
 20
0.0
 30
0.0
 40
1.25
  0
LINE
  5
416
100
AcDbEntity
  8
0
  6
CONTINUOUS
 62
               4
100
AcDbLine
 10
22.0
 20
-1.2999999999999972
 30
0.0
 11
25.090000000000032
 21
-1.2999999999999972
 31
0.0
  0
LINE
  5
417
100
AcDbEntity
  8
0
  6
CONTINUOUS
 62
               4
100
AcDbLine
 10
22.0
 20
1.2999999999999972
 30
0.0
 11
23.580000000000041
 21
1.2999999999999972
 31
0.0
  0
LINE
  5
418
100
AcDbEntity
  8
0
  6
CONTINUOUS
 62
             200
100
AcDbLine
 10
23.080000000000041
 20
2.1599999999999966
 30
0.0
 11
25.580000000000041
 21
-2.1599999999999966
 31
0.0
  0
LINE
  5
419
100
AcDbEntity
  8
0
  6
CONTINUOUS
 62
               4
100
AcDbLine
 10
1.3000000000000682
 20
-1.0600000000000023
 30
0.0
 11
2.9400000000000546
 21
0.5600000000000023
 31
0.0
  0
LINE
  5
41A
100
AcDbEntity
  8
0
  6
CONTINUOUS
 62
               4
100
AcDbLine
 10
0.9500000000000455
 20
-0.710000000000008
 30
0.0
 11
2.6800000000000637
 21
1.0200000000000102
 31
0.0
  0
LINE
  5
41B
100
AcDbEntity
  8
0
  6
CENTER
 62
             200
100
AcDbLine
 10
2.0
 20
2.8299999999999983
 30
0.0
 11
2.0
 21
-2.75
 31
0.0
  0
LINE
  5
41C
100
AcDbEntity
  8
0
  6
CONTINUOUS
 62
               4
100
AcDbLine
 10
22.0
 20
2.0499999999999972
 30
0.0
 11
22.0
 21
-2.0499999999999972
 31
0.0
  0
LINE
  5
41D
100
AcDbEntity
  8
0
  6
CONTINUOUS
 62
               4
100
AcDbLine
 10
0.0
 20
2.0499999999999972
 30
0.0
 11
0.0
 21
-2.0499999999999972
 31
0.0
  0
LINE
  5
41E
100
AcDbEntity
  8
0
  6
CONTINUOUS
 62
               4
100
AcDbLine
 10
0.0
 20
2.0499999999999972
 30
0.0
 11
22.0
 21
2.0499999999999972
 31
0.0
  0
LINE
  5
41F
100
AcDbEntity
  8
0
  6
CONTINUOUS
 62
               4
100
AcDbLine
 10
0.0
 20
-2.0499999999999972
 30
0.0
 11
22.0
 21
-2.0499999999999972
 31
0.0
  0
LINE
  5
420
100
AcDbEntity
  8
0
  6
CONTINUOUS
 62
               4
100
AcDbLine
 10
0.0
 20
1.5
 30
0.0
 11
22.0
 21
1.5
 31
0.0
  0
LINE
  5
421
100
AcDbEntity
  8
0
  6
CONTINUOUS
 62
               4
100
AcDbLine
 10
0.0
 20
-1.5
 30
0.0
 11
22.0
 21
-1.5
 31
0.0
  0
LINE
  5
422
100
AcDbEntity
  8
0
  6
CENTER
 62
             200
100
AcDbLine
 10
-2.7999999999999545
 20
0.0
 30
0.0
 11
27.400000000000034
 21
0.0
 31
0.0
  0
ENDBLK
  5
423
100
AcDbEntity
  8
0
100
AcDbBlockEnd
  0
BLOCK
  5
424
100
AcDbEntity
  8
0
100
AcDbBlockBegin
  2
ZS10SS-11
 70
               0
 10
0.0
 20
0.0
 30
0.0
  3
ZS10SS-11
  1

  0
LINE
  5
425
100
AcDbEntity
  8
0
  6
CONTINUOUS
 62
               4
100
AcDbLine
 10
20.700000000000017
 20
12.150000000000006
 30
0.0
 11
20.700000000000017
 21
15.399999999999977
 31
0.0
  0
LINE
  5
426
100
AcDbEntity
  8
0
  6
CONTINUOUS
 62
               4
100
AcDbLine
 10
18.100000000000023
 20
10.649999999999977
 30
0.0
 11
18.100000000000051
 21
15.399999999999977
 31
0.0
  0
LINE
  5
427
100
AcDbEntity
  8
0
  6
CONTINUOUS
 62
               4
100
AcDbLine
 10
18.100000000000023
 20
6.9000000000000057
 30
0.0
 11
18.100000000000051
 21
9.1499999999999773
 31
0.0
  0
LINE
  5
428
100
AcDbEntity
  8
0
  6
CONTINUOUS
 62
               4
100
AcDbLine
 10
20.699999999999989
 20
6.9000000000000057
 30
0.0
 11
20.700000000000017
 21
10.650000000000006
 31
0.0
  0
LINE
  5
429
100
AcDbEntity
  8
0
  6
CONTINUOUS
 62
               4
100
AcDbLine
 10
0.7500000000000284
 20
0.4999999999999716
 30
0.0
 11
3.25
 21
0.4999999999999716
 31
0.0
  0
LINE
  5
42A
100
AcDbEntity
  8
0
  6
CONTINUOUS
 62
               4
100
AcDbLine
 10
3.25
 20
0.4999999999999716
 30
0.0
 11
3.2500000000000568
 21
0.0
 31
0.0
  0
LINE
  5
42B
100
AcDbEntity
  8
0
  6
CONTINUOUS
 62
             200
100
AcDbLine
 10
3.0200000000000102
 20
0.5
 30
0.0
 11
3.0199999999999818
 21
-0.0000000000000284
 31
0.0
  0
LINE
  5
42C
100
AcDbEntity
  8
0
  6
CONTINUOUS
 62
             200
100
AcDbLine
 10
0.9700000000000557
 20
0.5
 30
0.0
 11
0.9700000000000841
 21
-0.0000000000000284
 31
0.0
  0
LINE
  5
42D
100
AcDbEntity
  8
0
  6
CONTINUOUS
 62
               4
100
AcDbLine
 10
0.7500000000000284
 20
0.4999999999999716
 30
0.0
 11
0.7500000000000284
 21
0.0
 31
0.0
  0
LINE
  5
42E
100
AcDbEntity
  8
0
  6
CONTINUOUS
 62
               4
100
AcDbLine
 10
0.7500000000000284
 20
-3.7700000000000102
 30
0.0
 11
3.2500000000000284
 21
-3.7700000000000102
 31
0.0
  0
LINE
  5
42F
100
AcDbEntity
  8
0
  6
CONTINUOUS
 62
               4
100
AcDbLine
 10
3.2500000000000284
 20
-2.6000000000000227
 30
0.0
 11
3.2500000000000284
 21
-3.7700000000000102
 31
0.0
  0
LINE
  5
430
100
AcDbEntity
  8
0
  6
CONTINUOUS
 62
             200
100
AcDbLine
 10
3.0200000000000102
 20
-2.6000000000000227
 30
0.0
 11
3.0200000000000387
 21
-4.0
 31
0.0
  0
LINE
  5
431
100
AcDbEntity
  8
0
  6
CONTINUOUS
 62
             200
100
AcDbLine
 10
0.9700000000000557
 20
-2.6000000000000227
 30
0.0
 11
0.9700000000000273
 21
-4.0
 31
0.0
  0
LINE
  5
432
100
AcDbEntity
  8
0
  6
CONTINUOUS
 62
               4
100
AcDbLine
 10
0.75
 20
-2.6000000000000227
 30
0.0
 11
0.7500000000000284
 21
-3.7700000000000102
 31
0.0
  0
LINE
  5
433
100
AcDbEntity
  8
0
  6
CONTINUOUS
 62
               4
100
AcDbLine
 10
0.9700000000000273
 20
-4.0
 30
0.0
 11
0.7500000000000284
 21
-3.7700000000000102
 31
0.0
  0
LINE
  5
434
100
AcDbEntity
  8
0
  6
CONTINUOUS
 62
               4
100
AcDbLine
 10
3.0200000000000387
 20
-4.0
 30
0.0
 11
3.2500000000000284
 21
-3.7700000000000102
 31
0.0
  0
LINE
  5
435
100
AcDbEntity
  8
0
  6
CONTINUOUS
 62
               4
100
AcDbLine
 10
0.9700000000000273
 20
-4.0
 30
0.0
 11
3.0200000000000387
 21
-4.0
 31
0.0
  0
LINE
  5
436
100
AcDbEntity
  8
0
  6
CONTINUOUS
 62
             200
100
AcDbLine
 10
17.240000000000038
 20
8.6499999999999773
 30
0.0
 11
21.570000000000022
 21
11.149999999999977
 31
0.0
  0
LINE
  5
437
100
AcDbEntity
  8
0
  6
CONTINUOUS
 62
             200
100
AcDbLine
 10
17.240000000000038
 20
10.150000000000006
 30
0.0
 11
21.570000000000022
 21
12.649999999999977
 31
0.0
  0
LINE
  5
438
100
AcDbEntity
  8
0
  6
CONTINUOUS
 62
             200
100
AcDbLine
 10
17.240000000000066
 20
17.629999999999967
 30
0.0
 11
21.570000000000022
 21
20.129999999999995
 31
0.0
  0
LINE
  5
439
100
AcDbEntity
  8
0
  6
CENTER
 62
             200
100
AcDbLine
 10
19.400000000000091
 20
5.5799999999999841
 30
0.0
 11
19.400000000000091
 21
15.399999999999977
 31
0.0
  0
LINE
  5
43A
100
AcDbEntity
  8
0
  6
CONTINUOUS
 62
             200
100
AcDbLine
 10
17.240000000000038
 20
19.129999999999967
 30
0.0
 11
21.57000000000005
 21
21.629999999999995
 31
0.0
  0
LINE
  5
43B
100
AcDbEntity
  8
0
  6
CONTINUOUS
 62
               4
100
AcDbLine
 10
20.100000000000051
 20
22.400000000000006
 30
0.0
 11
20.100000000000051
 21
25.400000000000006
 31
0.0
  0
LINE
  5
43C
100
AcDbEntity
  8
0
  6
CONTINUOUS
 62
               4
100
AcDbLine
 10
19.600000000000051
 20
22.399999999999977
 30
0.0
 11
19.600000000000051
 21
25.399999999999977
 31
0.0
  0
LINE
  5
43D
100
AcDbEntity
  8
0
  6
CONTINUOUS
 62
               4
100
AcDbLine
 10
19.200000000000045
 20
22.399999999999977
 30
0.0
 11
19.200000000000017
 21
25.399999999999977
 31
0.0
  0
LINE
  5
43E
100
AcDbEntity
  8
0
  6
CONTINUOUS
 62
               4
100
AcDbLine
 10
18.699999999999989
 20
22.399999999999977
 30
0.0
 11
18.700000000000045
 21
25.399999999999977
 31
0.0
  0
LINE
  5
43F
100
AcDbEntity
  8
0
  6
CONTINUOUS
 62
               4
100
AcDbLine
 10
18.500000000000057
 20
19.859999999999957
 30
0.0
 11
18.500000000000028
 21
22.400000000000006
 31
0.0
  0
LINE
  5
440
100
AcDbEntity
  8
0
  6
CONTINUOUS
 62
               4
100
AcDbLine
 10
18.500000000000028
 20
15.400000000000006
 30
0.0
 11
18.500000000000028
 21
18.359999999999957
 31
0.0
  0
LINE
  5
441
100
AcDbEntity
  8
0
  6
CONTINUOUS
 62
               4
100
AcDbLine
 10
20.30000000000004
 20
20.900000000000006
 30
0.0
 11
20.300000000000068
 21
22.400000000000006
 31
0.0
  0
LINE
  5
442
100
AcDbEntity
  8
0
  6
CONTINUOUS
 62
               4
100
AcDbLine
 10
19.400000000000063
 20
20.379999999999967
 30
0.0
 11
19.400000000000119
 21
22.399999999999977
 31
0.0
  0
LINE
  5
443
100
AcDbEntity
  8
0
  6
CONTINUOUS
 62
               4
100
AcDbLine
 10
19.400000000000091
 20
15.399999999999977
 30
0.0
 11
19.400000000000119
 21
18.879999999999967
 31
0.0
  0
LINE
  5
444
100
AcDbEntity
  8
0
  6
CONTINUOUS
 62
               4
100
AcDbLine
 10
20.300000000000068
 20
15.400000000000006
 30
0.0
 11
20.300000000000068
 21
19.400000000000006
 31
0.0
  0
LINE
  5
445
100
AcDbEntity
  8
0
  6
CONTINUOUS
 62
               4
100
AcDbLine
 10
18.500000000000028
 20
22.400000000000006
 30
0.0
 11
20.300000000000068
 21
22.400000000000006
 31
0.0
  0
LINE
  5
446
100
AcDbEntity
  8
0
  6
CONTINUOUS
 62
               4
100
AcDbLine
 10
19.600000000000051
 20
25.399999999999977
 30
0.0
 11
20.100000000000051
 21
25.400000000000006
 31
0.0
  0
LINE
  5
447
100
AcDbEntity
  8
0
  6
CONTINUOUS
 62
               4
100
AcDbLine
 10
18.700000000000045
 20
25.399999999999977
 30
0.0
 11
19.200000000000017
 21
25.399999999999977
 31
0.0
  0
LINE
  5
448
100
AcDbEntity
  8
0
  6
CENTER
 62
             200
100
AcDbLine
 10
19.850000000000051
 20
13.71999999999997
 30
0.0
 11
19.850000000000051
 21
25.650000000000006
 31
0.0
  0
LINE
  5
449
100
AcDbEntity
  8
0
  6
CENTER
 62
             200
100
AcDbLine
 10
18.950000000000017
 20
13.669999999999987
 30
0.0
 11
18.950000000000017
 21
25.599999999999994
 31
0.0
  0
LINE
  5
44A
100
AcDbEntity
  8
0
  6
CONTINUOUS
 62
               4
100
AcDbLine
 10
18.100000000000051
 20
15.399999999999977
 30
0.0
 11
20.700000000000017
 21
15.399999999999977
 31
0.0
  0
LINE
  5
44B
100
AcDbEntity
  8
0
  6
CONTINUOUS
 62
               4
100
AcDbLine
 10
16.10000000000008
 20
5.3999999999999773
 30
0.0
 11
22.000000000000028
 21
5.3999999999999773
 31
0.0
  0
LINE
  5
44C
100
AcDbEntity
  8
0
  6
CONTINUOUS
 62
               4
100
AcDbLine
 10
16.100000000000051
 20
0.4000000000000057
 30
0.0
 11
22.000000000000028
 21
0.4000000000000057
 31
0.0
  0
LINE
  5
44D
100
AcDbEntity
  8
0
  6
CONTINUOUS
 62
               4
100
AcDbLine
 10
16.100000000000051
 20
1.1500000000000057
 30
0.0
 11
22.0
 21
1.1500000000000057
 31
0.0
  0
LINE
  5
44E
100
AcDbEntity
  8
0
  6
CONTINUOUS
 62
               4
100
AcDbLine
 10
0.0000000000000284
 20
-0.4500000000000171
 30
0.0
 11
22.000000000000028
 21
-0.4500000000000171
 31
0.0
  0
LINE
  5
44F
100
AcDbEntity
  8
0
  6
CONTINUOUS
 62
               4
100
AcDbLine
 10
0.0000000000000284
 20
-1.0000000000000284
 30
0.0
 11
22.000000000000057
 21
-1.0000000000000284
 31
0.0
  0
LINE
  5
450
100
AcDbEntity
  8
0
  6
CONTINUOUS
 62
               4
100
AcDbLine
 10
4.2700000000000102
 20
-1.8000000000000114
 30
0.0
 11
4.2700000000000102
 21
-2.9800000000000182
 31
0.0
  0
LINE
  5
451
100
AcDbEntity
  8
0
  6
CONTINUOUS
 62
               4
100
AcDbLine
 10
4.2700000000000102
 20
-2.9800000000000182
 30
0.0
 11
4.7000000000000171
 21
-2.9800000000000182
 31
0.0
  0
LINE
  5
452
100
AcDbEntity
  8
0
  6
CONTINUOUS
 62
               4
100
AcDbLine
 10
4.2000000000000455
 20
-1.8000000000000114
 30
0.0
 11
4.2000000000000171
 21
-3.7999999999999829
 31
0.0
  0
LINE
  5
453
100
AcDbEntity
  8
0
  6
CONTINUOUS
 62
               4
100
AcDbLine
 10
4.2000000000000171
 20
-3.7999999999999829
 30
0.0
 11
4.6999999999999886
 21
-3.8000000000000114
 31
0.0
  0
LINE
  5
454
100
AcDbEntity
  8
0
  6
CONTINUOUS
 62
               4
100
AcDbLine
 10
16.100000000000051
 20
6.8999999999999773
 30
0.0
 11
22.000000000000028
 21
6.8999999999999773
 31
0.0
  0
LINE
  5
455
100
AcDbEntity
  8
0
  6
CONTINUOUS
 62
               4
100
AcDbLine
 10
4.0000000000000284
 20
-1.8000000000000114
 30
0.0
 11
4.0000000000000568
 21
-2.6000000000000227
 31
0.0
  0
LINE
  5
456
100
AcDbEntity
  8
0
  6
CONTINUOUS
 62
               4
100
AcDbLine
 10
0.0000000000000284
 20
-2.5999999999999943
 30
0.0
 11
4.0000000000000568
 21
-2.6000000000000227
 31
0.0
  0
LINE
  5
457
100
AcDbEntity
  8
0
  6
CONTINUOUS
 62
               4
100
AcDbLine
 10
0.0000000000000568
 20
-1.8000000000000114
 30
0.0
 11
4.2700000000000102
 21
-1.8000000000000114
 31
0.0
  0
LINE
  5
458
100
AcDbEntity
  8
0
  6
CONTINUOUS
 62
               4
100
AcDbLine
 10
16.100000000000051
 20
6.8999999999999773
 30
0.0
 11
16.100000000000023
 21
0.0
 31
0.0
  0
LINE
  5
459
100
AcDbEntity
  8
0
  6
CENTER
 62
             200
100
AcDbLine
 10
2.0000000000000568
 20
0.7300000000000182
 30
0.0
 11
2.0
 21
-5.1700000000000159
 31
0.0
  0
LINE
  5
45A
100
AcDbEntity
  8
0
  6
CONTINUOUS
 62
               4
100
AcDbLine
 10
4.7000000000000171
 20
-2.9800000000000182
 30
0.0
 11
4.7000000000000171
 21
-4.6000000000000227
 31
0.0
  0
LINE
  5
45B
100
AcDbEntity
  8
0
  6
CONTINUOUS
 62
               4
100
AcDbLine
 10
0.0000000000000284
 20
-2.5999999999999943
 30
0.0
 11
0.0
 21
0.0
 31
0.0
  0
LINE
  5
45C
100
AcDbEntity
  8
0
  6
CONTINUOUS
 62
               4
100
AcDbLine
 10
22.000000000000028
 20
6.8999999999999773
 30
0.0
 11
22.000000000000028
 21
-4.6000000000000227
 31
0.0
  0
LINE
  5
45D
100
AcDbEntity
  8
0
  6
CONTINUOUS
 62
               4
100
AcDbLine
 10
4.7000000000000171
 20
-4.6000000000000227
 30
0.0
 11
22.000000000000028
 21
-4.6000000000000227
 31
0.0
  0
LINE
  5
45E
100
AcDbEntity
  8
0
  6
CONTINUOUS
 62
               4
100
AcDbLine
 10
0.0
 20
0.0
 30
0.0
 11
16.100000000000023
 21
0.0
 31
0.0
  0
ENDBLK
  5
45F
100
AcDbEntity
  8
0
100
AcDbBlockEnd
  0
BLOCK
  5
47C
100
AcDbEntity
  8
0
  6
ByBlock
 62
               0
100
AcDbBlockBegin
  2
_OPEN30
 70
               2
 10
0.0
 20
0.0
 30
0.0
  3
_OPEN30
  1

  0
LINE
  5
47D
100
AcDbEntity
  8
0
  6
ByBlock
 62
               0
100
AcDbLine
 10
-1.0
 20
0.267949
 30
0.0
 11
0.0
 21
0.0
 31
0.0
  0
LINE
  5
47E
100
AcDbEntity
  8
0
  6
ByBlock
 62
               0
100
AcDbLine
 10
0.0
 20
0.0
 30
0.0
 11
-1.0
 21
-0.267949
 31
0.0
  0
LINE
  5
47F
100
AcDbEntity
  8
0
  6
ByBlock
 62
               0
100
AcDbLine
 10
0.0
 20
0.0
 30
0.0
 11
-1.0
 21
0.0
 31
0.0
  0
ENDBLK
  5
480
100
AcDbEntity
  8
0
  6
ByBlock
 62
               0
100
AcDbBlockEnd
  0
ENDSEC
  0
SECTION
  2
ENTITIES
  0
INSERT
  5
460
100
AcDbEntity
  8
0
  6
ByBlock
100
AcDbBlockReference
  2
ZS10SS-1
 10
-111.13872832369927
 20
96.781480592520268
 30
0.0
  0
INSERT
  5
461
100
AcDbEntity
  8
0
  6
ByBlock
100
AcDbBlockReference
  2
ZS10SS-4
 10
-184.14367883555522
 20
96.781480592520268
 30
0.0
  0
INSERT
  5
462
100
AcDbEntity
  8
0
  6
ByBlock
100
AcDbBlockReference
  2
ZS10SS-5
 10
113.72195060133609
 20
96.781480592520268
 30
0.0
  0
INSERT
  5
463
100
AcDbEntity
  8
0
  6
ByBlock
100
AcDbBlockReference
  2
ZS10SS-6
 10
-111.13872834050576
 20
-8.0431304450045218
 30
0.0
  0
INSERT
  5
464
100
AcDbEntity
  8
0
  6
ByBlock
100
AcDbBlockReference
  2
ZS10SS-7
 10
-111.13872832369927
 20
-93.79560569252925
 30
0.0
  0
INSERT
  5
465
100
AcDbEntity
  8
0
  6
ByBlock
100
AcDbBlockReference
  2
ZS10SS-8
 10
215.47807633471581
 20
-50.647329752673798
 30
0.0
  0
INSERT
  5
466
100
AcDbEntity
  8
0
  6
ByBlock
100
AcDbBlockReference
  2
ZS10SS-9
 10
170.93535172534081
 20
-50.647329752673798
 30
0.0
  0
INSERT
  5
467
100
AcDbEntity
  8
0
  6
ByBlock
100
AcDbBlockReference
  2
ZS10SS-10
 10
215.47807633471581
 20
-8.0973267009159855
 30
0.0
  0
INSERT
  5
468
100
AcDbEntity
  8
0
  6
ByBlock
100
AcDbBlockReference
  2
ZS10SS-11
 10
213.97815323963277
 20
-154.34198413473331
 30
0.0
  0
INSERT
  5
469
100
AcDbEntity
  8
0
  6
ByBlock
100
AcDbBlockReference
  2
ZS10SS-2
 10
170.93541337147573
 20
-154.3419688758631
 30
0.0
  0
INSERT
  5
46A
100
AcDbEntity
  8
0
  6
ByBlock
100
AcDbBlockReference
  2
ZS10SS-3
 10
213.97812272206167
 20
-106.74196277250272
 30
0.0
  0
MTEXT
  5
46B
100
AcDbEntity
  8
0
  6
CONTINUOUS
 62
               7
100
AcDbMText
 10
-268.26063837150065
 20
160.5
 30
0.0
 40
6.3000001907348633
 41
0.0
 71
               4
 72
               1
  1
\W1.085;\A1;MODEL:ZS10*80-SS2
  0
MTEXT
  5
46C
100
AcDbEntity
  8
0
  6
CONTINUOUS
 62
               7
100
AcDbMText
 10
-245.29403745956643
 20
185.5
 30
0.0
 40
6.3000001907348633
 41
0.0
 71
               4
 72
               1
  1
\W1.101;\A1;Z SLIDER
  0
MTEXT
  5
46D
100
AcDbEntity
  8
0
  6
CONTINUOUS
 62
               7
100
AcDbMText
 10
170.28101009431273
 20
-185.0
 30
0.0
 40
9.0
 41
0.0
 71
               4
 72
               1
  1
\W1.121;\A1;KOGANEI CORP.
  0
MTEXT
  5
46E
100
AcDbEntity
  8
0
  6
CONTINUOUS
 62
               7
100
AcDbMText
 10
198.31570519064027
 20
185.5
 30
0.0
 40
6.3000001907348633
 41
0.0
 71
               4
 72
               1
  1
\W1.348;\A1;Ver. 1.1
  0
LINE
  5
46F
100
AcDbEntity
  8
0
  6
CONTINUOUS
 62
               7
100
AcDbLine
 10
-161.25
 20
195.5
 30
0.0
 11
-161.25
 21
175.5
 31
0.0
  0
LINE
  5
470
100
AcDbEntity
  8
0
  6
CONTINUOUS
 62
               7
100
AcDbLine
 10
162.0999755859375
 20
195.5
 30
0.0
 11
162.0999755859375
 21
175.5
 31
0.0
  0
LINE
  5
471
100
AcDbEntity
  8
0
  6
CONTINUOUS
 62
               7
100
AcDbLine
 10
-281.25
 20
175.5
 30
0.0
 11
-161.25
 21
175.5
 31
0.0
  0
LINE
  5
472
100
AcDbEntity
  8
0
  6
CONTINUOUS
 62
               7
100
AcDbLine
 10
162.0999755859375
 20
175.5
 30
0.0
 11
282.099853515625
 21
175.5
 31
0.0
  0
LINE
  5
473
100
AcDbEntity
  8
0
  6
CONTINUOUS
 62
               7
100
AcDbLine
 10
162.0999755859375
 20
-175.0
 30
0.0
 11
282.099853515625
 21
-175.0
 31
0.0
  0
LINE
  5
474
100
AcDbEntity
  8
0
  6
CONTINUOUS
 62
               7
100
AcDbLine
 10
162.0999755859375
 20
-175.0
 30
0.0
 11
162.0999755859375
 21
-195.0
 31
0.0
  0
LINE
  5
475
100
AcDbEntity
  8
0
  6
CONTINUOUS
 62
               7
100
AcDbLine
 10
-281.25
 20
-195.0
 30
0.0
 11
282.099853515625
 21
-195.0
 31
0.0
  0
LINE
  5
476
100
AcDbEntity
  8
0
  6
CONTINUOUS
 62
               7
100
AcDbLine
 10
-281.25
 20
195.5
 30
0.0
 11
-281.25
 21
-195.0
 31
0.0
  0
LINE
  5
477
100
AcDbEntity
  8
0
  6
CONTINUOUS
 62
               7
100
AcDbLine
 10
-281.25
 20
195.5
 30
0.0
 11
282.099853515625
 21
195.5
 31
0.0
  0
LINE
  5
478
100
AcDbEntity
  8
0
  6
CONTINUOUS
 62
               7
100
AcDbLine
 10
282.099853515625
 20
195.5
 30
0.0
 11
282.099853515625
 21
-195.0
 31
0.0
  0
MTEXT
  5
479
100
AcDbEntity
  8
0
  6
CONTINUOUS
 62
               3
100
AcDbMText
 10
-24.839911764817671
 20
153.83699421965318
 30
0.0
 40
4.5
 41
0.0
 71
               4
 72
               1
  1
\W1.065;\A1;STRETCH LINE
  0
MTEXT
  5
47A
100
AcDbEntity
  8
0
  6
CONTINUOUS
 62
               2
100
AcDbMText
 10
-117.84525044425826
 20
146.34141581132207
 30
0.0
 40
4.5
 41
0.0
 71
               4
 72
               1
  1
\W1.286;\A1;ST:60,70,80,90,100
  0
LEADER
  5
481
100
AcDbEntity
  8
0
  6
CONTINUOUS
 62
               2
100
AcDbLeader
  3
MXDIMSTYLE
 73
               3
 74
               0
 75
               0
 40
0.0
 76
               3
 10
-14.98872832369932
 20
106.25372377895378
 30
0.0
 10
-35.445081052314322
 20
141.68516604974064
 30
0.0
 10
-117.84525042487292
 20
141.68516604974064
 30
0.0
 77
               2
1001
ACAD
1000
DSTYLE
1002
{
1070
               6
1000
_OPEN30
1070
               7
1000
_OPEN30
1070
              41
1040
2.77
1070
             173
1070
               1
1070
             341
1005
47B
1002
}
  0
MTEXT
  5
482
100
AcDbEntity
  8
0
  6
CONTINUOUS
 62
               2
100
AcDbMText
 10
-112.97663135074131
 20
-51.067220145940752
 30
0.0
 40
4.5
 41
0.0
 71
               4
 72
               1
  1
\W1.286;\A1;ST:60,70,80,90,100
  0
LEADER
  5
483
100
AcDbEntity
  8
0
  6
CONTINUOUS
 62
               2
100
AcDbLeader
  3
MXDIMSTYLE
 73
               3
 74
               0
 75
               0
 40
0.0
 76
               3
 10
-15.138728323699297
 20
-84.063554884960325
 30
0.0
 10
-31.500884014280246
 20
-55.723469907522173
 30
0.0
 10
-112.97663133135597
 20
-55.723469907522173
 30
0.0
 77
               2
1001
ACAD
1000
DSTYLE
1002
{
1070
               6
1000
_OPEN30
1070
               7
1000
_OPEN30
1070
              41
1040
2.77
1070
             173
1070
               1
1070
             341
1005
47B
1002
}
  0
MTEXT
  5
484
100
AcDbEntity
  8
0
  6
CONTINUOUS
 62
               7
100
AcDbMText
 10
-13.190000194549556
 20
-168.46697330588674
 30
0.0
 40
4.5
 41
0.0
 71
               4
 72
               1
  1
\W1.200;\A1;(mm)
  0
MTEXT
  5
485
100
AcDbEntity
  8
0
  6
CONTINUOUS
 62
               7
100
AcDbMText
 10
-149.4511834411183
 20
-169.40536178445137
 30
0.0
 40
4.5
 41
0.0
 71
               4
 72
               1
  1
\W1.065;\A1;STRETCH LIST
  0
MTEXT
  5
486
100
AcDbEntity
  8
0
  6
CONTINUOUS
 62
               7
100
AcDbMText
 10
-14.431818172211736
 20
-186.00000002459743
 30
0.0
 40
4.5
 41
0.0
 71
               4
 72
               1
  1
\W1.091;\A1;20
  0
LINE
  5
487
100
AcDbEntity
  8
0
  6
CONTINUOUS
 62
               7
100
AcDbLine
 10
2.75
 20
-190.00000002459743
 30
0.0
 11
2.75
 21
-174.00000002459743
 31
0.0
  0
LINE
  5
488
100
AcDbEntity
  8
0
  6
CONTINUOUS
 62
               7
100
AcDbLine
 10
-276.25
 20
-190.00000002459743
 30
0.0
 11
2.75
 21
-190.00000002459743
 31
0.0
  0
LINE
  5
489
100
AcDbEntity
  8
0
  6
CONTINUOUS
 62
               7
100
AcDbLine
 10
-276.25
 20
-182.00000002459743
 30
0.0
 11
2.75
 21
-182.00000002459743
 31
0.0
  0
LINE
  5
48A
100
AcDbEntity
  8
0
  6
CONTINUOUS
 62
               7
100
AcDbLine
 10
-276.25
 20
-174.00000002459743
 30
0.0
 11
2.75
 21
-174.00000002459743
 31
0.0
  0
LINE
  5
48B
100
AcDbEntity
  8
0
  6
CONTINUOUS
 62
               7
100
AcDbLine
 10
-276.25
 20
-190.00000002459743
 30
0.0
 11
-276.25
 21
-174.0
 31
0.0
  0
LINE
  5
48C
100
AcDbEntity
  8
0
  6
CONTINUOUS
 62
               7
100
AcDbLine
 10
-240.25
 20
-190.00000002459743
 30
0.0
 11
-240.25
 21
-174.0
 31
0.0
  0
LINE
  5
48D
100
AcDbEntity
  8
0
  6
CONTINUOUS
 62
               7
100
AcDbLine
 10
-213.25
 20
-190.00000002459743
 30
0.0
 11
-213.25
 21
-174.0
 31
0.0
  0
LINE
  5
48E
100
AcDbEntity
  8
0
  6
CONTINUOUS
 62
               7
100
AcDbLine
 10
-186.25
 20
-190.00000002459743
 30
0.0
 11
-186.25
 21
-174.0
 31
0.0
  0
LINE
  5
48F
100
AcDbEntity
  8
0
  6
CONTINUOUS
 62
               7
100
AcDbLine
 10
-159.25
 20
-190.00000002459743
 30
0.0
 11
-159.25
 21
-174.0
 31
0.0
  0
LINE
  5
490
100
AcDbEntity
  8
0
  6
CONTINUOUS
 62
               7
100
AcDbLine
 10
-132.25
 20
-190.00000002459743
 30
0.0
 11
-132.25
 21
-174.0
 31
0.0
  0
LINE
  5
491
100
AcDbEntity
  8
0
  6
CONTINUOUS
 62
               7
100
AcDbLine
 10
-105.25
 20
-190.00000002459743
 30
0.0
 11
-105.25
 21
-174.0
 31
0.0
  0
LINE
  5
492
100
AcDbEntity
  8
0
  6
CONTINUOUS
 62
               7
100
AcDbLine
 10
-78.25
 20
-190.00000002459743
 30
0.0
 11
-78.25
 21
-174.0
 31
0.0
  0
LINE
  5
493
100
AcDbEntity
  8
0
  6
CONTINUOUS
 62
               7
100
AcDbLine
 10
-51.25
 20
-190.00000002459743
 30
0.0
 11
-51.25
 21
-174.0
 31
0.0
  0
LINE
  5
494
100
AcDbEntity
  8
0
  6
CONTINUOUS
 62
               7
100
AcDbLine
 10
-24.25
 20
-190.00000002459743
 30
0.0
 11
-24.25
 21
-174.00000002459743
 31
0.0
  0
MTEXT
  5
495
100
AcDbEntity
  8
0
  6
CONTINUOUS
 62
               7
100
AcDbMText
 10
-271.0
 20
-178.00000002459743
 30
0.0
 40
4.5
 41
0.0
 71
               4
 72
               1
  1
\A1;STROKE
  0
MTEXT
  5
496
100
AcDbEntity
  8
0
  6
CONTINUOUS
 62
               7
100
AcDbMText
 10
-203.43181817221173
 20
-178.00000002459743
 30
0.0
 40
4.5
 41
0.0
 71
               4
 72
               1
  1
\W1.091;\A1;30
  0
MTEXT
  5
497
100
AcDbEntity
  8
0
  6
CONTINUOUS
 62
               7
100
AcDbMText
 10
-176.43181817221173
 20
-178.00000002459743
 30
0.0
 40
4.5
 41
0.0
 71
               4
 72
               1
  1
\W1.091;\A1;40
  0
MTEXT
  5
498
100
AcDbEntity
  8
0
  6
CONTINUOUS
 62
               7
100
AcDbMText
 10
-273.25
 20
-186.00000002459743
 30
0.0
 40
4.5
 41
0.0
 71
               4
 72
               1
  1
\A1;STRETCH
  0
MTEXT
  5
499
100
AcDbEntity
  8
0
  6
CONTINUOUS
 62
               1
100
AcDbMText
 10
-149.43181817221173
 20
-178.0000000122987
 30
0.0
 40
4.5
 41
0.0
 71
               4
 72
               1
  1
\W1.091;\A1;50
  0
MTEXT
  5
49A
100
AcDbEntity
  8
0
  6
CONTINUOUS
 62
               1
100
AcDbMText
 10
-124.52894755816274
 20
-178.00000002459743
 30
0.0
 40
4.5
 41
0.0
 71
               4
 72
               1
  1
\W1.263;\A1;(60)
  0
MTEXT
  5
49B
100
AcDbEntity
  8
0
  6
CONTINUOUS
 62
               1
100
AcDbMText
 10
-70.528947558162741
 20
-177.99999998770124
 30
0.0
 40
4.5
 41
0.0
 71
               4
 72
               1
  1
\W1.263;\A1;(80)
  0
MTEXT
  5
49C
100
AcDbEntity
  8
0
  6
CONTINUOUS
 62
               7
100
AcDbMText
 10
-41.250000033113693
 20
-186.00000002459743
 30
0.0
 40
4.5
 41
0.0
 71
               4
 72
               1
  1
\W1.333;\A1;10
  0
MTEXT
  5
49D
100
AcDbEntity
  8
0
  6
CONTINUOUS
 62
               7
100
AcDbMText
 10
-271.0
 20
-178.00000002459743
 30
0.0
 40
4.5
 41
0.0
 71
               4
 72
               1
  1
\A1;STROKE
  0
MTEXT
  5
49E
100
AcDbEntity
  8
0
  6
CONTINUOUS
 62
               7
100
AcDbMText
 10
-230.43181817221173
 20
-178.00000002459743
 30
0.0
 40
4.5
 41
0.0
 71
               4
 72
               1
  1
\W1.091;\A1;20
  0
MTEXT
  5
49F
100
AcDbEntity
  8
0
  6
CONTINUOUS
 62
               7
100
AcDbMText
 10
-232.70588234180306
 20
-186.00000002459743
 30
0.0
 40
4.5
 41
0.0
 71
               4
 72
               1
  1
\W1.059;\A1;-60
  0
MTEXT
  5
4A0
100
AcDbEntity
  8
0
  6
CONTINUOUS
 62
               7
100
AcDbMText
 10
-273.25
 20
-186.00000002459743
 30
0.0
 40
4.5
 41
0.0
 71
               4
 72
               1
  1
\A1;STRETCH
  0
MTEXT
  5
4A1
100
AcDbEntity
  8
0
  6
CONTINUOUS
 62
               1
100
AcDbMText
 10
-97.528947558162741
 20
-177.99999997540252
 30
0.0
 40
4.5
 41
0.0
 71
               4
 72
               1
  1
\W1.263;\A1;(70)
  0
MTEXT
  5
4A2
100
AcDbEntity
  8
0
  6
CONTINUOUS
 62
               1
100
AcDbMText
 10
-43.528947558162727
 20
-178.00000006149361
 30
0.0
 40
4.5
 41
0.0
 71
               4
 72
               1
  1
\W1.263;\A1;(90)
  0
MTEXT
  5
4A3
100
AcDbEntity
  8
0
  6
CONTINUOUS
 62
               1
100
AcDbMText
 10
-18.522727430167375
 20
-178.0000000122987
 30
0.0
 40
4.5
 41
0.0
 71
               4
 72
               1
  1
\W1.364;\A1;(100)
  0
MTEXT
  5
4A4
100
AcDbEntity
  8
0
  6
CONTINUOUS
 62
               7
100
AcDbMText
 10
-205.70588234180306
 20
-186.00000002459743
 30
0.0
 40
4.5
 41
0.0
 71
               4
 72
               1
  1
\W1.059;\A1;-50
  0
MTEXT
  5
4A5
100
AcDbEntity
  8
0
  6
CONTINUOUS
 62
               7
100
AcDbMText
 10
-178.70588234180306
 20
-186.00000002459743
 30
0.0
 40
4.5
 41
0.0
 71
               4
 72
               1
  1
\W1.059;\A1;-40
  0
MTEXT
  5
4A6
100
AcDbEntity
  8
0
  6
CONTINUOUS
 62
               7
100
AcDbMText
 10
-151.70588234180306
 20
-186.00000002459743
 30
0.0
 40
4.5
 41
0.0
 71
               4
 72
               1
  1
\W1.059;\A1;-30
  0
MTEXT
  5
4A7
100
AcDbEntity
  8
0
  6
CONTINUOUS
 62
               7
100
AcDbMText
 10
-124.70588234180305
 20
-186.00000002459743
 30
0.0
 40
4.5
 41
0.0
 71
               4
 72
               1
  1
\W1.059;\A1;-20
  0
MTEXT
  5
4A8
100
AcDbEntity
  8
0
  6
CONTINUOUS
 62
               7
100
AcDbMText
 10
-97.600000035762775
 20
-186.00000002459743
 30
0.0
 40
4.5
 41
0.0
 71
               4
 72
               1
  1
\W1.200;\A1;-10
  0
MTEXT
  5
4A9
100
AcDbEntity
  8
0
  6
CONTINUOUS
 62
               7
100
AcDbMText
 10
-66.099999992847444
 20
-186.00000002459743
 30
0.0
 40
4.5
 41
0.0
 71
               4
 72
               1
  1
\W1.200;\A1;0
  0
MTEXT
  5
4AA
100
AcDbEntity
  8
0
  6
CONTINUOUS
 62
               7
100
AcDbMText
 10
125.76578268761037
 20
20.0
 30
0.0
 40
4.5
 41
0.0
 71
               4
 72
               1
  1
\W1.221;\A1;MODEL:ZE135,155,102,101
  0
LINE
  5
4AB
100
AcDbEntity
  8
0
  6
CONTINUOUS
 62
               7
100
AcDbLine
 10
122.099853515625
 20
25.0
 30
0.0
 11
282.099853515625
 21
25.0
 31
0.0
  0
LINE
  5
4AC
100
AcDbEntity
  8
0
  6
CONTINUOUS
 62
               7
100
AcDbLine
 10
122.099853515625
 20
-195.0
 30
0.0
 11
122.099853515625
 21
25.0
 31
0.0
  0
LINE
  5
4AD
100
AcDbEntity
  8
0
  6
CONTINUOUS
 62
               7
100
AcDbLine
 10
122.099853515625
 20
-75.0
 30
0.0
 11
282.099853515625
 21
-75.0
 31
0.0
  0
MTEXT
  5
4AE
100
AcDbEntity
  8
0
  6
CONTINUOUS
 62
               7
100
AcDbMText
 10
125.7052254392147
 20
-80.0
 30
0.0
 40
4.5
 41
0.0
 71
               4
 72
               1
  1
\W1.140;\A1;MODEL:ZE235,255,202,201
  0
ENDSEC
  0
SECTION
  2
OBJECTS
  0
DICTIONARY
  5
19
100
AcDbDictionary
  3
ACAD_GROUP
350
1A
  3
ACAD_MLINESTYLE
350
1B
  0
DICTIONARY
  5
1A
102
{ACAD_REACTORS
330
19
102
}
100
AcDbDictionary
  0
DICTIONARY
  5
1B
102
{ACAD_REACTORS
330
19
102
}
100
AcDbDictionary
  3
STANDARD
350
1C
  0
MLINESTYLE
  5
1C
102
{ACAD_REACTORS
330
1B
102
}
100
AcDbMlineStyle
  2
Standard
 70
               0
  3

 62
               0
 51
90.0
 52
90.0
 71
               2
 49
0.5
 62
             256
  6
ByLayer
 49
-0.5
 62
             256
  6
ByLayer
  0
ENDSEC
  0
EOF
