  0
SECTION
  2
HEADER
  9
$ACADVER
  1
AC1012
  9
$DWGCODEPAGE
  3
dos932
  9
$INSBASE
 10
0.0
 20
0.0
 30
0.0
  9
$EXTMIN
 10
-281.25
 20
-195.0
 30
0.0
  9
$EXTMAX
 10
285.63191774774975
 20
195.5
 30
0.0
  9
$LIMMIN
 10
-281.25
 20
-195.0
  9
$LIMMAX
 10
285.63191774774975
 20
195.5
  9
$ORTHOMODE
 70
               0
  9
$REGENMODE
 70
               1
  9
$FILLMODE
 70
               1
  9
$QTEXTMODE
 70
               0
  9
$MIRRTEXT
 70
               1
  9
$DRAGMODE
 70
               2
  9
$LTSCALE
 40
1.0
  9
$OSMODE
 70
               0
  9
$ATTMODE
 70
               1
  9
$TEXTSIZE
 40
3.2000000476837158
  9
$TRACEWID
 40
0.05
  9
$TEXTSTYLE
  7
MX_NOTE_STANDARD
  9
$CLAYER
  8
0
  9
$CELTYPE
  6
CONTINUOUS
  9
$CECOLOR
 62
             256
  9
$CELTSCALE
 40
1.0
  9
$DELOBJ
 70
               1
  9
$DISPSILH
 70
               0
  9
$DIMSCALE
 40
1.0
  9
$DIMASZ
 40
2.5
  9
$DIMEXO
 40
1.5
  9
$DIMDLI
 40
3.75
  9
$DIMRND
 40
0.0
  9
$DIMDLE
 40
0.0
  9
$DIMEXE
 40
1.5
  9
$DIMTP
 40
0.0
  9
$DIMTM
 40
0.0
  9
$DIMTXT
 40
3.2000000476837158
  9
$DIMCEN
 40
2.5
  9
$DIMTSZ
 40
0.0
  9
$DIMTOL
 70
               0
  9
$DIMLIM
 70
               0
  9
$DIMTIH
 70
               0
  9
$DIMTOH
 70
               0
  9
$DIMSE1
 70
               0
  9
$DIMSE2
 70
               0
  9
$DIMTAD
 70
               1
  9
$DIMZIN
 70
               8
  9
$DIMBLK
  1

  9
$DIMASO
 70
               1
  9
$DIMSHO
 70
               1
  9
$DIMPOST
  1

  9
$DIMAPOST
  1

  9
$DIMALT
 70
               0
  9
$DIMALTD
 70
               4
  9
$DIMALTF
 40
0.03937007874016
  9
$DIMLFAC
 40
1.0
  9
$DIMTOFL
 70
               1
  9
$DIMTVP
 40
0.0
  9
$DIMTIX
 70
               0
  9
$DIMSOXD
 70
               0
  9
$DIMSAH
 70
               0
  9
$DIMBLK1
  1

  9
$DIMBLK2
  1

  9
$DIMSTYLE
  2
MXDIMSTYLE
  9
$DIMCLRD
 70
               0
  9
$DIMCLRE
 70
               0
  9
$DIMCLRT
 70
               0
  9
$DIMTFAC
 40
1.0
  9
$DIMGAP
 40
1.0
  9
$DIMJUST
 70
               0
  9
$DIMSD1
 70
               0
  9
$DIMSD2
 70
               0
  9
$DIMTOLJ
 70
               1
  9
$DIMTZIN
 70
               0
  9
$DIMALTZ
 70
               0
  9
$DIMALTTZ
 70
               0
  9
$DIMFIT
 70
               3
  9
$DIMUPT
 70
               1
  9
$DIMUNIT
 70
               2
  9
$DIMDEC
 70
               4
  9
$DIMTDEC
 70
               4
  9
$DIMALTU
 70
               2
  9
$DIMALTTD
 70
               4
  9
$DIMTXSTY
  7
MX_NOTE_STANDARD
  9
$DIMAUNIT
 70
               0
  9
$LUNITS
 70
               2
  9
$LUPREC
 70
               4
  9
$SKETCHINC
 40
0.1
  9
$FILLETRAD
 40
0.0
  9
$AUNITS
 70
               0
  9
$AUPREC
 70
               0
  9
$MENU
  1
acad
  9
$ELEVATION
 40
0.0
  9
$PELEVATION
 40
0.0
  9
$THICKNESS
 40
0.0
  9
$LIMCHECK
 70
               0
  9
$BLIPMODE
 70
               1
  9
$CHAMFERA
 40
0.0
  9
$CHAMFERB
 40
0.0
  9
$CHAMFERC
 40
0.0
  9
$CHAMFERD
 40
0.0
  9
$SKPOLY
 70
               0
  9
$TDCREATE
 40
2453378.356863426
  9
$TDUPDATE
 40
2453378.356863426
  9
$TDINDWG
 40
0.0000000000
  9
$TDUSRTIMER
 40
0.0000000000
  9
$USRTIMER
 70
               1
  9
$ANGBASE
 50
0.0
  9
$ANGDIR
 70
               0
  9
$PDMODE
 70
               0
  9
$PDSIZE
 40
0.0
  9
$PLINEWID
 40
0.0
  9
$COORDS
 70
               1
  9
$SPLFRAME
 70
               0
  9
$SPLINETYPE
 70
               6
  9
$SPLINESEGS
 70
               8
  9
$ATTDIA
 70
               0
  9
$ATTREQ
 70
               1
  9
$HANDLING
 70
               1
  9
$HANDSEED
  5
4BC
  9
$SURFTAB1
 70
               6
  9
$SURFTAB2
 70
               6
  9
$SURFTYPE
 70
               6
  9
$SURFU
 70
               6
  9
$SURFV
 70
               6
  9
$UCSNAME
  2

  9
$UCSORG
 10
0.0
 20
0.0
 30
0.0
  9
$UCSXDIR
 10
1.0
 20
0.0
 30
0.0
  9
$UCSYDIR
 10
0.0
 20
1.0
 30
0.0
  9
$PUCSNAME
  2

  9
$PUCSORG
 10
0.0
 20
0.0
 30
0.0
  9
$PUCSXDIR
 10
1.0
 20
0.0
 30
0.0
  9
$PUCSYDIR
 10
0.0
 20
1.0
 30
0.0
  9
$USERI1
 70
               0
  9
$USERI2
 70
               0
  9
$USERI3
 70
               0
  9
$USERI4
 70
               0
  9
$USERI5
 70
               0
  9
$USERR1
 40
0.0
  9
$USERR2
 40
0.0
  9
$USERR3
 40
0.0
  9
$USERR4
 40
0.0
  9
$USERR5
 40
0.0
  9
$WORLDVIEW
 70
               1
  9
$SHADEDGE
 70
               3
  9
$SHADEDIF
 70
              70
  9
$TILEMODE
 70
               1
  9
$MAXACTVP
 70
              16
  9
$PINSBASE
 10
0.0
 20
0.0
 30
0.0
  9
$PLIMCHECK
 70
               0
  9
$PEXTMIN
 10
1.0000000000000000E+20
 20
1.0000000000000000E+20
 30
1.0000000000000000E+20
  9
$PEXTMAX
 10
-1.0000000000000000E+20
 20
-1.0000000000000000E+20
 30
-1.0000000000000000E+20
  9
$PLIMMIN
 10
0.0
 20
0.0
  9
$PLIMMAX
 10
12.0
 20
9.0
  9
$UNITMODE
 70
               0
  9
$VISRETAIN
 70
               0
  9
$PLINEGEN
 70
               1
  9
$PSLTSCALE
 70
               0
  9
$TREEDEPTH
 70
            3020
  9
$PICKSTYLE
 70
               1
  9
$CMLSTYLE
  2
Standard
  9
$CMLJUST
 70
               0
  9
$CMLSCALE
 40
1.0
  9
$SAVEIMAGES
 70
               0
  0
ENDSEC
  0
SECTION
  2
CLASSES
  0
CLASS
  1
LWPOLYLINE
  2
AcDbPolyline
  3
"AutoCAD"
 90
        0
280
               0
281
               1
  0
CLASS
  1
IMAGE
  2
AcDbRasterImage
  3
ISM
 90
      127
280
               0
281
               1
  0
CLASS
  1
OLE2FRAME
  2
AcDbOle2Frame
  3
""
 90
        0
280
               0
281
               1
  0
CLASS
  1
HATCH
  2
AcDbHatch
  3
"ACAD_SEDONA"
 90
        0
280
               0
281
               1
  0
CLASS
  1
DICTIONARYVAR
  2
AcDbDictionaryVar
  3
"AutoCAD"
 90
        0
280
               0
281
               0
  0
CLASS
  1
RASTERVARIABLES
  2
AcDbRasterVariables
  3
ISM
 90
        0
280
               0
281
               0
  0
CLASS
  1
IMAGEDEF
  2
AcDbRasterImageDef
  3
ISM
 90
        0
280
               0
281
               0
  0
CLASS
  1
IMAGEDEF_REACTOR
  2
AcDbRasterImageDefReactor
  3
ISM
 90
        1
280
               0
281
               0
  0
CLASS
  1
IDBUFFER
  2
AcDbIdBuffer
  3
"Acad"
 90
        0
280
               0
281
               0
  0
CLASS
  1
SPATIAL_FILTER
  2
AcDbSpatialFilter
  3
"Acad"
 90
        0
280
               0
281
               0
  0
CLASS
  1
XRECORD
  2
AcDbXrecord
  3
"<Built In>"
 90
        0
280
               0
281
               0
  0
CLASS
  1
SORTENTSTABLE
  2
AcDbSortentsTable
  3
"AutoCAD"
 90
        0
280
               0
281
               0
  0
CLASS
  1
LAYER_INDEX
  2
AcDbLayerIndex
  3
"Acad"
 90
        0
280
               0
281
               0
  0
CLASS
  1
SPATIAL_INDEX
  2
AcDbSpatialIndex
  3
"Acad"
 90
        0
280
               0
281
               0
  0
CLASS
  1
OBJECT_PTR
  2
CAseDLPNTableRecord
  3
"ASE-LPNTableRecord"
 90
        1
280
               0
281
               0
  0
CLASS
  1
LAYOUT
  2
AcDbLayout
  3
"AutoCAD 2000"
 90
        1
280
               0
281
               0
  0
CLASS
  1
PLOTSETTINGS
  2
AcDbPlotSettings
  3
"AutoCAD 2000"
 90
        1
280
               0
281
               0
  0
CLASS
  1
ACDBDICTIONARYWDFLT
  2
AcDbDictionaryWithDefault
  3
"AutoCAD 2000"
 90
        1
280
               0
281
               0
  0
CLASS
  1
ACDBPLACEHOLDER
  2
AcDbPlaceHolder
  3
"AutoCAD 2000"
 90
        1
280
               0
281
               0
  0
ENDSEC
  0
SECTION
  2
TABLES
  0
TABLE
  2
VPORT
  5
7
100
AcDbSymbolTable
 70
               1
  0
VPORT
  5
15
100
AcDbSymbolTableRecord
100
AcDbViewportTableRecord
  2
*ACTIVE
 70
               0
 10
0.0
 20
0.0
 11
1.0
 21
1.0
 12
2.1909588738748766
 22
0.25
 13
0.0
 23
0.0
 14
1.0
 24
1.0
 15
0.0
 25
0.0
 16
0.0
 26
0.0
 36
1.0
 17
0.0
 27
0.0
 37
0.0
 40
394.40500000000003
 41
1.7320508075688772
 42
50.0
 43
0.0
 44
0.0
 50
0.0
 51
0.0
 71
               0
 72
             100
 73
               1
 74
               1
 75
               0
 76
               0
 77
               0
 78
               0
  0
ENDTAB
  0
TABLE
  2
LTYPE
  5
4
100
AcDbSymbolTable
 70
               5
  0
LTYPE
  5
11
100
AcDbSymbolTableRecord
100
AcDbLinetypeTableRecord
  2
BYBLOCK
 70
              64
  3

 72
              65
 73
               0
 40
0.0
  0
LTYPE
  5
12
100
AcDbSymbolTableRecord
100
AcDbLinetypeTableRecord
  2
BYLAYER
 70
              64
  3

 72
              65
 73
               0
 40
0.0
  0
LTYPE
  5
13
100
AcDbSymbolTableRecord
100
AcDbLinetypeTableRecord
  2
CONTINUOUS
 70
              64
  3
Solid line
 72
              65
 73
               0
 40
0.0
  0
LTYPE
  5
2A
100
AcDbSymbolTableRecord
100
AcDbLinetypeTableRecord
  2
PHANTOM
 70
              64
  3
Phantom ______  __  __  ______  __  __  ______
 72
              65
 73
               6
 40
30.0
 49
20.0
 74
               0
 49
-2.0
 74
               0
 49
2.0
 74
               0
 49
-2.0
 74
               0
 49
2.0
 74
               0
 49
-2.0
 74
               0
  0
LTYPE
  5
57
100
AcDbSymbolTableRecord
100
AcDbLinetypeTableRecord
  2
CENTER
 70
              64
  3
Center ____ _ ____ _ ____ _ ____ _ ____ _ ____
 72
              65
 73
               4
 40
26.0
 49
20.0
 74
               0
 49
-2.0
 74
               0
 49
2.0
 74
               0
 49
-2.0
 74
               0
  0
ENDTAB
  0
TABLE
  2
LAYER
  5
2
100
AcDbSymbolTable
 70
               2
  0
LAYER
  5
14
100
AcDbSymbolTableRecord
100
AcDbLayerTableRecord
  2
0
 70
               0
 62
               7
  6
CONTINUOUS
  0
LAYER
  5
1D
100
AcDbSymbolTableRecord
100
AcDbLayerTableRecord
  2
DEFPOINTS
 70
               0
 62
               7
  6
CONTINUOUS
  0
ENDTAB
  0
TABLE
  2
STYLE
  5
3
100
AcDbSymbolTable
 70
               1
  0
STYLE
  5
17
100
AcDbSymbolTableRecord
100
AcDbTextStyleTableRecord
  2
MX_NOTE_STANDARD
 70
               0
 40
0.0
 41
1.0
 50
0.0
 71
               0
 42
3.2000000476837158
  3
txt.shx
  4
extfont.shx
  0
ENDTAB
  0
TABLE
  2
VIEW
  5
5
100
AcDbSymbolTable
 70
               0
  0
ENDTAB
  0
TABLE
  2
UCS
  5
6
100
AcDbSymbolTable
 70
               0
  0
ENDTAB
  0
TABLE
  2
APPID
  5
8
100
AcDbSymbolTable
 70
               1
  0
APPID
  5
16
100
AcDbSymbolTableRecord
100
AcDbRegAppTableRecord
  2
ACAD
 70
               0
  0
ENDTAB
  0
TABLE
  2
DIMSTYLE
  5
9
100
AcDbSymbolTable
 70
               1
  0
DIMSTYLE
105
18
100
AcDbSymbolTableRecord
100
AcDbDimStyleTableRecord
  2
MXDIMSTYLE
 70
               0
  3

  4

  5

  6

  7

 40
1.0
 41
2.5
 42
1.5
 43
3.75
 44
1.5
 45
0.0
 46
0.0
 47
0.0
 48
0.0
 71
               0
 72
               0
 73
               0
 74
               0
 75
               0
 76
               0
 77
               1
 78
               8
140
3.2000000476837158
141
2.5
142
0.0
143
0.03937007874016
144
1.0
145
0.0
146
1.0
147
1.0
170
               0
171
               4
172
               1
173
               0
174
               0
175
               0
176
               0
177
               0
178
               0
270
               2
271
               4
272
               4
273
               2
274
               4
275
               0
280
               0
281
               0
282
               0
283
               1
284
               0
285
               0
286
               0
287
               3
288
               1
340
17
  0
ENDTAB
  0
TABLE
  2
BLOCK_RECORD
  5
1
100
AcDbSymbolTable
 70
              12
  0
BLOCK_RECORD
  5
A
100
AcDbSymbolTableRecord
100
AcDbBlockTableRecord
  2
*MODEL_SPACE
  0
BLOCK_RECORD
  5
B
100
AcDbSymbolTableRecord
100
AcDbBlockTableRecord
  2
*PAPER_SPACE
  0
BLOCK_RECORD
  5
1E
100
AcDbSymbolTableRecord
100
AcDbBlockTableRecord
  2
ZS16SS-1
  0
BLOCK_RECORD
  5
1F
100
AcDbSymbolTableRecord
100
AcDbBlockTableRecord
  2
ZS16SS-2
  0
BLOCK_RECORD
  5
20
100
AcDbSymbolTableRecord
100
AcDbBlockTableRecord
  2
ZS16SS-3
  0
BLOCK_RECORD
  5
21
100
AcDbSymbolTableRecord
100
AcDbBlockTableRecord
  2
ZS16SS-4
  0
BLOCK_RECORD
  5
22
100
AcDbSymbolTableRecord
100
AcDbBlockTableRecord
  2
ZS16SS-5
  0
BLOCK_RECORD
  5
23
100
AcDbSymbolTableRecord
100
AcDbBlockTableRecord
  2
ZS16SS-6
  0
BLOCK_RECORD
  5
24
100
AcDbSymbolTableRecord
100
AcDbBlockTableRecord
  2
ZS16SS-7
  0
BLOCK_RECORD
  5
25
100
AcDbSymbolTableRecord
100
AcDbBlockTableRecord
  2
ZS16SS-8
  0
BLOCK_RECORD
  5
26
100
AcDbSymbolTableRecord
100
AcDbBlockTableRecord
  2
ZS16SS-9
  0
BLOCK_RECORD
  5
27
100
AcDbSymbolTableRecord
100
AcDbBlockTableRecord
  2
ZS16SS-10
  0
BLOCK_RECORD
  5
28
100
AcDbSymbolTableRecord
100
AcDbBlockTableRecord
  2
ZS16SS-11
  0
BLOCK_RECORD
  5
486
100
AcDbSymbolTableRecord
100
AcDbBlockTableRecord
  2
_OPEN30
  0
ENDTAB
  0
ENDSEC
  0
SECTION
  2
BLOCKS
  0
BLOCK
  5
D
100
AcDbEntity
  8
0
100
AcDbBlockBegin
  2
*MODEL_SPACE
 70
               0
 10
0.0
 20
0.0
 30
0.0
  3
*MODEL_SPACE
  1

  0
ENDBLK
  5
E
100
AcDbEntity
  8
0
100
AcDbBlockEnd
  0
BLOCK
  5
F
100
AcDbEntity
 67
               1
  8
0
100
AcDbBlockBegin
  2
*PAPER_SPACE
 70
               0
 10
0.0
 20
0.0
 30
0.0
  3
*PAPER_SPACE
  1

  0
ENDBLK
  5
10
100
AcDbEntity
 67
               1
  8
0
100
AcDbBlockEnd
  0
BLOCK
  5
29
100
AcDbEntity
  8
0
100
AcDbBlockBegin
  2
ZS16SS-1
 70
               0
 10
0.0
 20
0.0
 30
0.0
  3
ZS16SS-1
  1

  0
LINE
  5
2B
100
AcDbEntity
  8
0
  6
PHANTOM
 62
               3
100
AcDbLine
 10
129.50000000000006
 20
62.05551362713291
 30
0.0
 11
129.50000000000006
 21
-65.999999999999972
 31
0.0
  0
LINE
  5
2C
100
AcDbEntity
  8
0
  6
CONTINUOUS
 62
               7
100
AcDbLine
 10
150.00000000000017
 20
-22.5
 30
0.0
 11
150.00000000000017
 21
-39.999999999999986
 31
0.0
  0
LINE
  5
2D
100
AcDbEntity
  8
0
  6
CONTINUOUS
 62
               4
100
AcDbLine
 10
143.99999999999994
 20
-22.5
 30
0.0
 11
143.99999999999994
 21
-19.499999999999986
 31
0.0
  0
LINE
  5
2E
100
AcDbEntity
  8
0
  6
CONTINUOUS
 62
               4
100
AcDbLine
 10
152.00000000000017
 20
-16.749999999999986
 30
0.0
 11
152.00000000000017
 21
-25.249999999999986
 31
0.0
  0
LINE
  5
2F
100
AcDbEntity
  8
0
  6
CONTINUOUS
 62
               4
100
AcDbLine
 10
143.99999999999994
 20
-19.499999999999986
 30
0.0
 11
152.00000000000017
 21
-19.499999999999986
 31
0.0
  0
LINE
  5
30
100
AcDbEntity
  8
0
  6
CONTINUOUS
 62
               4
100
AcDbLine
 10
152.00000000000017
 20
-16.749999999999986
 30
0.0
 11
152.99999999999994
 21
-16.749999999999986
 31
0.0
  0
LINE
  5
31
100
AcDbEntity
  8
0
  6
CONTINUOUS
 62
               4
100
AcDbLine
 10
152.00000000000017
 20
-25.249999999999986
 30
0.0
 11
152.99999999999994
 21
-25.249999999999986
 31
0.0
  0
LINE
  5
32
100
AcDbEntity
  8
0
  6
CONTINUOUS
 62
               4
100
AcDbLine
 10
143.99999999999994
 20
-22.5
 30
0.0
 11
152.00000000000017
 21
-22.5
 31
0.0
  0
LINE
  5
33
100
AcDbEntity
  8
0
  6
CONTINUOUS
 62
               4
100
AcDbLine
 10
188.99999999999994
 20
4.25
 30
0.0
 11
188.99999999999994
 21
3.0000000000000142
 31
0.0
  0
LINE
  5
34
100
AcDbEntity
  8
0
  6
CONTINUOUS
 62
               4
100
AcDbLine
 10
183.00000000000017
 20
4.25
 30
0.0
 11
183.00000000000017
 21
-4.25
 31
0.0
  0
LINE
  5
35
100
AcDbEntity
  8
0
  6
CONTINUOUS
 62
               4
100
AcDbLine
 10
183.00000000000017
 20
4.25
 30
0.0
 11
188.99999999999994
 21
4.25
 31
0.0
  0
LINE
  5
36
100
AcDbEntity
  8
0
  6
CONTINUOUS
 62
               4
100
AcDbLine
 10
183.00000000000017
 20
4.25
 30
0.0
 11
182.25000000000017
 21
5.0000000000000142
 31
0.0
  0
LINE
  5
37
100
AcDbEntity
  8
0
  6
CONTINUOUS
 62
               4
100
AcDbLine
 10
182.25000000000017
 20
5.0000000000000142
 30
0.0
 11
182.25000000000017
 21
-5.0
 31
0.0
  0
LINE
  5
38
100
AcDbEntity
  8
0
  6
CONTINUOUS
 62
               4
100
AcDbLine
 10
183.00000000000017
 20
-4.25
 30
0.0
 11
188.99999999999994
 21
-4.25
 31
0.0
  0
LINE
  5
39
100
AcDbEntity
  8
0
  6
CONTINUOUS
 62
               4
100
AcDbLine
 10
188.99999999999994
 20
-4.25
 30
0.0
 11
188.99999999999994
 21
-3.0
 31
0.0
  0
LINE
  5
3A
100
AcDbEntity
  8
0
  6
CONTINUOUS
 62
               4
100
AcDbLine
 10
183.00000000000017
 20
-4.25
 30
0.0
 11
182.25000000000017
 21
-5.0
 31
0.0
  0
LINE
  5
3B
100
AcDbEntity
  8
0
  6
CONTINUOUS
 62
               4
100
AcDbLine
 10
182.00000000000017
 20
-25.249999999999986
 30
0.0
 11
181.25000000000017
 21
-26.0
 31
0.0
  0
LINE
  5
3C
100
AcDbEntity
  8
0
  6
CONTINUOUS
 62
               4
100
AcDbLine
 10
188.00000000000017
 20
-25.249999999999986
 30
0.0
 11
188.00000000000017
 21
-24.0
 31
0.0
  0
LINE
  5
3D
100
AcDbEntity
  8
0
  6
CONTINUOUS
 62
               4
100
AcDbLine
 10
188.00000000000017
 20
-24.0
 30
0.0
 11
191.72168783648698
 21
-24.0
 31
0.0
  0
LINE
  5
3E
100
AcDbEntity
  8
0
  6
CONTINUOUS
 62
               4
100
AcDbLine
 10
182.00000000000017
 20
-25.249999999999986
 30
0.0
 11
188.00000000000017
 21
-25.249999999999986
 31
0.0
  0
LINE
  5
3F
100
AcDbEntity
  8
0
  6
CONTINUOUS
 62
               4
100
AcDbLine
 10
181.25000000000017
 20
-15.999999999999986
 30
0.0
 11
181.25000000000017
 21
-26.0
 31
0.0
  0
LINE
  5
40
100
AcDbEntity
  8
0
  6
CONTINUOUS
 62
               4
100
AcDbLine
 10
182.00000000000017
 20
-16.749999999999986
 30
0.0
 11
181.25000000000017
 21
-15.999999999999986
 31
0.0
  0
LINE
  5
41
100
AcDbEntity
  8
0
  6
CONTINUOUS
 62
               4
100
AcDbLine
 10
188.00000000000017
 20
-17.999999999999986
 30
0.0
 11
191.72168783648698
 21
-17.999999999999986
 31
0.0
  0
LINE
  5
42
100
AcDbEntity
  8
0
  6
CONTINUOUS
 62
               4
100
AcDbLine
 10
182.00000000000017
 20
-16.749999999999986
 30
0.0
 11
188.00000000000017
 21
-16.749999999999986
 31
0.0
  0
LINE
  5
43
100
AcDbEntity
  8
0
  6
CONTINUOUS
 62
               4
100
AcDbLine
 10
182.00000000000017
 20
-16.749999999999986
 30
0.0
 11
182.00000000000017
 21
-25.249999999999986
 31
0.0
  0
LINE
  5
44
100
AcDbEntity
  8
0
  6
CONTINUOUS
 62
               4
100
AcDbLine
 10
188.00000000000017
 20
-16.749999999999986
 30
0.0
 11
188.00000000000017
 21
-17.999999999999986
 31
0.0
  0
LINE
  5
45
100
AcDbEntity
  8
0
  6
CONTINUOUS
 62
               4
100
AcDbLine
 10
192.00000000000017
 20
-18.482050807568854
 30
0.0
 11
192.00000000000017
 21
-23.517949192431118
 31
0.0
  0
LINE
  5
46
100
AcDbEntity
  8
0
  6
CONTINUOUS
 62
               4
100
AcDbLine
 10
192.00000000000017
 20
3.0000000000000142
 30
0.0
 11
192.00000000000017
 21
-3.0
 31
0.0
  0
LINE
  5
47
100
AcDbEntity
  8
0
  6
CONTINUOUS
 62
               4
100
AcDbLine
 10
191.00000000000017
 20
-17.999999999999986
 30
0.0
 11
191.00000000000017
 21
-24.0
 31
0.0
  0
LINE
  5
48
100
AcDbEntity
  8
0
  6
CONTINUOUS
 62
               4
100
AcDbLine
 10
191.72168783648698
 20
-17.999999999999986
 30
0.0
 11
192.00000000000017
 21
-18.482050807568854
 31
0.0
  0
LINE
  5
49
100
AcDbEntity
  8
0
  6
CONTINUOUS
 62
               4
100
AcDbLine
 10
191.72168783648698
 20
-24.0
 30
0.0
 11
192.00000000000017
 21
-23.517949192431118
 31
0.0
  0
LINE
  5
4A
100
AcDbEntity
  8
0
  6
CONTINUOUS
 62
               4
100
AcDbLine
 10
188.99999999999994
 20
3.0000000000000142
 30
0.0
 11
192.72168783648698
 21
3.0000000000000142
 31
0.0
  0
LINE
  5
4B
100
AcDbEntity
  8
0
  6
CONTINUOUS
 62
               4
100
AcDbLine
 10
192.99999999999994
 20
2.5179491924311179
 30
0.0
 11
192.99999999999994
 21
-2.5179491924311179
 31
0.0
  0
LINE
  5
4C
100
AcDbEntity
  8
0
  6
CONTINUOUS
 62
               4
100
AcDbLine
 10
192.72168783648698
 20
3.0000000000000142
 30
0.0
 11
192.99999999999994
 21
2.5179491924311179
 31
0.0
  0
LINE
  5
4D
100
AcDbEntity
  8
0
  6
CONTINUOUS
 62
               4
100
AcDbLine
 10
188.99999999999994
 20
-3.0
 30
0.0
 11
192.72168783648698
 21
-3.0
 31
0.0
  0
LINE
  5
4E
100
AcDbEntity
  8
0
  6
CONTINUOUS
 62
               4
100
AcDbLine
 10
192.72168783648698
 20
-3.0
 30
0.0
 11
192.99999999999994
 21
-2.5179491924311179
 31
0.0
  0
LINE
  5
4F
100
AcDbEntity
  8
0
  6
CONTINUOUS
 62
             200
100
AcDbLine
 10
161.99999999999994
 20
-25.499999999999986
 30
0.0
 11
181.75000000000017
 21
-25.499999999999986
 31
0.0
  0
LINE
  5
50
100
AcDbEntity
  8
0
  6
CONTINUOUS
 62
               4
100
AcDbLine
 10
161.99999999999994
 20
-26.0
 30
0.0
 11
181.25000000000017
 21
-26.0
 31
0.0
  0
LINE
  5
51
100
AcDbEntity
  8
0
  6
CONTINUOUS
 62
             200
100
AcDbLine
 10
161.99999999999994
 20
-16.499999999999986
 30
0.0
 11
181.75000000000017
 21
-16.499999999999986
 31
0.0
  0
LINE
  5
52
100
AcDbEntity
  8
0
  6
CONTINUOUS
 62
               4
100
AcDbLine
 10
161.99999999999994
 20
-15.999999999999986
 30
0.0
 11
181.25000000000017
 21
-15.999999999999986
 31
0.0
  0
LINE
  5
53
100
AcDbEntity
  8
0
  6
CONTINUOUS
 62
             200
100
AcDbLine
 10
170.99999999999994
 20
-4.5
 30
0.0
 11
182.75000000000017
 21
-4.5
 31
0.0
  0
LINE
  5
54
100
AcDbEntity
  8
0
  6
CONTINUOUS
 62
               4
100
AcDbLine
 10
170.99999999999994
 20
-5.0
 30
0.0
 11
182.25000000000017
 21
-5.0
 31
0.0
  0
LINE
  5
55
100
AcDbEntity
  8
0
  6
CONTINUOUS
 62
             200
100
AcDbLine
 10
170.99999999999994
 20
4.5
 30
0.0
 11
182.75000000000017
 21
4.5
 31
0.0
  0
LINE
  5
56
100
AcDbEntity
  8
0
  6
CONTINUOUS
 62
               4
100
AcDbLine
 10
170.99999999999994
 20
5.0000000000000142
 30
0.0
 11
182.25000000000017
 21
5.0000000000000142
 31
0.0
  0
LINE
  5
58
100
AcDbEntity
  8
0
  6
CENTER
 62
             200
100
AcDbLine
 10
142.50000000000017
 20
-20.999999999999986
 30
0.0
 11
193.49999999999994
 21
-20.999999999999986
 31
0.0
  0
LINE
  5
59
100
AcDbEntity
  8
0
  6
CONTINUOUS
 62
               4
100
AcDbLine
 10
67.866025403784477
 20
-31.99999999999978
 30
0.0
 11
68.732050807568953
 21
-33.49999999999978
 31
0.0
  0
LINE
  5
5A
100
AcDbEntity
  8
0
  6
CONTINUOUS
 62
               4
100
AcDbLine
 10
67.866025403784477
 20
-34.999999999999773
 30
0.0
 11
68.732050807568953
 21
-33.49999999999978
 31
0.0
  0
LINE
  5
5B
100
AcDbEntity
  8
0
  6
CONTINUOUS
 62
               4
100
AcDbLine
 10
66.13397459621558
 20
-34.999999999999773
 30
0.0
 11
67.866025403784477
 21
-34.999999999999773
 31
0.0
  0
LINE
  5
5C
100
AcDbEntity
  8
0
  6
CONTINUOUS
 62
               4
100
AcDbLine
 10
66.13397459621558
 20
-31.99999999999978
 30
0.0
 11
67.866025403784477
 21
-31.99999999999978
 31
0.0
  0
LINE
  5
5D
100
AcDbEntity
  8
0
  6
CONTINUOUS
 62
               4
100
AcDbLine
 10
66.13397459621558
 20
-34.999999999999773
 30
0.0
 11
65.267949192431161
 21
-33.49999999999978
 31
0.0
  0
LINE
  5
5E
100
AcDbEntity
  8
0
  6
CONTINUOUS
 62
               4
100
AcDbLine
 10
66.13397459621558
 20
-31.99999999999978
 30
0.0
 11
65.267949192431161
 21
-33.49999999999978
 31
0.0
  0
CIRCLE
  5
5F
100
AcDbEntity
  8
0
  6
CONTINUOUS
 62
               4
100
AcDbCircle
 10
67.0
 20
-33.49999999999978
 30
0.0
 40
3.5
  0
LINE
  5
60
100
AcDbEntity
  8
0
  6
CENTER
 62
             200
100
AcDbLine
 10
61.60495686402885
 20
-33.49999999999978
 30
0.0
 11
72.548155982976425
 21
-33.49999999999978
 31
0.0
  0
LINE
  5
61
100
AcDbEntity
  8
0
  6
CENTER
 62
             200
100
AcDbLine
 10
67.0
 20
-38.999999999999773
 30
0.0
 11
67.0
 21
-28.01174863387957
 31
0.0
  0
CIRCLE
  5
62
100
AcDbEntity
  8
0
  6
CONTINUOUS
 62
               4
100
AcDbCircle
 10
67.0
 20
-33.49999999999978
 30
0.0
 40
3.9999999999999996
  0
LINE
  5
63
100
AcDbEntity
  8
0
  6
CONTINUOUS
 62
               4
100
AcDbLine
 10
152.99999999999994
 20
15.000000000000014
 30
0.0
 11
152.99999999999994
 21
-27.999999999999979
 31
0.0
  0
LINE
  5
64
100
AcDbEntity
  8
0
  6
CONTINUOUS
 62
               4
100
AcDbLine
 10
159.00000000000017
 20
-6.5
 30
0.0
 11
160.00000000000017
 21
-6.5
 31
0.0
  0
LINE
  5
65
100
AcDbEntity
  8
0
  6
CONTINUOUS
 62
               4
100
AcDbLine
 10
160.00000000000017
 20
-13.499999999999986
 30
0.0
 11
159.00000000000017
 21
-13.499999999999986
 31
0.0
  0
LINE
  5
66
100
AcDbEntity
  8
0
  6
CONTINUOUS
 62
               4
100
AcDbLine
 10
160.00000000000017
 20
13.5
 30
0.0
 11
159.00000000000017
 21
13.5
 31
0.0
  0
LINE
  5
67
100
AcDbEntity
  8
0
  6
CONTINUOUS
 62
               4
100
AcDbLine
 10
159.00000000000017
 20
6.5
 30
0.0
 11
160.00000000000017
 21
6.5
 31
0.0
  0
LINE
  5
68
100
AcDbEntity
  8
0
  6
CONTINUOUS
 62
               4
100
AcDbLine
 10
160.00000000000017
 20
-4.9999999999999858
 30
0.0
 11
159.00000000000017
 21
-4.9999999999999858
 31
0.0
  0
LINE
  5
69
100
AcDbEntity
  8
0
  6
CONTINUOUS
 62
             200
100
AcDbLine
 10
159.00000000000017
 20
-4.5
 30
0.0
 11
160.00000000000017
 21
-4.5
 31
0.0
  0
LINE
  5
6A
100
AcDbEntity
  8
0
  6
CONTINUOUS
 62
               4
100
AcDbLine
 10
160.00000000000017
 20
5.0000000000000142
 30
0.0
 11
159.00000000000017
 21
5.0000000000000142
 31
0.0
  0
LINE
  5
6B
100
AcDbEntity
  8
0
  6
CONTINUOUS
 62
             200
100
AcDbLine
 10
159.00000000000017
 20
4.5
 30
0.0
 11
160.00000000000017
 21
4.5
 31
0.0
  0
LINE
  5
6C
100
AcDbEntity
  8
0
  6
CONTINUOUS
 62
               4
100
AcDbLine
 10
168.00000000000017
 20
-15.023096887134599
 30
0.0
 11
159.00000000000017
 21
-15.023096887134599
 31
0.0
  0
LINE
  5
6D
100
AcDbEntity
  8
0
  6
CONTINUOUS
 62
               4
100
AcDbLine
 10
159.00000000000017
 20
-26.999999999999986
 30
0.0
 11
161.99999999999994
 21
-26.999999999999986
 31
0.0
  0
LINE
  5
6E
100
AcDbEntity
  8
0
  6
CONTINUOUS
 62
               4
100
AcDbLine
 10
159.53589838486226
 20
-20.999999999999986
 30
0.0
 11
161.46410161513785
 21
-20.999999999999986
 31
0.0
  0
ARC
  5
6F
100
AcDbEntity
  8
0
  6
CONTINUOUS
 62
               4
100
AcDbCircle
 10
153.33493649053906
 20
-23.999999999999972
 30
0.0
 40
8.6650635094610795
100
AcDbArc
 50
339.74384199958365
 51
20.256158000416359
  0
ARC
  5
70
100
AcDbEntity
  8
0
  6
CONTINUOUS
 62
               4
100
AcDbCircle
 10
167.66506350946105
 20
-23.999999999999972
 30
0.0
 40
8.6650635094610795
100
AcDbArc
 50
159.74384199958322
 51
200.25615800041595
  0
ARC
  5
71
100
AcDbEntity
  8
0
  6
CONTINUOUS
 62
               4
100
AcDbCircle
 10
167.66506350946105
 20
-17.999999999999972
 30
0.0
 40
8.6650635094610795
100
AcDbArc
 50
159.74384199958322
 51
200.25615800041595
  0
ARC
  5
72
100
AcDbEntity
  8
0
  6
CONTINUOUS
 62
               4
100
AcDbCircle
 10
153.33493649053906
 20
-17.999999999999972
 30
0.0
 40
8.6650635094610795
100
AcDbArc
 50
339.74384199958286
 51
20.256158000416359
  0
LINE
  5
73
100
AcDbEntity
  8
0
  6
CONTINUOUS
 62
               4
100
AcDbLine
 10
161.99999999999994
 20
-14.999999999999986
 30
0.0
 11
161.99999999999994
 21
-26.999999999999986
 31
0.0
  0
LINE
  5
74
100
AcDbEntity
  8
0
  6
CONTINUOUS
 62
               4
100
AcDbLine
 10
170.99999999999994
 20
5.9769031128653864
 30
0.0
 11
168.00000000000017
 21
5.9769031128653864
 31
0.0
  0
LINE
  5
75
100
AcDbEntity
  8
0
  6
CONTINUOUS
 62
               4
100
AcDbLine
 10
168.00000000000017
 20
-5.9999999999999858
 30
0.0
 11
170.99999999999994
 21
-5.9999999999999858
 31
0.0
  0
ARC
  5
76
100
AcDbEntity
  8
0
  6
CONTINUOUS
 62
               4
100
AcDbCircle
 10
176.66506350946105
 20
-2.9999999999999858
 30
0.0
 40
8.6650635094610795
100
AcDbArc
 50
159.74384199958322
 51
200.25615800041595
  0
ARC
  5
77
100
AcDbEntity
  8
0
  6
CONTINUOUS
 62
               4
100
AcDbCircle
 10
162.33493649053906
 20
-2.9999999999999858
 30
0.0
 40
8.6650635094610795
100
AcDbArc
 50
339.74384199958365
 51
20.256158000416359
  0
LINE
  5
78
100
AcDbEntity
  8
0
  6
CONTINUOUS
 62
               4
100
AcDbLine
 10
168.53589838486226
 20
0.0
 30
0.0
 11
170.46410161513785
 21
0.0
 31
0.0
  0
LINE
  5
79
100
AcDbEntity
  8
0
  6
CONTINUOUS
 62
               4
100
AcDbLine
 10
170.99999999999994
 20
6.0000000000000142
 30
0.0
 11
170.99999999999994
 21
-5.9999999999999858
 31
0.0
  0
ARC
  5
7A
100
AcDbEntity
  8
0
  6
CONTINUOUS
 62
               4
100
AcDbCircle
 10
162.33493649053906
 20
3.0000000000000142
 30
0.0
 40
8.6650635094610795
100
AcDbArc
 50
339.74384199958286
 51
20.256158000416359
  0
ARC
  5
7B
100
AcDbEntity
  8
0
  6
CONTINUOUS
 62
               4
100
AcDbCircle
 10
176.66506350946105
 20
3.0000000000000142
 30
0.0
 40
8.6650635094610795
100
AcDbArc
 50
159.74384199958322
 51
200.25615800041595
  0
LINE
  5
7C
100
AcDbEntity
  8
0
  6
CONTINUOUS
 62
               4
100
AcDbLine
 10
168.00000000000017
 20
15.000000000000014
 30
0.0
 11
168.00000000000017
 21
-15.023096887134599
 31
0.0
  0
LINE
  5
7D
100
AcDbEntity
  8
0
  6
CONTINUOUS
 62
               4
100
AcDbLine
 10
160.00000000000017
 20
15.000000000000014
 30
0.0
 11
160.00000000000017
 21
-14.999999999999616
 31
0.0
  0
LINE
  5
7E
100
AcDbEntity
  8
0
  6
CONTINUOUS
 62
               4
100
AcDbLine
 10
159.00000000000017
 20
15.000000000000014
 30
0.0
 11
159.00000000000017
 21
-27.999999999999979
 31
0.0
  0
LINE
  5
7F
100
AcDbEntity
  8
0
  6
CONTINUOUS
 62
               4
100
AcDbLine
 10
152.99999999999994
 20
-27.999999999999979
 30
0.0
 11
159.00000000000017
 21
-27.999999999999979
 31
0.0
  0
LINE
  5
80
100
AcDbEntity
  8
0
  6
CONTINUOUS
 62
               4
100
AcDbLine
 10
159.00000000000017
 20
-14.999999999999872
 30
0.0
 11
150.00000000000017
 21
-14.999999999999872
 31
0.0
  0
LINE
  5
81
100
AcDbEntity
  8
0
  6
CENTER
 62
             200
100
AcDbLine
 10
148.49999999999994
 20
-9.9999999999999858
 30
0.0
 11
161.49999999999994
 21
-9.9999999999999858
 31
0.0
  0
LINE
  5
82
100
AcDbEntity
  8
0
  6
CENTER
 62
             200
100
AcDbLine
 10
148.49999999999994
 20
10.000000000000014
 30
0.0
 11
161.49999999999994
 21
10.000000000000014
 31
0.0
  0
CIRCLE
  5
83
100
AcDbEntity
  8
0
  6
CONTINUOUS
 62
               4
100
AcDbCircle
 10
119.00000000000017
 20
-9.9999999999999858
 30
0.0
 40
2.1499999999999999
  0
LINE
  5
84
100
AcDbEntity
  8
0
  6
CENTER
 62
             200
100
AcDbLine
 10
119.00000000000017
 20
-15.499999999999986
 30
0.0
 11
119.00000000000017
 21
-4.5
 31
0.0
  0
LINE
  5
85
100
AcDbEntity
  8
0
  6
CENTER
 62
             200
100
AcDbLine
 10
113.50000000000011
 20
-9.9999999999999858
 30
0.0
 11
124.49999999999994
 21
-9.9999999999999858
 31
0.0
  0
CIRCLE
  5
86
100
AcDbEntity
  8
0
  6
CONTINUOUS
 62
               4
100
AcDbCircle
 10
119.00000000000017
 20
10.000000000000014
 30
0.0
 40
2.1499999999999999
  0
LINE
  5
87
100
AcDbEntity
  8
0
  6
CENTER
 62
             200
100
AcDbLine
 10
119.00000000000017
 20
15.5
 30
0.0
 11
119.00000000000017
 21
4.5
 31
0.0
  0
LINE
  5
88
100
AcDbEntity
  8
0
  6
CENTER
 62
             200
100
AcDbLine
 10
113.50000000000011
 20
10.000000000000014
 30
0.0
 11
124.49999999999994
 21
10.000000000000014
 31
0.0
  0
LINE
  5
89
100
AcDbEntity
  8
0
  6
CENTER
 62
               2
100
AcDbLine
 10
135.99999999999994
 20
-9.9999999999999858
 30
0.0
 11
143.99999999999994
 21
-9.9999999999999858
 31
0.0
  0
LINE
  5
8A
100
AcDbEntity
  8
0
  6
CENTER
 62
               2
100
AcDbLine
 10
135.99999999999994
 20
10.000000000000014
 30
0.0
 11
143.99999999999994
 21
10.000000000000014
 31
0.0
  0
LINE
  5
8B
100
AcDbEntity
  8
0
  6
CONTINUOUS
 62
               7
100
AcDbLine
 10
7.9999999831934474
 20
-14.999999999999986
 30
0.0
 11
150.00000000000017
 21
-14.999999999999986
 31
0.0
  0
LINE
  5
8C
100
AcDbEntity
  8
0
  6
CONTINUOUS
 62
               7
100
AcDbLine
 10
0.0
 20
-32.499999999999986
 30
0.0
 11
0.0
 21
32.5
 31
0.0
  0
LINE
  5
8D
100
AcDbEntity
  8
0
  6
CONTINUOUS
 62
               7
100
AcDbLine
 10
8.0000000000000568
 20
-32.499999999999986
 30
0.0
 11
8.0000000000000568
 21
32.5
 31
0.0
  0
LINE
  5
8E
100
AcDbEntity
  8
0
  6
CONTINUOUS
 62
               7
100
AcDbLine
 10
150.00000000000017
 20
40.0
 30
0.0
 11
150.00000000000017
 21
-19.499999999999986
 31
0.0
  0
LINE
  5
8F
100
AcDbEntity
  8
0
  6
CONTINUOUS
 62
               7
100
AcDbLine
 10
0.0000000000000568
 20
32.5
 30
0.0
 11
8.0000000000000568
 21
32.5
 31
0.0
  0
LINE
  5
90
100
AcDbEntity
  8
0
  6
CONTINUOUS
 62
               7
100
AcDbLine
 10
10.000000000000057
 20
37.000000000000028
 30
0.0
 11
150.00000000000017
 21
37.0
 31
0.0
  0
LINE
  5
91
100
AcDbEntity
  8
0
  6
CONTINUOUS
 62
               7
100
AcDbLine
 10
0.0
 20
-32.499999999999986
 30
0.0
 11
8.0000000000000568
 21
-32.499999999999986
 31
0.0
  0
LINE
  5
92
100
AcDbEntity
  8
0
  6
CONTINUOUS
 62
               7
100
AcDbLine
 10
10.000000000000057
 20
-36.999999999999986
 30
0.0
 11
62.0
 21
-36.999999999999986
 31
0.0
  0
LINE
  5
93
100
AcDbEntity
  8
0
  6
CONTINUOUS
 62
               7
100
AcDbLine
 10
150.00000000000017
 20
-39.999999999999979
 30
0.0
 11
10.000000000000057
 21
-39.999999999999979
 31
0.0
  0
LINE
  5
94
100
AcDbEntity
  8
0
  6
CONTINUOUS
 62
               7
100
AcDbLine
 10
7.9999999831934474
 20
15.000000000000014
 30
0.0
 11
150.00000000000017
 21
15.000000000000014
 31
0.0
  0
LINE
  5
95
100
AcDbEntity
  8
0
  6
CONTINUOUS
 62
               7
100
AcDbLine
 10
10.000000000000057
 20
-14.999999999999986
 30
0.0
 11
10.000000000000057
 21
-39.999999999999979
 31
0.0
  0
LINE
  5
96
100
AcDbEntity
  8
0
  6
CENTER
 62
               2
100
AcDbLine
 10
19.000000000000057
 20
-4.5
 30
0.0
 11
19.000000000000057
 21
-15.499999999999986
 31
0.0
  0
LINE
  5
97
100
AcDbEntity
  8
0
  6
CENTER
 62
               2
100
AcDbLine
 10
69.000000000000057
 20
-15.499999999999986
 30
0.0
 11
69.000000000000057
 21
-4.5
 31
0.0
  0
LINE
  5
98
100
AcDbEntity
  8
0
  6
CONTINUOUS
 62
               7
100
AcDbLine
 10
10.000000000000057
 20
-16.499999999999986
 30
0.0
 11
150.00000000000017
 21
-16.499999999999986
 31
0.0
  0
LINE
  5
99
100
AcDbEntity
  8
0
  6
CONTINUOUS
 62
               7
100
AcDbLine
 10
9.5
 20
-19.999999999999986
 30
0.0
 11
9.5
 21
-29.999999999999979
 31
0.0
  0
LINE
  5
9A
100
AcDbEntity
  8
0
  6
CONTINUOUS
 62
               7
100
AcDbLine
 10
8.0000000000000568
 20
-29.999999999999979
 30
0.0
 11
9.5
 21
-29.999999999999979
 31
0.0
  0
LINE
  5
9B
100
AcDbEntity
  8
0
  6
CONTINUOUS
 62
               7
100
AcDbLine
 10
8.0000000000000568
 20
-19.999999999999986
 30
0.0
 11
9.5
 21
-19.999999999999986
 31
0.0
  0
LINE
  5
9C
100
AcDbEntity
  8
0
  6
CONTINUOUS
 62
               7
100
AcDbLine
 10
9.5
 20
-27.999999999999979
 30
0.0
 11
10.000000000000057
 21
-27.999999999999979
 31
0.0
  0
LINE
  5
9D
100
AcDbEntity
  8
0
  6
CONTINUOUS
 62
               7
100
AcDbLine
 10
9.5
 20
-21.999999999999972
 30
0.0
 11
10.000000000000057
 21
-21.999999999999972
 31
0.0
  0
LINE
  5
9E
100
AcDbEntity
  8
0
  6
CENTER
 62
               2
100
AcDbLine
 10
-1.4999999999999432
 20
-25.0
 30
0.0
 11
11.500000000000057
 21
-25.0
 31
0.0
  0
LINE
  5
9F
100
AcDbEntity
  8
0
  6
CONTINUOUS
 62
               7
100
AcDbLine
 10
9.5
 20
22.000000000000014
 30
0.0
 11
10.000000000000057
 21
22.000000000000014
 31
0.0
  0
LINE
  5
A0
100
AcDbEntity
  8
0
  6
CONTINUOUS
 62
               7
100
AcDbLine
 10
9.5
 20
28.000000000000014
 30
0.0
 11
10.000000000000057
 21
28.000000000000014
 31
0.0
  0
LINE
  5
A1
100
AcDbEntity
  8
0
  6
CONTINUOUS
 62
               7
100
AcDbLine
 10
8.0000000000000568
 20
20.0
 30
0.0
 11
9.5
 21
20.0
 31
0.0
  0
LINE
  5
A2
100
AcDbEntity
  8
0
  6
CONTINUOUS
 62
               7
100
AcDbLine
 10
8.0000000000000568
 20
30.000000000000014
 30
0.0
 11
9.5
 21
30.000000000000014
 31
0.0
  0
LINE
  5
A3
100
AcDbEntity
  8
0
  6
CONTINUOUS
 62
               7
100
AcDbLine
 10
9.5
 20
20.0
 30
0.0
 11
9.5
 21
30.000000000000014
 31
0.0
  0
LINE
  5
A4
100
AcDbEntity
  8
0
  6
CENTER
 62
               2
100
AcDbLine
 10
-1.4999999999999432
 20
25.000000000000014
 30
0.0
 11
11.500000000000057
 21
25.000000000000014
 31
0.0
  0
ARC
  5
A5
100
AcDbEntity
  8
0
  6
CONTINUOUS
 62
               7
100
AcDbCircle
 10
55.0
 20
0.0
 30
0.0
 40
1.9999999999999998
100
AcDbArc
 50
89.999999999999815
 51
269.99999999999937
  0
LINE
  5
A6
100
AcDbEntity
  8
0
  6
CONTINUOUS
 62
               7
100
AcDbLine
 10
57.000000000000057
 20
2.0000000000000142
 30
0.0
 11
55.0
 21
2.0000000000000142
 31
0.0
  0
LINE
  5
A7
100
AcDbEntity
  8
0
  6
CONTINUOUS
 62
               7
100
AcDbLine
 10
57.000000000000057
 20
-2.0
 30
0.0
 11
55.0
 21
-2.0
 31
0.0
  0
LINE
  5
A8
100
AcDbEntity
  8
0
  6
CENTER
 62
               2
100
AcDbLine
 10
57.000000000000057
 20
-3.4999999999999858
 30
0.0
 11
57.000000000000057
 21
3.5000000000000142
 31
0.0
  0
ARC
  5
A9
100
AcDbEntity
  8
0
  6
CONTINUOUS
 62
               7
100
AcDbCircle
 10
57.000000000000057
 20
0.0
 30
0.0
 40
1.9999999999999998
100
AcDbArc
 50
269.99999999999937
 51
89.999999999999801
  0
LINE
  5
AA
100
AcDbEntity
  8
0
  6
CENTER
 62
               2
100
AcDbLine
 10
55.0
 20
-3.4999999999999858
 30
0.0
 11
55.0
 21
3.5000000000000142
 31
0.0
  0
LINE
  5
AB
100
AcDbEntity
  8
0
  6
CENTER
 62
               2
100
AcDbLine
 10
56.000000000000057
 20
3.5000000000000142
 30
0.0
 11
56.000000000000057
 21
-3.4999999999999858
 31
0.0
  0
CIRCLE
  5
AC
100
AcDbEntity
  8
0
  6
CONTINUOUS
 62
               7
100
AcDbCircle
 10
24.000000000000057
 20
0.0
 30
0.0
 40
1.9999999999999998
  0
LINE
  5
AD
100
AcDbEntity
  8
0
  6
CENTER
 62
               2
100
AcDbLine
 10
24.000000000000057
 20
-3.4999999999999858
 30
0.0
 11
24.000000000000057
 21
3.5000000000000142
 31
0.0
  0
CIRCLE
  5
AE
100
AcDbEntity
  8
0
  6
CONTINUOUS
 62
               7
100
AcDbCircle
 10
56.000000000000057
 20
10.000000000000014
 30
0.0
 40
1.9999999999999998
  0
CIRCLE
  5
AF
100
AcDbEntity
  8
0
  6
CONTINUOUS
 62
               2
100
AcDbCircle
 10
56.000000000000057
 20
10.000000000000014
 30
0.0
 40
2.4999999999999996
  0
LINE
  5
B0
100
AcDbEntity
  8
0
  6
CENTER
 62
               2
100
AcDbLine
 10
56.000000000000057
 20
14.0
 30
0.0
 11
56.000000000000057
 21
6.0000000000000142
 31
0.0
  0
CIRCLE
  5
B1
100
AcDbEntity
  8
0
  6
CONTINUOUS
 62
               7
100
AcDbCircle
 10
30.000000000000057
 20
10.000000000000014
 30
0.0
 40
1.9999999999999998
  0
CIRCLE
  5
B2
100
AcDbEntity
  8
0
  6
CONTINUOUS
 62
               2
100
AcDbCircle
 10
30.000000000000057
 20
10.000000000000014
 30
0.0
 40
2.4999999999999996
  0
LINE
  5
B3
100
AcDbEntity
  8
0
  6
CENTER
 62
               2
100
AcDbLine
 10
30.000000000000057
 20
14.0
 30
0.0
 11
30.000000000000057
 21
6.0000000000000142
 31
0.0
  0
LINE
  5
B4
100
AcDbEntity
  8
0
  6
CONTINUOUS
 62
               7
100
AcDbLine
 10
10.000000000000057
 20
16.5
 30
0.0
 11
150.00000000000017
 21
16.5
 31
0.0
  0
LINE
  5
B5
100
AcDbEntity
  8
0
  6
CENTER
 62
               2
100
AcDbLine
 10
24.500000000000057
 20
10.000000000000014
 30
0.0
 11
13.5
 21
10.000000000000014
 31
0.0
  0
LINE
  5
B6
100
AcDbEntity
  8
0
  6
CENTER
 62
               2
100
AcDbLine
 10
69.000000000000057
 20
15.5
 30
0.0
 11
69.000000000000057
 21
4.5
 31
0.0
  0
LINE
  5
B7
100
AcDbEntity
  8
0
  6
CENTER
 62
               2
100
AcDbLine
 10
19.000000000000057
 20
4.6378896996115202
 30
0.0
 11
19.000000000000057
 21
15.5
 31
0.0
  0
LINE
  5
B8
100
AcDbEntity
  8
0
  6
CONTINUOUS
 62
               7
100
AcDbLine
 10
10.000000000000057
 20
15.000000000000014
 30
0.0
 11
10.000000000000057
 21
40.0
 31
0.0
  0
LINE
  5
B9
100
AcDbEntity
  8
0
  6
CENTER
 62
               2
100
AcDbLine
 10
196.00000000000017
 20
0.0
 30
0.0
 11
-2.9999999999999432
 21
0.0
 31
0.0
  0
LINE
  5
BA
100
AcDbEntity
  8
0
  6
CONTINUOUS
 62
               7
100
AcDbLine
 10
150.00000000000017
 20
40.0
 30
0.0
 11
10.000000000000057
 21
40.0
 31
0.0
  0
LINE
  5
BB
100
AcDbEntity
  8
0
  6
CENTER
 62
               2
100
AcDbLine
 10
63.5
 20
10.000000000000014
 30
0.0
 11
74.500000000000057
 21
10.000000000000014
 31
0.0
  0
LINE
  5
BC
100
AcDbEntity
  8
0
  6
CONTINUOUS
 62
               7
100
AcDbLine
 10
9.9999999831935042
 20
30.500000000000085
 30
0.0
 11
149.99999998319362
 21
30.500000000000085
 31
0.0
  0
LINE
  5
BD
100
AcDbEntity
  8
0
  6
CONTINUOUS
 62
               7
100
AcDbLine
 10
9.9999999831935042
 20
29.600000000000122
 30
0.0
 11
149.99999998319362
 21
29.600000000000122
 31
0.0
  0
LINE
  5
BE
100
AcDbEntity
  8
0
  6
CONTINUOUS
 62
               7
100
AcDbLine
 10
9.9999999831935042
 20
26.400000000000119
 30
0.0
 11
149.99999998319362
 21
26.400000000000119
 31
0.0
  0
LINE
  5
BF
100
AcDbEntity
  8
0
  6
CONTINUOUS
 62
               7
100
AcDbLine
 10
9.9999999831935042
 20
23.600000000000122
 30
0.0
 11
149.99999998319362
 21
23.600000000000122
 31
0.0
  0
LINE
  5
C0
100
AcDbEntity
  8
0
  6
CONTINUOUS
 62
               7
100
AcDbLine
 10
9.9999999831935042
 20
20.400000000000119
 30
0.0
 11
149.99999998319362
 21
20.400000000000119
 31
0.0
  0
LINE
  5
C1
100
AcDbEntity
  8
0
  6
CONTINUOUS
 62
               7
100
AcDbLine
 10
9.9999999831935042
 20
19.500000000000156
 30
0.0
 11
149.99999998319362
 21
19.500000000000156
 31
0.0
  0
LINE
  5
C2
100
AcDbEntity
  8
0
  6
CONTINUOUS
 62
               7
100
AcDbLine
 10
150.64000000000004
 20
-33.999999999999737
 30
0.0
 11
151.44
 21
-33.999999999999737
 31
0.0
  0
LINE
  5
C3
100
AcDbEntity
  8
0
  6
CONTINUOUS
 62
               7
100
AcDbLine
 10
150.64000000000004
 20
-34.999999999999723
 30
0.0
 11
151.44
 21
-34.999999999999723
 31
0.0
  0
LINE
  5
C4
100
AcDbEntity
  8
0
  6
CENTER
 62
               2
100
AcDbLine
 10
148.49999999999994
 20
-34.499999999999979
 30
0.0
 11
152.94
 21
-34.499999999999979
 31
0.0
  0
LINE
  5
C5
100
AcDbEntity
  8
0
  6
CONTINUOUS
 62
               7
100
AcDbLine
 10
150.34000000000009
 20
-30.499999999999986
 30
0.0
 11
150.34000000000009
 21
-38.499999999999986
 31
0.0
  0
LINE
  5
C6
100
AcDbEntity
  8
0
  6
CONTINUOUS
 62
               7
100
AcDbLine
 10
151.44
 20
-30.499999999999986
 30
0.0
 11
151.44
 21
-33.999999999999737
 31
0.0
  0
LINE
  5
C7
100
AcDbEntity
  8
0
  6
CONTINUOUS
 62
               7
100
AcDbLine
 10
150.64000000000004
 20
-33.999999999999737
 30
0.0
 11
150.64000000000004
 21
-34.999999999999723
 31
0.0
  0
LINE
  5
C8
100
AcDbEntity
  8
0
  6
CONTINUOUS
 62
               7
100
AcDbLine
 10
151.44
 20
-34.999999999999723
 30
0.0
 11
151.44
 21
-38.499999999999986
 31
0.0
  0
LINE
  5
C9
100
AcDbEntity
  8
0
  6
CONTINUOUS
 62
               7
100
AcDbLine
 10
150.00000000000017
 20
-38.499999999999986
 30
0.0
 11
151.44
 21
-38.499999999999986
 31
0.0
  0
LINE
  5
CA
100
AcDbEntity
  8
0
  6
CONTINUOUS
 62
               7
100
AcDbLine
 10
150.00000000000017
 20
-30.499999999999986
 30
0.0
 11
151.44
 21
-30.499999999999986
 31
0.0
  0
LINE
  5
CB
100
AcDbEntity
  8
0
  6
CENTER
 62
               2
100
AcDbLine
 10
148.49999999999994
 20
34.500000000000014
 30
0.0
 11
152.94
 21
34.500000000000014
 31
0.0
  0
LINE
  5
CC
100
AcDbEntity
  8
0
  6
CONTINUOUS
 62
               7
100
AcDbLine
 10
150.00000000000017
 20
38.5
 30
0.0
 11
151.44
 21
38.5
 31
0.0
  0
LINE
  5
CD
100
AcDbEntity
  8
0
  6
CONTINUOUS
 62
               7
100
AcDbLine
 10
150.00000000000017
 20
30.500000000000014
 30
0.0
 11
151.44
 21
30.500000000000014
 31
0.0
  0
LINE
  5
CE
100
AcDbEntity
  8
0
  6
CONTINUOUS
 62
               7
100
AcDbLine
 10
151.44
 20
34.999999999999773
 30
0.0
 11
151.44
 21
38.5
 31
0.0
  0
LINE
  5
CF
100
AcDbEntity
  8
0
  6
CONTINUOUS
 62
               7
100
AcDbLine
 10
150.64000000000004
 20
33.999999999999744
 30
0.0
 11
150.64000000000004
 21
34.999999999999773
 31
0.0
  0
LINE
  5
D0
100
AcDbEntity
  8
0
  6
CONTINUOUS
 62
               7
100
AcDbLine
 10
151.44
 20
30.500000000000014
 30
0.0
 11
151.44
 21
33.999999999999744
 31
0.0
  0
LINE
  5
D1
100
AcDbEntity
  8
0
  6
CONTINUOUS
 62
               7
100
AcDbLine
 10
150.34000000000009
 20
30.500000000000014
 30
0.0
 11
150.34000000000009
 21
38.5
 31
0.0
  0
LINE
  5
D2
100
AcDbEntity
  8
0
  6
CONTINUOUS
 62
               7
100
AcDbLine
 10
150.64000000000004
 20
34.99999999999973
 30
0.0
 11
151.44
 21
34.999999999999773
 31
0.0
  0
LINE
  5
D3
100
AcDbEntity
  8
0
  6
CONTINUOUS
 62
               7
100
AcDbLine
 10
150.64000000000004
 20
33.999999999999744
 30
0.0
 11
151.44
 21
33.999999999999744
 31
0.0
  0
CIRCLE
  5
D4
100
AcDbEntity
  8
0
  6
CONTINUOUS
 62
               7
100
AcDbCircle
 10
69.000000000000057
 20
10.000000000000014
 30
0.0
 40
2.1499999999999999
  0
CIRCLE
  5
D5
100
AcDbEntity
  8
0
  6
CONTINUOUS
 62
               7
100
AcDbCircle
 10
69.000000000000057
 20
-9.9999999999999858
 30
0.0
 40
2.1499999999999999
  0
LINE
  5
D6
100
AcDbEntity
  8
0
  6
CENTER
 62
               2
100
AcDbLine
 10
24.500000000000057
 20
-9.9999999999999858
 30
0.0
 11
13.5
 21
-9.9999999999999858
 31
0.0
  0
CIRCLE
  5
D7
100
AcDbEntity
  8
0
  6
CONTINUOUS
 62
               7
100
AcDbCircle
 10
19.000000000000057
 20
10.000000000000014
 30
0.0
 40
2.1499999999999999
  0
CIRCLE
  5
D8
100
AcDbEntity
  8
0
  6
CONTINUOUS
 62
               7
100
AcDbCircle
 10
19.000000000000057
 20
-9.9999999999999858
 30
0.0
 40
2.1499999999999999
  0
LINE
  5
D9
100
AcDbEntity
  8
0
  6
CONTINUOUS
 62
               7
100
AcDbLine
 10
7.9999999831935042
 20
14.500000000000014
 30
0.0
 11
150.00000000000017
 21
14.500000000000014
 31
0.0
  0
LINE
  5
DA
100
AcDbEntity
  8
0
  6
CONTINUOUS
 62
               7
100
AcDbLine
 10
7.9999999831935042
 20
4.0000000000000142
 30
0.0
 11
150.00000000000017
 21
4.0000000000000142
 31
0.0
  0
LINE
  5
DB
100
AcDbEntity
  8
0
  6
CONTINUOUS
 62
               7
100
AcDbLine
 10
7.9999999831935042
 20
3.5000000000000142
 30
0.0
 11
150.00000000000017
 21
3.5000000000000142
 31
0.0
  0
LINE
  5
DC
100
AcDbEntity
  8
0
  6
CONTINUOUS
 62
               7
100
AcDbLine
 10
7.9999999831935042
 20
-4.0
 30
0.0
 11
150.00000000000017
 21
-4.0
 31
0.0
  0
LINE
  5
DD
100
AcDbEntity
  8
0
  6
CONTINUOUS
 62
               7
100
AcDbLine
 10
7.9999999831935042
 20
-3.5
 30
0.0
 11
150.00000000000017
 21
-3.5
 31
0.0
  0
LINE
  5
DE
100
AcDbEntity
  8
0
  6
CONTINUOUS
 62
               7
100
AcDbLine
 10
7.9999999831935042
 20
-14.499999999999986
 30
0.0
 11
150.00000000000017
 21
-14.499999999999986
 31
0.0
  0
CIRCLE
  5
DF
100
AcDbEntity
  8
0
  6
CONTINUOUS
 62
               2
100
AcDbCircle
 10
56.000000000000057
 20
-9.9999999999999858
 30
0.0
 40
2.4999999999999996
  0
LINE
  5
E0
100
AcDbEntity
  8
0
  6
CENTER
 62
               2
100
AcDbLine
 10
56.000000000000057
 20
-13.999999999999986
 30
0.0
 11
56.000000000000057
 21
-6.0
 31
0.0
  0
CIRCLE
  5
E1
100
AcDbEntity
  8
0
  6
CONTINUOUS
 62
               2
100
AcDbCircle
 10
30.000000000000057
 20
-9.9999999999999858
 30
0.0
 40
2.4999999999999996
  0
LINE
  5
E2
100
AcDbEntity
  8
0
  6
CENTER
 62
               2
100
AcDbLine
 10
26.0
 20
-9.9999999999999858
 30
0.0
 11
34.000000000000057
 21
-9.9999999999999858
 31
0.0
  0
LINE
  5
E3
100
AcDbEntity
  8
0
  6
CENTER
 62
               2
100
AcDbLine
 10
30.000000000000057
 20
-13.999999999999986
 30
0.0
 11
30.000000000000057
 21
-6.0
 31
0.0
  0
CIRCLE
  5
E4
100
AcDbEntity
  8
0
  6
CONTINUOUS
 62
               7
100
AcDbCircle
 10
30.000000000000057
 20
-9.9999999999999858
 30
0.0
 40
1.9999999999999998
  0
LINE
  5
E5
100
AcDbEntity
  8
0
  6
CENTER
 62
               2
100
AcDbLine
 10
52.000000000000057
 20
-9.9999999999999858
 30
0.0
 11
60.000000000000057
 21
-9.9999999999999858
 31
0.0
  0
CIRCLE
  5
E6
100
AcDbEntity
  8
0
  6
CONTINUOUS
 62
               7
100
AcDbCircle
 10
56.000000000000057
 20
-9.9999999999999858
 30
0.0
 40
1.9999999999999998
  0
LINE
  5
E7
100
AcDbEntity
  8
0
  6
CENTER
 62
               2
100
AcDbLine
 10
63.5
 20
-9.9999999999999858
 30
0.0
 11
74.500000000000057
 21
-9.9999999999999858
 31
0.0
  0
LINE
  5
E8
100
AcDbEntity
  8
0
  6
CENTER
 62
               2
100
AcDbLine
 10
52.000000000000057
 20
10.000000000000014
 30
0.0
 11
60.000000000000057
 21
10.000000000000014
 31
0.0
  0
LINE
  5
E9
100
AcDbEntity
  8
0
  6
CENTER
 62
               2
100
AcDbLine
 10
26.0
 20
10.000000000000014
 30
0.0
 11
34.000000000000057
 21
10.000000000000014
 31
0.0
  0
CIRCLE
  5
EA
100
AcDbEntity
  8
0
  6
CONTINUOUS
 62
               2
100
AcDbCircle
 10
139.99999999999994
 20
10.000000000000014
 30
0.0
 40
2.4999999999999996
  0
LINE
  5
EB
100
AcDbEntity
  8
0
  6
CENTER
 62
               2
100
AcDbLine
 10
139.99999999999994
 20
14.0
 30
0.0
 11
139.99999999999994
 21
6.0000000000000142
 31
0.0
  0
CIRCLE
  5
EC
100
AcDbEntity
  8
0
  6
CONTINUOUS
 62
               7
100
AcDbCircle
 10
139.99999999999994
 20
10.000000000000014
 30
0.0
 40
1.9999999999999998
  0
LINE
  5
ED
100
AcDbEntity
  8
0
  6
CENTER
 62
               2
100
AcDbLine
 10
139.99999999999994
 20
-13.999999999999986
 30
0.0
 11
139.99999999999994
 21
-5.9999999999999858
 31
0.0
  0
CIRCLE
  5
EE
100
AcDbEntity
  8
0
  6
CONTINUOUS
 62
               7
100
AcDbCircle
 10
139.99999999999994
 20
-9.9999999999999858
 30
0.0
 40
1.9999999999999998
  0
CIRCLE
  5
EF
100
AcDbEntity
  8
0
  6
CONTINUOUS
 62
               2
100
AcDbCircle
 10
139.99999999999994
 20
-9.9999999999999858
 30
0.0
 40
2.4999999999999996
  0
LINE
  5
F0
100
AcDbEntity
  8
0
  6
CONTINUOUS
 62
               4
100
AcDbLine
 10
72.0
 20
-16.499999999999986
 30
0.0
 11
72.0
 21
-38.499999999999851
 31
0.0
  0
LINE
  5
F1
100
AcDbEntity
  8
0
  6
CONTINUOUS
 62
               7
100
AcDbLine
 10
72.0
 20
-36.999999999999964
 30
0.0
 11
150.00000000000017
 21
-36.999999999999964
 31
0.0
  0
LINE
  5
F2
100
AcDbEntity
  8
0
  6
CONTINUOUS
 62
               4
100
AcDbLine
 10
62.0
 20
-16.499999999999986
 30
0.0
 11
62.0
 21
-38.499999999999851
 31
0.0
  0
LINE
  5
F3
100
AcDbEntity
  8
0
  6
CONTINUOUS
 62
               4
100
AcDbLine
 10
72.0
 20
-38.499999999999851
 30
0.0
 11
62.0
 21
-38.499999999999851
 31
0.0
  0
LINE
  5
F4
100
AcDbEntity
  8
0
  6
CONTINUOUS
 62
               4
100
AcDbLine
 10
150.00000000000017
 20
15.000000000000014
 30
0.0
 11
168.00000000000017
 21
15.000000000000014
 31
0.0
  0
ENDBLK
  5
F5
100
AcDbEntity
  8
0
100
AcDbBlockEnd
  0
BLOCK
  5
F6
100
AcDbEntity
  8
0
100
AcDbBlockBegin
  2
ZS16SS-2
 70
               0
 10
0.0
 20
0.0
 30
0.0
  3
ZS16SS-2
  1

  0
LINE
  5
F7
100
AcDbEntity
  8
0
  6
CONTINUOUS
 62
               4
100
AcDbLine
 10
-2.2500000000000568
 20
5.3999999999999773
 30
0.0
 11
2.2499999999999716
 21
5.4000000000000341
 31
0.0
  0
LINE
  5
F8
100
AcDbEntity
  8
0
  6
CONTINUOUS
 62
               4
100
AcDbLine
 10
-2.2500000000000568
 20
6.8999999999999488
 30
0.0
 11
-2.2500000000000284
 21
1.1499999999999773
 31
0.0
  0
LINE
  5
F9
100
AcDbEntity
  8
0
  6
CONTINUOUS
 62
               4
100
AcDbLine
 10
-1.5000000000000284
 20
0.3999999999999488
 30
0.0
 11
-2.2500000000000284
 21
1.1499999999999773
 31
0.0
  0
LINE
  5
FA
100
AcDbEntity
  8
0
  6
CONTINUOUS
 62
               4
100
AcDbLine
 10
-1.5
 20
-0.4500000000000455
 30
0.0
 11
-1.5000000000000284
 21
0.3999999999999488
 31
0.0
  0
LINE
  5
FB
100
AcDbEntity
  8
0
  6
CONTINUOUS
 62
               4
100
AcDbLine
 10
-2.0499999999999545
 20
-1.0000000000000568
 30
0.0
 11
-1.5
 21
-0.4500000000000455
 31
0.0
  0
LINE
  5
FC
100
AcDbEntity
  8
0
  6
CONTINUOUS
 62
               4
100
AcDbLine
 10
-2.0499999999999545
 20
-1.0000000000000568
 30
0.0
 11
-2.0499999999999261
 21
-2.5500000000000398
 31
0.0
  0
LINE
  5
FD
100
AcDbEntity
  8
0
  6
CONTINUOUS
 62
               4
100
AcDbLine
 10
2.0500000000000114
 20
-1.0
 30
0.0
 11
2.0500000000000398
 21
-2.5499999999999829
 31
0.0
  0
LINE
  5
FE
100
AcDbEntity
  8
0
  6
CONTINUOUS
 62
               4
100
AcDbLine
 10
2.0500000000000114
 20
-1.0
 30
0.0
 11
1.5
 21
-0.4499999999999886
 31
0.0
  0
LINE
  5
FF
100
AcDbEntity
  8
0
  6
CONTINUOUS
 62
               4
100
AcDbLine
 10
1.5
 20
-0.4499999999999886
 30
0.0
 11
1.5000000000000284
 21
0.4000000000000057
 31
0.0
  0
LINE
  5
100
100
AcDbEntity
  8
0
  6
CONTINUOUS
 62
               4
100
AcDbLine
 10
1.5000000000000284
 20
0.4000000000000057
 30
0.0
 11
2.2499999999999716
 21
1.1500000000000341
 31
0.0
  0
LINE
  5
101
100
AcDbEntity
  8
0
  6
CONTINUOUS
 62
               4
100
AcDbLine
 10
2.2499999999999716
 20
6.9000000000000057
 30
0.0
 11
2.2499999999999716
 21
1.1500000000000341
 31
0.0
  0
LINE
  5
102
100
AcDbEntity
  8
0
  6
CENTER
 62
             200
100
AcDbLine
 10
-0.0000000000001421
 20
12.559999999999974
 30
0.0
 11
0.0000000000000568
 21
-6.0600000000000307
 31
0.0
  0
LINE
  5
103
100
AcDbEntity
  8
0
  6
CONTINUOUS
 62
               4
100
AcDbLine
 10
-1.5
 20
-0.0000000000000284
 30
0.0
 11
1.5
 21
0.0
 31
0.0
  0
LINE
  5
104
100
AcDbEntity
  8
0
  6
CONTINUOUS
 62
               4
100
AcDbLine
 10
-2.0499999999999545
 20
-1.8000000000000114
 30
0.0
 11
2.0500000000000682
 21
-1.7999999999999829
 31
0.0
  0
LINE
  5
105
100
AcDbEntity
  8
0
  6
CONTINUOUS
 62
               4
100
AcDbLine
 10
-2.0493901531919265
 20
-2.6000000000000512
 30
0.0
 11
2.0493901531919123
 21
-2.5999999999999943
 31
0.0
  0
LINE
  5
106
100
AcDbEntity
  8
0
  6
CONTINUOUS
 62
               4
100
AcDbLine
 10
-2.2500000000000568
 20
6.8999999999999488
 30
0.0
 11
2.2499999999999716
 21
6.9000000000000057
 31
0.0
  0
LINE
  5
107
100
AcDbEntity
  8
0
  6
CONTINUOUS
 62
             200
100
AcDbLine
 10
-2.1600000000000534
 20
8.6499999999999773
 30
0.0
 11
2.1599999999998545
 21
11.150000000000034
 31
0.0
  0
LINE
  5
108
100
AcDbEntity
  8
0
  6
CONTINUOUS
 62
               4
100
AcDbLine
 10
-1.0199999999999534
 20
-4.0000000000000284
 30
0.0
 11
1.0200000000000671
 21
-4.0000000000000284
 31
0.0
  0
LINE
  5
109
100
AcDbEntity
  8
0
  6
CONTINUOUS
 62
               4
100
AcDbLine
 10
1.0200000000000671
 20
-4.0000000000000284
 30
0.0
 11
1.2500000000000284
 21
-3.7700000000000102
 31
0.0
  0
LINE
  5
10A
100
AcDbEntity
  8
0
  6
CONTINUOUS
 62
               4
100
AcDbLine
 10
-1.0199999999999534
 20
-4.0000000000000284
 30
0.0
 11
-1.2499999999999432
 21
-3.7700000000000387
 31
0.0
  0
LINE
  5
10B
100
AcDbEntity
  8
0
  6
CONTINUOUS
 62
               4
100
AcDbLine
 10
-1.2499999999999432
 20
-2.6000000000000512
 30
0.0
 11
-1.2499999999999432
 21
-3.7700000000000387
 31
0.0
  0
LINE
  5
10C
100
AcDbEntity
  8
0
  6
CONTINUOUS
 62
             200
100
AcDbLine
 10
-1.0199999999999534
 20
-2.6000000000000512
 30
0.0
 11
-1.0199999999999534
 21
-4.0000000000000284
 31
0.0
  0
LINE
  5
10D
100
AcDbEntity
  8
0
  6
CONTINUOUS
 62
             200
100
AcDbLine
 10
1.0200000000000671
 20
-2.5999999999999943
 30
0.0
 11
1.0200000000000671
 21
-4.0000000000000284
 31
0.0
  0
LINE
  5
10E
100
AcDbEntity
  8
0
  6
CONTINUOUS
 62
               4
100
AcDbLine
 10
1.2500000000000568
 20
-2.5999999999999943
 30
0.0
 11
1.2500000000000284
 21
-3.7700000000000102
 31
0.0
  0
LINE
  5
10F
100
AcDbEntity
  8
0
  6
CONTINUOUS
 62
               4
100
AcDbLine
 10
-1.2499999999999432
 20
-3.7700000000000387
 30
0.0
 11
1.2500000000000284
 21
-3.7700000000000102
 31
0.0
  0
LINE
  5
110
100
AcDbEntity
  8
0
  6
CONTINUOUS
 62
               4
100
AcDbLine
 10
-1.25
 20
0.4999999999999716
 30
0.0
 11
-1.2500000000000284
 21
-0.0000000000000284
 31
0.0
  0
LINE
  5
111
100
AcDbEntity
  8
0
  6
CONTINUOUS
 62
             200
100
AcDbLine
 10
-1.0200000000000102
 20
0.4999999999999716
 30
0.0
 11
-1.0199999999999818
 21
-0.0000000000000284
 31
0.0
  0
LINE
  5
112
100
AcDbEntity
  8
0
  6
CONTINUOUS
 62
             200
100
AcDbLine
 10
1.0200000000000102
 20
0.5
 30
0.0
 11
1.0200000000000387
 21
-0.0000000000000284
 31
0.0
  0
LINE
  5
113
100
AcDbEntity
  8
0
  6
CONTINUOUS
 62
               4
100
AcDbLine
 10
1.2499999999999716
 20
0.5
 30
0.0
 11
1.2500000000000284
 21
-0.0000000000000284
 31
0.0
  0
LINE
  5
114
100
AcDbEntity
  8
0
  6
CONTINUOUS
 62
               4
100
AcDbLine
 10
-1.25
 20
0.4999999999999716
 30
0.0
 11
1.2499999999999716
 21
0.5
 31
0.0
  0
LINE
  5
115
100
AcDbEntity
  8
0
  6
CONTINUOUS
 62
               4
100
AcDbLine
 10
-1.3000000000000966
 20
9.1499999999999773
 30
0.0
 11
-1.3000000000000682
 21
6.8999999999999773
 31
0.0
  0
LINE
  5
116
100
AcDbEntity
  8
0
  6
CONTINUOUS
 62
               4
100
AcDbLine
 10
1.2999999999998977
 20
10.650000000000006
 30
0.0
 11
1.2999999999999261
 21
6.9000000000000057
 31
0.0
  0
ARC
  5
117
100
AcDbEntity
  8
0
  6
CONTINUOUS
 62
               4
100
AcDbCircle
 10
-0.000000000000008
 20
-2.550000000000014
 30
0.0
 40
2.0499999999999998
100
AcDbArc
 50
180.00000000000031
 51
0.0000000000008651
  0
ENDBLK
  5
118
100
AcDbEntity
  8
0
100
AcDbBlockEnd
  0
BLOCK
  5
119
100
AcDbEntity
  8
0
100
AcDbBlockBegin
  2
ZS16SS-3
 70
               0
 10
0.0
 20
0.0
 30
0.0
  3
ZS16SS-3
  1

  0
LINE
  5
11A
100
AcDbEntity
  8
0
  6
CENTER
 62
             200
100
AcDbLine
 10
-1.3199999999999932
 20
0.0
 30
0.0
 11
23.579999999999984
 21
0.0
 31
0.0
  0
LINE
  5
11B
100
AcDbEntity
  8
0
  6
CONTINUOUS
 62
               4
100
AcDbLine
 10
0.0
 20
-1.5
 30
0.0
 11
16.560000000000002
 21
-1.5
 31
0.0
  0
LINE
  5
11C
100
AcDbEntity
  8
0
  6
CONTINUOUS
 62
               4
100
AcDbLine
 10
0.0
 20
1.5
 30
0.0
 11
16.560000000000002
 21
1.5
 31
0.0
  0
LINE
  5
11D
100
AcDbEntity
  8
0
  6
CONTINUOUS
 62
               4
100
AcDbLine
 10
0.0
 20
-2.0499999999999972
 30
0.0
 11
16.910000000000025
 21
-2.0499999999999972
 31
0.0
  0
LINE
  5
11E
100
AcDbEntity
  8
0
  6
CONTINUOUS
 62
               4
100
AcDbLine
 10
0.0
 20
2.0499999999999972
 30
0.0
 11
16.910000000000025
 21
2.0499999999999972
 31
0.0
  0
LINE
  5
11F
100
AcDbEntity
  8
0
  6
CONTINUOUS
 62
               4
100
AcDbLine
 10
0.0
 20
2.0499999999999972
 30
0.0
 11
0.0
 21
-2.0499999999999972
 31
0.0
  0
LINE
  5
120
100
AcDbEntity
  8
0
  6
CENTER
 62
             200
100
AcDbLine
 10
2.0
 20
2.8299999999999983
 30
0.0
 11
2.0
 21
-2.75
 31
0.0
  0
LINE
  5
121
100
AcDbEntity
  8
0
  6
CONTINUOUS
 62
               4
100
AcDbLine
 10
17.079999999999984
 20
2.25
 30
0.0
 11
22.0
 21
2.25
 31
0.0
  0
LINE
  5
122
100
AcDbEntity
  8
0
  6
CONTINUOUS
 62
               4
100
AcDbLine
 10
17.079999999999984
 20
-2.25
 30
0.0
 11
22.0
 21
-2.25
 31
0.0
  0
LINE
  5
123
100
AcDbEntity
  8
0
  6
CONTINUOUS
 62
               4
100
AcDbLine
 10
22.0
 20
2.25
 30
0.0
 11
22.0
 21
-2.25
 31
0.0
  0
LINE
  5
124
100
AcDbEntity
  8
0
  6
CONTINUOUS
 62
               4
100
AcDbLine
 10
1.3500000000000227
 20
-1.0699999999999932
 30
0.0
 11
3.0699999999999932
 21
0.6400000000000006
 31
0.0
  0
LINE
  5
125
100
AcDbEntity
  8
0
  6
CONTINUOUS
 62
               4
100
AcDbLine
 10
0.9300000000000068
 20
-0.6400000000000006
 30
0.0
 11
2.6399999999999864
 21
1.0699999999999932
 31
0.0
  0
ARC
  5
126
100
AcDbEntity
  8
0
  6
CONTINUOUS
 62
               4
100
AcDbCircle
 10
19.5
 20
0.0
 30
0.0
 40
3.3043758866085451
100
AcDbArc
 50
137.08479304050996
 51
222.91520695948927
  0
CIRCLE
  5
127
100
AcDbEntity
  8
0
  6
CONTINUOUS
 62
               4
100
AcDbCircle
 10
2.0
 20
0.0
 30
0.0
 40
1.25
  0
CIRCLE
  5
128
100
AcDbEntity
  8
0
  6
CONTINUOUS
 62
               4
100
AcDbCircle
 10
2.0
 20
0.0
 30
0.0
 40
1.3999996185302734
  0
CIRCLE
  5
129
100
AcDbEntity
  8
0
  6
CONTINUOUS
 62
               4
100
AcDbCircle
 10
19.4073486328125
 20
0.0
 30
0.0
 40
1.2999992370605469
  0
CIRCLE
  5
12A
100
AcDbEntity
  8
0
  6
CONTINUOUS
 62
               4
100
AcDbCircle
 10
19.729156494140625
 20
-0.34100341796875
 30
0.0
 40
0.449999988079071
  0
CIRCLE
  5
12B
100
AcDbEntity
  8
0
  6
CONTINUOUS
 62
               4
100
AcDbCircle
 10
19.117279052734375
 20
0.3181533813476563
 30
0.0
 40
0.449999988079071
  0
CIRCLE
  5
12C
100
AcDbEntity
  8
0
  6
CONTINUOUS
 62
               4
100
AcDbCircle
 10
19.729156494140625
 20
-0.34100341796875
 30
0.0
 40
0.25
  0
CIRCLE
  5
12D
100
AcDbEntity
  8
0
  6
CONTINUOUS
 62
               4
100
AcDbCircle
 10
19.117279052734375
 20
0.3181533813476563
 30
0.0
 40
0.25
  0
ENDBLK
  5
12E
100
AcDbEntity
  8
0
100
AcDbBlockEnd
  0
BLOCK
  5
12F
100
AcDbEntity
  8
0
100
AcDbBlockBegin
  2
ZS16SS-4
 70
               0
 10
0.0
 20
0.0
 30
0.0
  3
ZS16SS-4
  1

  0
LINE
  5
130
100
AcDbEntity
  8
0
  6
CENTER
 62
             200
100
AcDbLine
 10
24.63917963940662
 20
-33.49999999999978
 30
0.0
 11
37.260820376932088
 21
-33.49999999999978
 31
0.0
  0
ARC
  5
131
100
AcDbEntity
  8
0
  6
CONTINUOUS
 62
               4
100
AcDbCircle
 10
33.699999999999932
 20
-21.000000000000128
 30
0.0
 40
2.7499999999999996
100
AcDbArc
 50
335.38002267133498
 51
24.619977328664202
  0
ARC
  5
132
100
AcDbEntity
  8
0
  6
CONTINUOUS
 62
               4
100
AcDbCircle
 10
33.699999999999932
 20
-21.000000000000128
 30
0.0
 40
4.9999999999999991
100
AcDbArc
 50
299.9999999999975
 51
60.000000000001762
  0
LINE
  5
133
100
AcDbEntity
  8
0
  6
CONTINUOUS
 62
               4
100
AcDbLine
 10
36.199999999999818
 20
-38.499999999999943
 30
0.0
 11
36.199999999999818
 21
-16.499999999999943
 31
0.0
  0
LINE
  5
134
100
AcDbEntity
  8
0
  6
CONTINUOUS
 62
               4
100
AcDbLine
 10
24.200000000000045
 20
-38.500000000000007
 30
0.0
 11
36.199999999999818
 21
-38.499999999999943
 31
0.0
  0
LINE
  5
135
100
AcDbEntity
  8
0
  6
CONTINUOUS
 62
               4
100
AcDbLine
 10
41.199999999999932
 20
-28.000000000000121
 30
0.0
 11
36.199999999999818
 21
-28.000000000000121
 31
0.0
  0
LINE
  5
136
100
AcDbEntity
  8
0
  6
CONTINUOUS
 62
               4
100
AcDbLine
 10
27.199999999999989
 20
-16.060820367751063
 30
0.0
 11
27.199999999999989
 21
-16.499999999999986
 31
0.0
  0
ARC
  5
137
100
AcDbEntity
  8
0
  6
CONTINUOUS
 62
               4
100
AcDbCircle
 10
33.699999999999932
 20
-21.000000000000128
 30
0.0
 40
4.2999999999999998
100
AcDbArc
 50
305.54874400286911
 51
54.451255997130176
  0
ARC
  5
138
100
AcDbEntity
  8
0
  6
CONTINUOUS
 62
               4
100
AcDbCircle
 10
33.699999999999932
 20
-21.000000000000128
 30
0.0
 40
4.9999999999999991
100
AcDbArc
 50
64.158067236837425
 51
115.84193276316296
  0
ARC
  5
139
100
AcDbEntity
  8
0
  6
CONTINUOUS
 62
               4
100
AcDbCircle
 10
26.139179632248897
 20
-16.060820367751063
 30
0.0
 40
1.0608203677510608
100
AcDbArc
 50
0.0
 51
86.713239636961106
  0
LINE
  5
13A
100
AcDbEntity
  8
0
  6
CONTINUOUS
 62
               4
100
AcDbLine
 10
36.199999999999818
 20
-16.499999999999943
 30
0.0
 11
26.199999999999932
 21
-16.500000000000014
 31
0.0
  0
LINE
  5
13B
100
AcDbEntity
  8
0
  6
CENTER
 62
             200
100
AcDbLine
 10
33.699999999999932
 20
-14.939179632249051
 30
0.0
 11
33.699999999999989
 21
-27.060820367751177
 31
0.0
  0
LINE
  5
13C
100
AcDbEntity
  8
0
  6
CENTER
 62
             200
100
AcDbLine
 10
39.760820367751023
 20
-21.000000000000128
 30
0.0
 11
27.639179632248897
 21
-21.000000000000128
 31
0.0
  0
LINE
  5
13D
100
AcDbEntity
  8
0
  6
CONTINUOUS
 62
               4
100
AcDbLine
 10
41.199999999999932
 20
-15.0
 30
0.0
 11
41.199999999999932
 21
-28.000000000000121
 31
0.0
  0
LINE
  5
13E
100
AcDbEntity
  8
0
  6
CONTINUOUS
 62
               4
100
AcDbLine
 10
27.199999999999591
 20
15.000000000000014
 30
0.0
 11
41.199999999999932
 21
-15.023096887134741
 31
0.0
  0
LINE
  5
13F
100
AcDbEntity
  8
0
  6
CONTINUOUS
 62
               4
100
AcDbLine
 10
27.199999999999591
 20
15.000000000000014
 30
0.0
 11
26.199999999999932
 21
15.000000000000014
 31
0.0
  0
LINE
  5
140
100
AcDbEntity
  8
0
  6
CONTINUOUS
 62
               7
100
AcDbLine
 10
25.699999999999875
 20
32.5
 30
0.0
 11
25.699999999999875
 21
37.0
 31
0.0
  0
LINE
  5
141
100
AcDbEntity
  8
0
  6
CONTINUOUS
 62
               7
100
AcDbLine
 10
25.699999999999875
 20
37.0
 30
0.0
 11
22.699999999999932
 21
40.0
 31
0.0
  0
LINE
  5
142
100
AcDbEntity
  8
0
  6
CENTER
 62
               2
100
AcDbLine
 10
6.1999999999998749
 20
11.195901639344285
 30
0.0
 11
6.1999999999998749
 21
18.661748633879824
 31
0.0
  0
CIRCLE
  5
143
100
AcDbEntity
  8
0
  6
CONTINUOUS
 62
               7
100
AcDbCircle
 10
6.1999999999998749
 20
15.000000000000014
 30
0.0
 40
1.9999999999999998
  0
CIRCLE
  5
144
100
AcDbEntity
  8
0
  6
CONTINUOUS
 62
               2
100
AcDbCircle
 10
6.1999999999998749
 20
15.000000000000014
 30
0.0
 40
2.4999999999999996
  0
LINE
  5
145
100
AcDbEntity
  8
0
  6
CENTER
 62
               2
100
AcDbLine
 10
9.3601092896174123
 20
15.000000000000014
 30
0.0
 11
2.9874316939889241
 21
15.000000000000014
 31
0.0
  0
CIRCLE
  5
146
100
AcDbEntity
  8
0
  6
CONTINUOUS
 62
               7
100
AcDbCircle
 10
21.199999999999932
 20
20.0
 30
0.0
 40
1.9999999999999998
  0
CIRCLE
  5
147
100
AcDbEntity
  8
0
  6
CONTINUOUS
 62
               2
100
AcDbCircle
 10
21.199999999999932
 20
20.0
 30
0.0
 40
2.4999999999999996
  0
LINE
  5
148
100
AcDbEntity
  8
0
  6
CENTER
 62
               2
100
AcDbLine
 10
17.199999999999932
 20
20.0
 30
0.0
 11
25.199999999999875
 21
20.0
 31
0.0
  0
LINE
  5
149
100
AcDbEntity
  8
0
  6
CENTER
 62
               2
100
AcDbLine
 10
21.199999999999932
 20
16.0
 30
0.0
 11
21.199999999999932
 21
24.000000000000014
 31
0.0
  0
LINE
  5
14A
100
AcDbEntity
  8
0
  6
CONTINUOUS
 62
               7
100
AcDbLine
 10
25.699999999999875
 20
-36.999999999999986
 30
0.0
 11
22.699999999999932
 21
-39.999999999999979
 31
0.0
  0
LINE
  5
14B
100
AcDbEntity
  8
0
  6
CONTINUOUS
 62
               7
100
AcDbLine
 10
1.1999999999998749
 20
32.5
 30
0.0
 11
26.199999999999932
 21
32.5
 31
0.0
  0
LINE
  5
14C
100
AcDbEntity
  8
0
  6
CONTINUOUS
 62
               7
100
AcDbLine
 10
1.1999999999998749
 20
-32.499999999999986
 30
0.0
 11
26.199999999999932
 21
-32.499999999999986
 31
0.0
  0
LINE
  5
14D
100
AcDbEntity
  8
0
  6
CONTINUOUS
 62
               7
100
AcDbLine
 10
10.921687833600117
 20
26.249999994999996
 30
0.0
 11
11.643375667200473
 21
25.000000000000014
 31
0.0
  0
LINE
  5
14E
100
AcDbEntity
  8
0
  6
CONTINUOUS
 62
               7
100
AcDbLine
 10
10.921687833600117
 20
23.750000005000004
 30
0.0
 11
11.643375667200473
 21
25.000000000000014
 31
0.0
  0
LINE
  5
14F
100
AcDbEntity
  8
0
  6
CONTINUOUS
 62
               7
100
AcDbLine
 10
9.4783121663995757
 20
26.249999994999996
 30
0.0
 11
8.7566243327993334
 21
25.000000000000014
 31
0.0
  0
LINE
  5
150
100
AcDbEntity
  8
0
  6
CONTINUOUS
 62
               7
100
AcDbLine
 10
9.4783121663995757
 20
23.750000005000004
 30
0.0
 11
8.7566243327993334
 21
25.000000000000014
 31
0.0
  0
LINE
  5
151
100
AcDbEntity
  8
0
  6
CONTINUOUS
 62
               7
100
AcDbLine
 10
9.4783121663995757
 20
23.750000005000004
 30
0.0
 11
10.921687833600117
 21
23.750000005000004
 31
0.0
  0
LINE
  5
152
100
AcDbEntity
  8
0
  6
CONTINUOUS
 62
               7
100
AcDbLine
 10
9.4783121663995757
 20
26.249999994999996
 30
0.0
 11
10.921687833600117
 21
26.249999994999996
 31
0.0
  0
CIRCLE
  5
153
100
AcDbEntity
  8
0
  6
CONTINUOUS
 62
               7
100
AcDbCircle
 10
10.199999999999875
 20
25.000000000000014
 30
0.0
 40
2.7499999999999996
  0
CIRCLE
  5
154
100
AcDbEntity
  8
0
  6
CONTINUOUS
 62
               7
100
AcDbCircle
 10
10.199999999999875
 20
25.000000000000014
 30
0.0
 40
4.9999999999999991
  0
CIRCLE
  5
155
100
AcDbEntity
  8
0
  6
CONTINUOUS
 62
               7
100
AcDbCircle
 10
10.199999999999875
 20
25.000000000000014
 30
0.0
 40
5.4999999999999991
  0
LINE
  5
156
100
AcDbEntity
  8
0
  6
CENTER
 62
               2
100
AcDbLine
 10
3.1999999999999318
 20
25.000000000000014
 30
0.0
 11
17.199999999999932
 21
25.000000000000014
 31
0.0
  0
LINE
  5
157
100
AcDbEntity
  8
0
  6
CONTINUOUS
 62
               7
100
AcDbLine
 10
22.066025403784352
 20
8.5000000000000142
 30
0.0
 11
22.932050807568771
 21
10.000000000000014
 31
0.0
  0
LINE
  5
158
100
AcDbEntity
  8
0
  6
CONTINUOUS
 62
               7
100
AcDbLine
 10
22.066025403784352
 20
11.5
 30
0.0
 11
22.932050807568771
 21
10.000000000000014
 31
0.0
  0
LINE
  5
159
100
AcDbEntity
  8
0
  6
CONTINUOUS
 62
               7
100
AcDbLine
 10
20.333974596215455
 20
11.5
 30
0.0
 11
22.066025403784352
 21
11.5
 31
0.0
  0
LINE
  5
15A
100
AcDbEntity
  8
0
  6
CONTINUOUS
 62
               7
100
AcDbLine
 10
20.333974596215455
 20
8.5000000000000142
 30
0.0
 11
22.066025403784352
 21
8.5000000000000142
 31
0.0
  0
LINE
  5
15B
100
AcDbEntity
  8
0
  6
CONTINUOUS
 62
               7
100
AcDbLine
 10
20.333974596215455
 20
8.5000000000000142
 30
0.0
 11
19.467949192430979
 21
10.000000000000014
 31
0.0
  0
LINE
  5
15C
100
AcDbEntity
  8
0
  6
CONTINUOUS
 62
               7
100
AcDbLine
 10
20.333974596215455
 20
11.5
 30
0.0
 11
19.467949192430979
 21
10.000000000000014
 31
0.0
  0
LINE
  5
15D
100
AcDbEntity
  8
0
  6
CENTER
 62
               2
100
AcDbLine
 10
15.699999999999932
 20
10.000000000000014
 30
0.0
 11
26.669430746132207
 21
10.000000000000014
 31
0.0
  0
LINE
  5
15E
100
AcDbEntity
  8
0
  6
CENTER
 62
               2
100
AcDbLine
 10
21.199999999999932
 20
15.5
 30
0.0
 11
21.199999999999932
 21
4.5
 31
0.0
  0
CIRCLE
  5
15F
100
AcDbEntity
  8
0
  6
CONTINUOUS
 62
               7
100
AcDbCircle
 10
21.199999999999932
 20
10.000000000000014
 30
0.0
 40
3.5
  0
CIRCLE
  5
160
100
AcDbEntity
  8
0
  6
CONTINUOUS
 62
               7
100
AcDbCircle
 10
21.199999999999932
 20
10.000000000000014
 30
0.0
 40
3.9999999999999996
  0
LINE
  5
161
100
AcDbEntity
  8
0
  6
CONTINUOUS
 62
               7
100
AcDbLine
 10
26.199999999999932
 20
32.5
 30
0.0
 11
26.199999999999932
 21
-32.499999999999986
 31
0.0
  0
LINE
  5
162
100
AcDbEntity
  8
0
  6
CENTER
 62
               2
100
AcDbLine
 10
6.1999999999998749
 20
-10.999999999999986
 30
0.0
 11
6.1999999999998749
 21
-18.999999999999986
 31
0.0
  0
CIRCLE
  5
163
100
AcDbEntity
  8
0
  6
CONTINUOUS
 62
               7
100
AcDbCircle
 10
6.1999999999998749
 20
-15.0
 30
0.0
 40
1.9999999999999998
  0
CIRCLE
  5
164
100
AcDbEntity
  8
0
  6
CONTINUOUS
 62
               2
100
AcDbCircle
 10
6.1999999999998749
 20
-15.0
 30
0.0
 40
2.4999999999999996
  0
LINE
  5
165
100
AcDbEntity
  8
0
  6
CENTER
 62
               2
100
AcDbLine
 10
10.199999999999875
 20
-15.0
 30
0.0
 11
2.1999999999999318
 21
-15.0
 31
0.0
  0
CIRCLE
  5
166
100
AcDbEntity
  8
0
  6
CONTINUOUS
 62
               7
100
AcDbCircle
 10
21.199999999999932
 20
-19.999999999999986
 30
0.0
 40
1.9999999999999998
  0
LINE
  5
167
100
AcDbEntity
  8
0
  6
CONTINUOUS
 62
               7
100
AcDbLine
 10
10.921687833600117
 20
-23.75000000499999
 30
0.0
 11
11.643375667200473
 21
-25.0
 31
0.0
  0
LINE
  5
168
100
AcDbEntity
  8
0
  6
CONTINUOUS
 62
               7
100
AcDbLine
 10
9.4783121663995757
 20
-23.75000000499999
 30
0.0
 11
10.921687833600117
 21
-23.75000000499999
 31
0.0
  0
LINE
  5
169
100
AcDbEntity
  8
0
  6
CONTINUOUS
 62
               7
100
AcDbLine
 10
9.4783121663995757
 20
-23.75000000499999
 30
0.0
 11
8.7566243327993334
 21
-25.0
 31
0.0
  0
LINE
  5
16A
100
AcDbEntity
  8
0
  6
CONTINUOUS
 62
               7
100
AcDbLine
 10
9.4783121663995757
 20
-26.249999994999996
 30
0.0
 11
8.7566243327993334
 21
-25.0
 31
0.0
  0
LINE
  5
16B
100
AcDbEntity
  8
0
  6
CONTINUOUS
 62
               7
100
AcDbLine
 10
9.4783121663995757
 20
-26.249999994999996
 30
0.0
 11
10.921687833600117
 21
-26.249999994999996
 31
0.0
  0
LINE
  5
16C
100
AcDbEntity
  8
0
  6
CONTINUOUS
 62
               7
100
AcDbLine
 10
10.921687833600117
 20
-26.249999994999996
 30
0.0
 11
11.643375667200473
 21
-25.0
 31
0.0
  0
LINE
  5
16D
100
AcDbEntity
  8
0
  6
CONTINUOUS
 62
               7
100
AcDbLine
 10
20.333974596215455
 20
-8.5
 30
0.0
 11
19.467949192430979
 21
-9.9999999999999858
 31
0.0
  0
LINE
  5
16E
100
AcDbEntity
  8
0
  6
CONTINUOUS
 62
               7
100
AcDbLine
 10
20.333974596215455
 20
-11.499999999999986
 30
0.0
 11
19.467949192430979
 21
-9.9999999999999858
 31
0.0
  0
LINE
  5
16F
100
AcDbEntity
  8
0
  6
CONTINUOUS
 62
               7
100
AcDbLine
 10
20.333974596215455
 20
-8.5
 30
0.0
 11
22.066025403784352
 21
-8.5
 31
0.0
  0
LINE
  5
170
100
AcDbEntity
  8
0
  6
CONTINUOUS
 62
               7
100
AcDbLine
 10
20.333974596215455
 20
-11.499999999999986
 30
0.0
 11
22.066025403784352
 21
-11.499999999999986
 31
0.0
  0
LINE
  5
171
100
AcDbEntity
  8
0
  6
CONTINUOUS
 62
               7
100
AcDbLine
 10
22.066025403784352
 20
-11.499999999999986
 30
0.0
 11
22.932050807568771
 21
-9.9999999999999858
 31
0.0
  0
LINE
  5
172
100
AcDbEntity
  8
0
  6
CONTINUOUS
 62
               7
100
AcDbLine
 10
22.066025403784352
 20
-8.5
 30
0.0
 11
22.932050807568771
 21
-9.9999999999999858
 31
0.0
  0
CIRCLE
  5
173
100
AcDbEntity
  8
0
  6
CONTINUOUS
 62
               2
100
AcDbCircle
 10
21.199999999999932
 20
-19.999999999999986
 30
0.0
 40
2.4999999999999996
  0
LINE
  5
174
100
AcDbEntity
  8
0
  6
CENTER
 62
               2
100
AcDbLine
 10
17.199999999999932
 20
-19.999999999999986
 30
0.0
 11
25.199999999999875
 21
-19.999999999999986
 31
0.0
  0
LINE
  5
175
100
AcDbEntity
  8
0
  6
CENTER
 62
               2
100
AcDbLine
 10
15.804956864028668
 20
-9.9999999999999858
 30
0.0
 11
26.748155982976243
 21
-9.9999999999999858
 31
0.0
  0
LINE
  5
176
100
AcDbEntity
  8
0
  6
CENTER
 62
               2
100
AcDbLine
 10
21.199999999999932
 20
-15.499999999999986
 30
0.0
 11
21.199999999999932
 21
-4.5117486338797761
 31
0.0
  0
LINE
  5
177
100
AcDbEntity
  8
0
  6
CONTINUOUS
 62
               7
100
AcDbLine
 10
25.699999999999875
 20
-32.499999999999986
 30
0.0
 11
25.699999999999875
 21
-36.999999999999986
 31
0.0
  0
LINE
  5
178
100
AcDbEntity
  8
0
  6
CONTINUOUS
 62
               7
100
AcDbLine
 10
1.1999999999998749
 20
32.5
 30
0.0
 11
1.1999999999998749
 21
-32.499999999999986
 31
0.0
  0
CIRCLE
  5
179
100
AcDbEntity
  8
0
  6
CONTINUOUS
 62
               7
100
AcDbCircle
 10
21.199999999999932
 20
-9.9999999999999858
 30
0.0
 40
3.5
  0
CIRCLE
  5
17A
100
AcDbEntity
  8
0
  6
CONTINUOUS
 62
               7
100
AcDbCircle
 10
21.199999999999932
 20
-9.9999999999999858
 30
0.0
 40
3.9999999999999996
  0
LINE
  5
17B
100
AcDbEntity
  8
0
  6
CENTER
 62
               2
100
AcDbLine
 10
21.199999999999932
 20
-15.999999999999986
 30
0.0
 11
21.199999999999932
 21
-23.999999999999972
 31
0.0
  0
CIRCLE
  5
17C
100
AcDbEntity
  8
0
  6
CONTINUOUS
 62
               7
100
AcDbCircle
 10
10.199999999999875
 20
-25.0
 30
0.0
 40
2.7499999999999996
  0
CIRCLE
  5
17D
100
AcDbEntity
  8
0
  6
CONTINUOUS
 62
               7
100
AcDbCircle
 10
10.199999999999875
 20
-25.0
 30
0.0
 40
4.9999999999999991
  0
CIRCLE
  5
17E
100
AcDbEntity
  8
0
  6
CONTINUOUS
 62
               7
100
AcDbCircle
 10
10.199999999999875
 20
-25.0
 30
0.0
 40
5.4999999999999991
  0
LINE
  5
17F
100
AcDbEntity
  8
0
  6
CENTER
 62
               2
100
AcDbLine
 10
10.199999999999875
 20
32.0
 30
0.0
 11
10.199999999999875
 21
18.0
 31
0.0
  0
LINE
  5
180
100
AcDbEntity
  8
0
  6
CENTER
 62
               2
100
AcDbLine
 10
2.9874316939889241
 20
-25.0
 30
0.0
 11
17.200176182294513
 21
-25.0
 31
0.0
  0
LINE
  5
181
100
AcDbEntity
  8
0
  6
CENTER
 62
               2
100
AcDbLine
 10
29.699999999999875
 20
0.0
 30
0.0
 11
-3.3000000000001251
 21
0.0
 31
0.0
  0
LINE
  5
182
100
AcDbEntity
  8
0
  6
CENTER
 62
               2
100
AcDbLine
 10
7.1999999999999318
 20
33.394997531017438
 30
0.0
 11
7.1999999999999318
 21
41.500000000000625
 31
0.0
  0
LINE
  5
183
100
AcDbEntity
  8
0
  6
CENTER
 62
               2
100
AcDbLine
 10
16.774999999999864
 20
36.975000000000023
 30
0.0
 11
3.6249999999999432
 21
36.974999999999966
 31
0.0
  0
ARC
  5
184
100
AcDbEntity
  8
0
  6
CONTINUOUS
 62
               7
100
AcDbCircle
 10
7.1999999999999318
 20
36.974999999999994
 30
0.0
 40
2.0750000000000002
100
AcDbArc
 50
179.99999999999997
 51
0.0
  0
LINE
  5
185
100
AcDbEntity
  8
0
  6
CENTER
 62
               2
100
AcDbLine
 10
13.199999999999932
 20
33.394997531017438
 30
0.0
 11
13.199999999999932
 21
41.500000000000625
 31
0.0
  0
ARC
  5
186
100
AcDbEntity
  8
0
  6
CONTINUOUS
 62
               7
100
AcDbCircle
 10
13.199999999999932
 20
36.974999999999994
 30
0.0
 40
2.0750000000000002
100
AcDbArc
 50
179.99999999999957
 51
359.99999999999881
  0
LINE
  5
187
100
AcDbEntity
  8
0
  6
CONTINUOUS
 62
               7
100
AcDbLine
 10
11.124999999999886
 20
36.974999999999994
 30
0.0
 11
11.124999999999886
 21
38.600000000000023
 31
0.0
  0
LINE
  5
188
100
AcDbEntity
  8
0
  6
CONTINUOUS
 62
               7
100
AcDbLine
 10
11.599999999999909
 20
39.07499999999996
 30
0.0
 11
11.599999999999909
 21
39.300000000000608
 31
0.0
  0
LINE
  5
189
100
AcDbEntity
  8
0
  6
CONTINUOUS
 62
               7
100
AcDbLine
 10
11.124999999999886
 20
38.600000000000023
 30
0.0
 11
11.599999999999909
 21
39.07499999999996
 31
0.0
  0
ARC
  5
18A
100
AcDbEntity
  8
0
  6
CONTINUOUS
 62
               7
100
AcDbCircle
 10
11.299999999999841
 20
39.300000000000608
 30
0.0
 40
0.3
100
AcDbArc
 50
0.0
 51
89.999999999999815
  0
ARC
  5
18B
100
AcDbEntity
  8
0
  6
CONTINUOUS
 62
               7
100
AcDbCircle
 10
9.0999999999999091
 20
39.300000000000608
 30
0.0
 40
0.3
100
AcDbArc
 50
89.999999999999815
 51
179.99999999999963
  0
LINE
  5
18C
100
AcDbEntity
  8
0
  6
CONTINUOUS
 62
               7
100
AcDbLine
 10
9.0999999999999091
 20
39.600000000000591
 30
0.0
 11
11.299999999999841
 21
39.600000000000591
 31
0.0
  0
LINE
  5
18D
100
AcDbEntity
  8
0
  6
CONTINUOUS
 62
               7
100
AcDbLine
 10
9.2749999999998636
 20
38.600000000000023
 30
0.0
 11
8.7999999999998977
 21
39.07499999999996
 31
0.0
  0
LINE
  5
18E
100
AcDbEntity
  8
0
  6
CONTINUOUS
 62
               7
100
AcDbLine
 10
8.7999999999998977
 20
39.07499999999996
 30
0.0
 11
8.7999999999998977
 21
39.300000000000608
 31
0.0
  0
LINE
  5
18F
100
AcDbEntity
  8
0
  6
CONTINUOUS
 62
               7
100
AcDbLine
 10
9.2749999999998636
 20
36.974999999999994
 30
0.0
 11
9.2749999999998636
 21
38.600000000000023
 31
0.0
  0
LINE
  5
190
100
AcDbEntity
  8
0
  6
CONTINUOUS
 62
               7
100
AcDbLine
 10
5.5999999999998522
 20
39.599999999999994
 30
0.0
 11
5.1999999999993065
 21
40.000000000000625
 31
0.0
  0
LINE
  5
191
100
AcDbEntity
  8
0
  6
CONTINUOUS
 62
               7
100
AcDbLine
 10
5.1249999999998863
 20
38.600000000000023
 30
0.0
 11
5.5999999999998522
 21
39.07499999999996
 31
0.0
  0
LINE
  5
192
100
AcDbEntity
  8
0
  6
CONTINUOUS
 62
               7
100
AcDbLine
 10
5.5999999999998522
 20
39.07499999999996
 30
0.0
 11
5.5999999999998522
 21
39.599999999999994
 31
0.0
  0
LINE
  5
193
100
AcDbEntity
  8
0
  6
CONTINUOUS
 62
               7
100
AcDbLine
 10
5.1249999999998863
 20
36.974999999999994
 30
0.0
 11
5.1249999999998863
 21
38.600000000000023
 31
0.0
  0
LINE
  5
194
100
AcDbEntity
  8
0
  6
CONTINUOUS
 62
               7
100
AcDbLine
 10
22.699999999999932
 20
40.000000000000625
 30
0.0
 11
15.2000000000005
 21
40.000000000000625
 31
0.0
  0
LINE
  5
195
100
AcDbEntity
  8
0
  6
CONTINUOUS
 62
               7
100
AcDbLine
 10
15.274999999999864
 20
36.974999999999994
 30
0.0
 11
15.274999999999864
 21
38.600000000000023
 31
0.0
  0
LINE
  5
196
100
AcDbEntity
  8
0
  6
CONTINUOUS
 62
               7
100
AcDbLine
 10
14.799999999999841
 20
39.07499999999996
 30
0.0
 11
14.799999999999841
 21
39.599999999999994
 31
0.0
  0
LINE
  5
197
100
AcDbEntity
  8
0
  6
CONTINUOUS
 62
               7
100
AcDbLine
 10
15.274999999999864
 20
38.600000000000023
 30
0.0
 11
14.799999999999841
 21
39.07499999999996
 31
0.0
  0
LINE
  5
198
100
AcDbEntity
  8
0
  6
CONTINUOUS
 62
               7
100
AcDbLine
 10
14.799999999999841
 20
39.599999999999994
 30
0.0
 11
15.2000000000005
 21
40.000000000000625
 31
0.0
  0
ARC
  5
199
100
AcDbEntity
  8
0
  6
CONTINUOUS
 62
               7
100
AcDbCircle
 10
10.199999999999875
 20
25.000000000000014
 30
0.0
 40
8.5
100
AcDbArc
 50
61.927513064146908
 51
118.07248693585271
  0
ARC
  5
19A
100
AcDbEntity
  8
0
  6
CONTINUOUS
 62
               7
100
AcDbCircle
 10
10.199999999999875
 20
-25.0
 30
0.0
 40
8.5
100
AcDbArc
 50
241.92751306414652
 51
298.07248693585228
  0
LINE
  5
19B
100
AcDbEntity
  8
0
  6
CENTER
 62
               2
100
AcDbLine
 10
10.199999999999875
 20
-31.999999999999986
 30
0.0
 11
10.199999999999875
 21
-17.999999999999986
 31
0.0
  0
LINE
  5
19C
100
AcDbEntity
  8
0
  6
CONTINUOUS
 62
               7
100
AcDbLine
 10
-0.0000000000000568
 20
30.700000000000017
 30
0.0
 11
-0.0000000000000568
 21
17.300000000000026
 31
0.0
  0
LINE
  5
19D
100
AcDbEntity
  8
0
  6
CONTINUOUS
 62
               7
100
AcDbLine
 10
0.4999999999999432
 20
40.0
 30
0.0
 11
5.1999999999993065
 21
40.0
 31
0.0
  0
ARC
  5
19E
100
AcDbEntity
  8
0
  6
CONTINUOUS
 62
               7
100
AcDbCircle
 10
0.4999999999999432
 20
39.5
 30
0.0
 40
0.4999999999999999
100
AcDbArc
 50
89.999999999999815
 51
179.99999999999963
  0
LINE
  5
19F
100
AcDbEntity
  8
0
  6
CONTINUOUS
 62
               7
100
AcDbLine
 10
-0.0000000000000568
 20
39.5
 30
0.0
 11
-0.0000000000000568
 21
38.300000000000011
 31
0.0
  0
LINE
  5
1A0
100
AcDbEntity
  8
0
  6
CONTINUOUS
 62
               7
100
AcDbLine
 10
0.0000000119208607
 20
38.300000011920929
 30
0.0
 11
-0.3000000000000682
 21
38.000000000000028
 31
0.0
  0
LINE
  5
1A1
100
AcDbEntity
  8
0
  6
CONTINUOUS
 62
               7
100
AcDbLine
 10
-0.3000000000000682
 20
38.0
 30
0.0
 11
-0.3000000000001251
 21
30.999999940395384
 31
0.0
  0
LINE
  5
1A2
100
AcDbEntity
  8
0
  6
CONTINUOUS
 62
               7
100
AcDbLine
 10
0.0000000119208607
 20
30.699999988079057
 30
0.0
 11
-0.2999999403954803
 21
30.999999940395384
 31
0.0
  0
LINE
  5
1A3
100
AcDbEntity
  8
0
  6
CONTINUOUS
 62
               7
100
AcDbLine
 10
-0.3000000000000682
 20
17.000000000000014
 30
0.0
 11
-0.3000000000000682
 21
3.0
 31
0.0
  0
LINE
  5
1A4
100
AcDbEntity
  8
0
  6
CONTINUOUS
 62
               7
100
AcDbLine
 10
0.0000000119208607
 20
17.300000011920943
 30
0.0
 11
-0.3000000000000682
 21
17.000000000000014
 31
0.0
  0
LINE
  5
1A5
100
AcDbEntity
  8
0
  6
CONTINUOUS
 62
               7
100
AcDbLine
 10
0.0000000119208607
 20
2.6999999880790284
 30
0.0
 11
-0.2999999403953666
 21
2.9999999403953126
 31
0.0
  0
LINE
  5
1A6
100
AcDbEntity
  8
0
  6
CONTINUOUS
 62
               7
100
AcDbLine
 10
0.0
 20
2.699999999999946
 30
0.0
 11
0.0
 21
-2.699999988079
 31
0.0
  0
LINE
  5
1A7
100
AcDbEntity
  8
0
  6
CONTINUOUS
 62
               7
100
AcDbLine
 10
-0.3000000000000682
 20
-16.999999999999986
 30
0.0
 11
-0.3000000000000682
 21
-2.9999999999999858
 31
0.0
  0
LINE
  5
1A8
100
AcDbEntity
  8
0
  6
CONTINUOUS
 62
               7
100
AcDbLine
 10
0.0000000119208607
 20
-2.699999988079
 30
0.0
 11
-0.2999999403953666
 21
-2.9999999403952842
 31
0.0
  0
LINE
  5
1A9
100
AcDbEntity
  8
0
  6
CONTINUOUS
 62
               7
100
AcDbLine
 10
-0.0000000000000568
 20
-30.699999999999982
 30
0.0
 11
-0.0000000000000568
 21
-17.299999999999997
 31
0.0
  0
LINE
  5
1AA
100
AcDbEntity
  8
0
  6
CONTINUOUS
 62
               7
100
AcDbLine
 10
0.0000000119208607
 20
-17.300000011920915
 30
0.0
 11
-0.3000000000000682
 21
-16.999999999999986
 31
0.0
  0
LINE
  5
1AB
100
AcDbEntity
  8
0
  6
CONTINUOUS
 62
               7
100
AcDbLine
 10
0.4999999999999432
 20
-39.999999999999979
 30
0.0
 11
22.699999999999932
 21
-39.999999999999979
 31
0.0
  0
LINE
  5
1AC
100
AcDbEntity
  8
0
  6
CONTINUOUS
 62
               7
100
AcDbLine
 10
0.0000000119208607
 20
-30.699999988079057
 30
0.0
 11
-0.2999999403954803
 21
-30.999999940395348
 31
0.0
  0
LINE
  5
1AD
100
AcDbEntity
  8
0
  6
CONTINUOUS
 62
               7
100
AcDbLine
 10
-0.3000000000000682
 20
-37.999999999999986
 30
0.0
 11
-0.3000000000001251
 21
-30.999999940395348
 31
0.0
  0
LINE
  5
1AE
100
AcDbEntity
  8
0
  6
CONTINUOUS
 62
               7
100
AcDbLine
 10
0.0000000119208607
 20
-38.300000011920915
 30
0.0
 11
-0.3000000000000682
 21
-37.999999999999986
 31
0.0
  0
LINE
  5
1AF
100
AcDbEntity
  8
0
  6
CONTINUOUS
 62
               7
100
AcDbLine
 10
-0.0000000000000568
 20
-39.499999999999986
 30
0.0
 11
-0.0000000000000568
 21
-38.299999999999997
 31
0.0
  0
ARC
  5
1B0
100
AcDbEntity
  8
0
  6
CONTINUOUS
 62
               7
100
AcDbCircle
 10
0.4999999999999432
 20
-39.499999999999986
 30
0.0
 40
0.4999999999999999
100
AcDbArc
 50
179.99999999999963
 51
269.99999999999937
  0
LINE
  5
1B1
100
AcDbEntity
  8
0
  6
CONTINUOUS
 62
               7
100
AcDbLine
 10
26.199999999999932
 20
-15.0
 30
0.0
 11
26.699999999999932
 21
-14.499999999999986
 31
0.0
  0
LINE
  5
1B2
100
AcDbEntity
  8
0
  6
CONTINUOUS
 62
               7
100
AcDbLine
 10
26.699999999999932
 20
-14.499999999999986
 30
0.0
 11
26.699999999999932
 21
-4.0
 31
0.0
  0
LINE
  5
1B3
100
AcDbEntity
  8
0
  6
CONTINUOUS
 62
               7
100
AcDbLine
 10
26.699999999999932
 20
-4.0
 30
0.0
 11
26.199999999999932
 21
-3.5
 31
0.0
  0
LINE
  5
1B4
100
AcDbEntity
  8
0
  6
CONTINUOUS
 62
               7
100
AcDbLine
 10
26.699999999999932
 20
4.0000000000000142
 30
0.0
 11
26.199999999999932
 21
3.5000000000000142
 31
0.0
  0
LINE
  5
1B5
100
AcDbEntity
  8
0
  6
CONTINUOUS
 62
               7
100
AcDbLine
 10
26.699999999999932
 20
14.500000000000014
 30
0.0
 11
26.699999999999932
 21
4.0000000000000142
 31
0.0
  0
LINE
  5
1B6
100
AcDbEntity
  8
0
  6
CONTINUOUS
 62
               7
100
AcDbLine
 10
26.199999999999932
 20
15.000000000000014
 30
0.0
 11
26.699999999999932
 21
14.500000000000014
 31
0.0
  0
ENDBLK
  5
1B7
100
AcDbEntity
  8
0
100
AcDbBlockEnd
  0
BLOCK
  5
1B8
100
AcDbEntity
  8
0
100
AcDbBlockBegin
  2
ZS16SS-5
 70
               0
 10
0.0
 20
0.0
 30
0.0
  3
ZS16SS-5
  1

  0
LINE
  5
1B9
100
AcDbEntity
  8
0
  6
CONTINUOUS
 62
               4
100
AcDbLine
 10
-22.510398641089751
 20
-3.0000000000000568
 30
0.0
 11
-16.489601364154396
 21
-3.0000000000001279
 31
0.0
  0
CIRCLE
  5
1BA
100
AcDbEntity
  8
0
  6
CONTINUOUS
 62
               4
100
AcDbCircle
 10
-19.5
 20
0.0000000000000995
 30
0.0
 40
2.5179491924313191
  0
LINE
  5
1BB
100
AcDbEntity
  8
0
  6
CONTINUOUS
 62
               4
100
AcDbLine
 10
-22.510398641089751
 20
3.0000000000003126
 30
0.0
 11
-16.489601364154396
 21
3.0000000000003126
 31
0.0
  0
LINE
  5
1BC
100
AcDbEntity
  8
0
  6
CONTINUOUS
 62
               4
100
AcDbLine
 10
-37.010398641089751
 20
-24.000000000000128
 30
0.0
 11
-30.989601364154623
 21
-24.000000000000185
 31
0.0
  0
CIRCLE
  5
1BD
100
AcDbEntity
  8
0
  6
CONTINUOUS
 62
               4
100
AcDbCircle
 10
-34.000000000000227
 20
-20.999999999999972
 30
0.0
 40
2.5179491924313191
  0
LINE
  5
1BE
100
AcDbEntity
  8
0
  6
CONTINUOUS
 62
               4
100
AcDbLine
 10
-37.010398641089751
 20
-17.999999999999773
 30
0.0
 11
-30.989601364154396
 21
-17.999999999999773
 31
0.0
  0
LINE
  5
1BF
100
AcDbEntity
  8
0
  6
CENTER
 62
             200
100
AcDbLine
 10
-37.560820367751148
 20
-33.499999999999481
 30
0.0
 11
-24.939179632249306
 21
-33.499999999999481
 31
0.0
  0
LINE
  5
1C0
100
AcDbEntity
  8
0
  6
CONTINUOUS
 62
               4
100
AcDbLine
 10
-24.500000000000455
 20
-38.499999999999858
 30
0.0
 11
-36.5
 21
-38.499999999999794
 31
0.0
  0
LINE
  5
1C1
100
AcDbEntity
  8
0
  6
CONTINUOUS
 62
               4
100
AcDbLine
 10
-36.5
 20
-38.499999999999794
 30
0.0
 11
-36.5
 21
-27.999999999999972
 31
0.0
  0
LINE
  5
1C2
100
AcDbEntity
  8
0
  6
CONTINUOUS
 62
               7
100
AcDbLine
 10
-26.5
 20
-14.999999999999858
 30
0.0
 11
-26.5
 21
-16.499999999999858
 31
0.0
  0
ARC
  5
1C3
100
AcDbEntity
  8
0
  6
CONTINUOUS
 62
               4
100
AcDbCircle
 10
-26.439179632249079
 20
-16.060820367750921
 30
0.0
 40
1.0608203677510608
100
AcDbArc
 50
93.286760363038496
 51
179.99999999999963
  0
LINE
  5
1C4
100
AcDbEntity
  8
0
  6
CONTINUOUS
 62
               7
100
AcDbLine
 10
-24.46862696659673
 20
-34.999999999999197
 30
0.0
 11
-16.499999999999773
 21
-34.999999999999233
 31
0.0
  0
LINE
  5
1C5
100
AcDbEntity
  8
0
  6
CONTINUOUS
 62
               7
100
AcDbLine
 10
-24.46862696659673
 20
-33.999999999999197
 30
0.0
 11
-16.5
 21
-33.999999999999233
 31
0.0
  0
CIRCLE
  5
1C6
100
AcDbEntity
  8
0
  6
CONTINUOUS
 62
               7
100
AcDbCircle
 10
-20.5
 20
-34.499999999999211
 30
0.0
 40
3.9999999999999996
  0
LINE
  5
1C7
100
AcDbEntity
  8
0
  6
CENTER
 62
               2
100
AcDbLine
 10
-20.499999999999773
 20
-28.749999999999218
 30
0.0
 11
-20.5
 21
-40.249999999999218
 31
0.0
  0
LINE
  5
1C8
100
AcDbEntity
  8
0
  6
CENTER
 62
               2
100
AcDbLine
 10
-26.25
 20
-34.499999999999183
 30
0.0
 11
-14.749999999999773
 21
-34.499999999999247
 31
0.0
  0
LINE
  5
1C9
100
AcDbEntity
  8
0
  6
CONTINUOUS
 62
               7
100
AcDbLine
 10
-24.468626966596503
 20
34.99999999999946
 30
0.0
 11
-16.499999999999545
 21
34.999999999999432
 31
0.0
  0
LINE
  5
1CA
100
AcDbEntity
  8
0
  6
CONTINUOUS
 62
               7
100
AcDbLine
 10
-24.468626966596503
 20
33.999999999999474
 30
0.0
 11
-16.499999999999545
 21
33.999999999999432
 31
0.0
  0
CIRCLE
  5
1CB
100
AcDbEntity
  8
0
  6
CONTINUOUS
 62
               7
100
AcDbCircle
 10
-20.499999999999545
 20
34.499999999999432
 30
0.0
 40
3.9999999999999996
  0
LINE
  5
1CC
100
AcDbEntity
  8
0
  6
CENTER
 62
               2
100
AcDbLine
 10
-20.499999999999545
 20
28.749999999999403
 30
0.0
 11
-20.499999999999545
 21
40.249999999999417
 31
0.0
  0
LINE
  5
1CD
100
AcDbEntity
  8
0
  6
CENTER
 62
               2
100
AcDbLine
 10
-26.249999999999545
 20
34.499999999999474
 30
0.0
 11
-14.749999999999545
 21
34.499999999999432
 31
0.0
  0
LINE
  5
1CE
100
AcDbEntity
  8
0
  6
CONTINUOUS
 62
               7
100
AcDbLine
 10
-0.3000000000001819
 20
30.699999999999989
 30
0.0
 11
-0.3000000000001819
 21
17.30000000000004
 31
0.0
  0
ARC
  5
1CF
100
AcDbEntity
  8
0
  6
CONTINUOUS
 62
               7
100
AcDbCircle
 10
-0.8000000000001819
 20
39.499999999999986
 30
0.0
 40
0.4999999999999999
100
AcDbArc
 50
0.0
 51
89.999999999999815
  0
LINE
  5
1D0
100
AcDbEntity
  8
0
  6
CONTINUOUS
 62
               7
100
AcDbLine
 10
-0.3000000000001819
 20
39.499999999999986
 30
0.0
 11
-0.3000000000001819
 21
38.300000000000026
 31
0.0
  0
LINE
  5
1D1
100
AcDbEntity
  8
0
  6
CONTINUOUS
 62
               7
100
AcDbLine
 10
-0.300000011920929
 20
38.300000011920943
 30
0.0
 11
0.0
 21
38.000000000000014
 31
0.0
  0
LINE
  5
1D2
100
AcDbEntity
  8
0
  6
CONTINUOUS
 62
               7
100
AcDbLine
 10
0.0
 20
38.000000000000014
 30
0.0
 11
0.0
 21
30.999999940395355
 31
0.0
  0
LINE
  5
1D3
100
AcDbEntity
  8
0
  6
CONTINUOUS
 62
               7
100
AcDbLine
 10
-0.300000011920929
 20
30.699999988079071
 30
0.0
 11
-0.0000000596046448
 21
30.999999940395355
 31
0.0
  0
LINE
  5
1D4
100
AcDbEntity
  8
0
  6
CONTINUOUS
 62
               7
100
AcDbLine
 10
0.0
 20
17.000000000000014
 30
0.0
 11
0.0
 21
3.0000000000000142
 31
0.0
  0
LINE
  5
1D5
100
AcDbEntity
  8
0
  6
CONTINUOUS
 62
               7
100
AcDbLine
 10
-0.300000011920929
 20
17.300000011920957
 30
0.0
 11
0.0
 21
17.000000000000014
 31
0.0
  0
LINE
  5
1D6
100
AcDbEntity
  8
0
  6
CONTINUOUS
 62
               7
100
AcDbLine
 10
-0.3000000119211563
 20
2.6999999880790284
 30
0.0
 11
-0.0000000596048721
 21
2.9999999403953126
 31
0.0
  0
LINE
  5
1D7
100
AcDbEntity
  8
0
  6
CONTINUOUS
 62
               7
100
AcDbLine
 10
-0.8000000000001819
 20
40.000000000000014
 30
0.0
 11
-5.4999999999995453
 21
40.000000000000014
 31
0.0
  0
LINE
  5
1D8
100
AcDbEntity
  8
0
  6
CONTINUOUS
 62
               7
100
AcDbLine
 10
0.0
 20
-16.999999999999986
 30
0.0
 11
0.0
 21
-2.9999999999999858
 31
0.0
  0
LINE
  5
1D9
100
AcDbEntity
  8
0
  6
CONTINUOUS
 62
               7
100
AcDbLine
 10
-0.3000000119211563
 20
-2.699999988079
 30
0.0
 11
-0.0000000596048721
 21
-2.9999999403952842
 31
0.0
  0
LINE
  5
1DA
100
AcDbEntity
  8
0
  6
CONTINUOUS
 62
               7
100
AcDbLine
 10
-0.3000000000001819
 20
-30.699999999999989
 30
0.0
 11
-0.3000000000001819
 21
-17.299999999999997
 31
0.0
  0
LINE
  5
1DB
100
AcDbEntity
  8
0
  6
CONTINUOUS
 62
               7
100
AcDbLine
 10
-0.300000011920929
 20
-17.300000011920915
 30
0.0
 11
0.0
 21
-16.999999999999986
 31
0.0
  0
LINE
  5
1DC
100
AcDbEntity
  8
0
  6
CONTINUOUS
 62
               7
100
AcDbLine
 10
-0.300000011920929
 20
-30.699999988079057
 30
0.0
 11
-0.0000000596046448
 21
-30.999999940395334
 31
0.0
  0
LINE
  5
1DD
100
AcDbEntity
  8
0
  6
CONTINUOUS
 62
               7
100
AcDbLine
 10
0.0
 20
-37.999999999999972
 30
0.0
 11
0.0
 21
-30.999999940395334
 31
0.0
  0
LINE
  5
1DE
100
AcDbEntity
  8
0
  6
CONTINUOUS
 62
               7
100
AcDbLine
 10
-0.300000011920929
 20
-38.300000011920908
 30
0.0
 11
0.0
 21
-37.999999999999979
 31
0.0
  0
LINE
  5
1DF
100
AcDbEntity
  8
0
  6
CONTINUOUS
 62
               7
100
AcDbLine
 10
-0.3000000000001819
 20
-39.499999999999979
 30
0.0
 11
-0.3000000000001819
 21
-38.299999999999983
 31
0.0
  0
ARC
  5
1E0
100
AcDbEntity
  8
0
  6
CONTINUOUS
 62
               7
100
AcDbCircle
 10
-0.8000000000001819
 20
-39.499999999999979
 30
0.0
 40
0.4999999999999999
100
AcDbArc
 50
270.00000000000023
 51
0.0
  0
LINE
  5
1E1
100
AcDbEntity
  8
0
  6
CONTINUOUS
 62
               7
100
AcDbLine
 10
-0.8000000000001819
 20
-39.999999999999979
 30
0.0
 11
-23.000000000000227
 21
-39.999999999999979
 31
0.0
  0
LINE
  5
1E2
100
AcDbEntity
  8
0
  6
CONTINUOUS
 62
               7
100
AcDbLine
 10
-0.3000000000001819
 20
2.6999999999999602
 30
0.0
 11
-0.3000000000001819
 21
-2.699999988079
 31
0.0
  0
ARC
  5
1E3
100
AcDbEntity
  8
0
  6
CONTINUOUS
 62
               7
100
AcDbCircle
 10
-25.500000000000227
 20
-16.999999999999858
 30
0.0
 40
0.4999999999999999
100
AcDbArc
 50
89.999999999999815
 51
179.99999999999963
  0
ARC
  5
1E4
100
AcDbEntity
  8
0
  6
CONTINUOUS
 62
               7
100
AcDbCircle
 10
-25.5
 20
17.000000000000128
 30
0.0
 40
0.4999999999999999
100
AcDbArc
 50
179.99999999999963
 51
269.99999999999937
  0
LINE
  5
1E5
100
AcDbEntity
  8
0
  6
CENTER
 62
               2
100
AcDbLine
 10
-18.894997531017452
 20
27.999999999999403
 30
0.0
 11
-27.000000000000682
 21
27.999999999999403
 31
0.0
  0
ARC
  5
1E6
100
AcDbEntity
  8
0
  6
CONTINUOUS
 62
               7
100
AcDbCircle
 10
-22.475000000000136
 20
21.999999999999417
 30
0.0
 40
2.0750000000000002
100
AcDbArc
 50
269.99999999999983
 51
89.999999999999801
  0
LINE
  5
1E7
100
AcDbEntity
  8
0
  6
CONTINUOUS
 62
               7
100
AcDbLine
 10
-26.0
 20
19.49999999999946
 30
0.0
 11
-25.100000000000136
 21
20.399999999999409
 31
0.0
  0
LINE
  5
1E8
100
AcDbEntity
  8
0
  6
CONTINUOUS
 62
               7
100
AcDbLine
 10
-24.100000000000136
 20
19.924999999999415
 30
0.0
 11
-24.575000000000045
 21
20.399999999999409
 31
0.0
  0
LINE
  5
1E9
100
AcDbEntity
  8
0
  6
CONTINUOUS
 62
               7
100
AcDbLine
 10
-24.575000000000045
 20
20.399999999999409
 30
0.0
 11
-25.100000000000136
 21
20.399999999999409
 31
0.0
  0
LINE
  5
1EA
100
AcDbEntity
  8
0
  6
CONTINUOUS
 62
               7
100
AcDbLine
 10
-22.475000000000136
 20
24.074999999999392
 30
0.0
 11
-24.100000000000136
 21
24.074999999999392
 31
0.0
  0
LINE
  5
1EB
100
AcDbEntity
  8
0
  6
CONTINUOUS
 62
               7
100
AcDbLine
 10
-24.575000000000045
 20
23.599999999999397
 30
0.0
 11
-24.800000000000637
 21
23.599999999999397
 31
0.0
  0
LINE
  5
1EC
100
AcDbEntity
  8
0
  6
CONTINUOUS
 62
               7
100
AcDbLine
 10
-24.100000000000136
 20
24.074999999999392
 30
0.0
 11
-24.575000000000045
 21
23.599999999999397
 31
0.0
  0
ARC
  5
1ED
100
AcDbEntity
  8
0
  6
CONTINUOUS
 62
               7
100
AcDbCircle
 10
-24.800000000000637
 20
23.899999999999423
 30
0.0
 40
0.3
100
AcDbArc
 50
179.99999999999963
 51
269.99999999999937
  0
ARC
  5
1EE
100
AcDbEntity
  8
0
  6
CONTINUOUS
 62
               7
100
AcDbCircle
 10
-24.800000000000637
 20
26.099999999999412
 30
0.0
 40
0.3
100
AcDbArc
 50
89.999999999999815
 51
179.99999999999963
  0
LINE
  5
1EF
100
AcDbEntity
  8
0
  6
CONTINUOUS
 62
               7
100
AcDbLine
 10
-25.100000000000819
 20
26.099999999999412
 30
0.0
 11
-25.100000000000819
 21
23.899999999999423
 31
0.0
  0
LINE
  5
1F0
100
AcDbEntity
  8
0
  6
CONTINUOUS
 62
               7
100
AcDbLine
 10
-24.100000000000136
 20
25.9249999999994
 30
0.0
 11
-24.575000000000045
 21
26.399999999999395
 31
0.0
  0
LINE
  5
1F1
100
AcDbEntity
  8
0
  6
CONTINUOUS
 62
               7
100
AcDbLine
 10
-24.575000000000045
 20
26.399999999999395
 30
0.0
 11
-24.800000000000637
 21
26.399999999999395
 31
0.0
  0
LINE
  5
1F2
100
AcDbEntity
  8
0
  6
CONTINUOUS
 62
               7
100
AcDbLine
 10
-22.475000000000136
 20
25.9249999999994
 30
0.0
 11
-24.100000000000136
 21
25.9249999999994
 31
0.0
  0
LINE
  5
1F3
100
AcDbEntity
  8
0
  6
CONTINUOUS
 62
               7
100
AcDbLine
 10
-22.475000000000136
 20
19.924999999999415
 30
0.0
 11
-24.100000000000136
 21
19.924999999999415
 31
0.0
  0
LINE
  5
1F4
100
AcDbEntity
  8
0
  6
CENTER
 62
               2
100
AcDbLine
 10
-18.894997531017452
 20
21.999999999999417
 30
0.0
 11
-27.000000000000682
 21
21.999999999999417
 31
0.0
  0
ARC
  5
1F5
100
AcDbEntity
  8
0
  6
CONTINUOUS
 62
               7
100
AcDbCircle
 10
-22.475000000000136
 20
27.999999999999403
 30
0.0
 40
2.0750000000000002
100
AcDbArc
 50
270.00000000000017
 51
89.999999999999389
  0
LINE
  5
1F6
100
AcDbEntity
  8
0
  6
CENTER
 62
               2
100
AcDbLine
 10
-22.475000000000136
 20
18.424999999999429
 30
0.0
 11
-22.475000000000136
 21
31.574999999999406
 31
0.0
  0
LINE
  5
1F7
100
AcDbEntity
  8
0
  6
CONTINUOUS
 62
               7
100
AcDbLine
 10
-26.0
 20
19.499999999999503
 30
0.0
 11
-26.0
 21
17.000000000000156
 31
0.0
  0
LINE
  5
1F8
100
AcDbEntity
  8
0
  6
CONTINUOUS
 62
               7
100
AcDbLine
 10
-24.100000000000136
 20
30.074999999999378
 30
0.0
 11
-24.575000000000045
 21
29.599999999999383
 31
0.0
  0
LINE
  5
1F9
100
AcDbEntity
  8
0
  6
CONTINUOUS
 62
               7
100
AcDbLine
 10
-24.575000000000045
 20
29.599999999999383
 30
0.0
 11
-25.100000000000136
 21
29.599999999999383
 31
0.0
  0
LINE
  5
1FA
100
AcDbEntity
  8
0
  6
CONTINUOUS
 62
               7
100
AcDbLine
 10
-22.475000000000136
 20
30.074999999999378
 30
0.0
 11
-24.100000000000136
 21
30.074999999999378
 31
0.0
  0
LINE
  5
1FB
100
AcDbEntity
  8
0
  6
CONTINUOUS
 62
               7
100
AcDbLine
 10
-25.100000000000136
 20
29.599999999999383
 30
0.0
 11
-26.0
 21
30.499999999999304
 31
0.0
  0
LINE
  5
1FC
100
AcDbEntity
  8
0
  6
CONTINUOUS
 62
               7
100
AcDbLine
 10
-26.0
 20
30.499999999999432
 30
0.0
 11
-25.999999999999773
 21
36.999999999999503
 31
0.0
  0
LINE
  5
1FD
100
AcDbEntity
  8
0
  6
CONTINUOUS
 62
               7
100
AcDbLine
 10
-26.000000000000227
 20
37.000000000000014
 30
0.0
 11
-23.000000000000227
 21
40.000000000000014
 31
0.0
  0
LINE
  5
1FE
100
AcDbEntity
  8
0
  6
CONTINUOUS
 62
               7
100
AcDbLine
 10
-15.100000000000136
 20
39.599999999999355
 30
0.0
 11
-15.500000000000682
 21
40.000000000000014
 31
0.0
  0
LINE
  5
1FF
100
AcDbEntity
  8
0
  6
CONTINUOUS
 62
               7
100
AcDbLine
 10
-15.575000000000045
 20
38.599999999999383
 30
0.0
 11
-15.100000000000136
 21
39.074999999999378
 31
0.0
  0
LINE
  5
200
100
AcDbEntity
  8
0
  6
CONTINUOUS
 62
               7
100
AcDbLine
 10
-15.100000000000136
 20
39.074999999999378
 30
0.0
 11
-15.100000000000136
 21
39.599999999999355
 31
0.0
  0
LINE
  5
201
100
AcDbEntity
  8
0
  6
CONTINUOUS
 62
               7
100
AcDbLine
 10
-15.575000000000045
 20
36.974999999999355
 30
0.0
 11
-15.575000000000045
 21
38.599999999999383
 31
0.0
  0
LINE
  5
202
100
AcDbEntity
  8
0
  6
CONTINUOUS
 62
               7
100
AcDbLine
 10
-23.000000000000227
 20
40.000000000000014
 30
0.0
 11
-15.500000000000682
 21
40.000000000000014
 31
0.0
  0
ARC
  5
203
100
AcDbEntity
  8
0
  6
CONTINUOUS
 62
               7
100
AcDbCircle
 10
-11.600000000000136
 20
39.300000000000026
 30
0.0
 40
0.3
100
AcDbArc
 50
89.999999999999815
 51
179.99999999999963
  0
LINE
  5
204
100
AcDbEntity
  8
0
  6
CONTINUOUS
 62
               7
100
AcDbLine
 10
-11.425000000000182
 20
38.599999999999383
 30
0.0
 11
-11.900000000000091
 21
39.074999999999378
 31
0.0
  0
LINE
  5
205
100
AcDbEntity
  8
0
  6
CONTINUOUS
 62
               7
100
AcDbLine
 10
-11.900000000000091
 20
39.074999999999378
 30
0.0
 11
-11.900000000000091
 21
39.300000000000026
 31
0.0
  0
LINE
  5
206
100
AcDbEntity
  8
0
  6
CONTINUOUS
 62
               7
100
AcDbLine
 10
-11.425000000000182
 20
36.974999999999355
 30
0.0
 11
-11.425000000000182
 21
38.599999999999383
 31
0.0
  0
ARC
  5
207
100
AcDbEntity
  8
0
  6
CONTINUOUS
 62
               7
100
AcDbCircle
 10
-13.5
 20
36.974999999999355
 30
0.0
 40
2.0750000000000002
100
AcDbArc
 50
180.0
 51
0.0
  0
LINE
  5
208
100
AcDbEntity
  8
0
  6
CENTER
 62
               2
100
AcDbLine
 10
-13.5
 20
33.394997531016813
 30
0.0
 11
-13.5
 21
41.500000000000014
 31
0.0
  0
LINE
  5
209
100
AcDbEntity
  8
0
  6
CONTINUOUS
 62
               7
100
AcDbLine
 10
-5.4250000000001819
 20
36.974999999999355
 30
0.0
 11
-5.4250000000001819
 21
38.599999999999383
 31
0.0
  0
LINE
  5
20A
100
AcDbEntity
  8
0
  6
CONTINUOUS
 62
               7
100
AcDbLine
 10
-5.9000000000000909
 20
39.074999999999378
 30
0.0
 11
-5.9000000000000909
 21
39.599999999999355
 31
0.0
  0
LINE
  5
20B
100
AcDbEntity
  8
0
  6
CONTINUOUS
 62
               7
100
AcDbLine
 10
-5.4250000000001819
 20
38.599999999999383
 30
0.0
 11
-5.9000000000000909
 21
39.074999999999378
 31
0.0
  0
LINE
  5
20C
100
AcDbEntity
  8
0
  6
CONTINUOUS
 62
               7
100
AcDbLine
 10
-5.9000000000000909
 20
39.599999999999355
 30
0.0
 11
-5.4999999999995453
 21
40.000000000000014
 31
0.0
  0
LINE
  5
20D
100
AcDbEntity
  8
0
  6
CONTINUOUS
 62
               7
100
AcDbLine
 10
-9.5750000000000455
 20
36.974999999999355
 30
0.0
 11
-9.5750000000000455
 21
38.599999999999383
 31
0.0
  0
LINE
  5
20E
100
AcDbEntity
  8
0
  6
CONTINUOUS
 62
               7
100
AcDbLine
 10
-9.1000000000001364
 20
39.074999999999378
 30
0.0
 11
-9.1000000000001364
 21
39.300000000000026
 31
0.0
  0
LINE
  5
20F
100
AcDbEntity
  8
0
  6
CONTINUOUS
 62
               7
100
AcDbLine
 10
-9.5750000000000455
 20
38.599999999999383
 30
0.0
 11
-9.1000000000001364
 21
39.074999999999378
 31
0.0
  0
ARC
  5
210
100
AcDbEntity
  8
0
  6
CONTINUOUS
 62
               7
100
AcDbCircle
 10
-9.4000000000000909
 20
39.300000000000026
 30
0.0
 40
0.3
100
AcDbArc
 50
0.0
 51
89.999999999999815
  0
LINE
  5
211
100
AcDbEntity
  8
0
  6
CONTINUOUS
 62
               7
100
AcDbLine
 10
-9.4000000000000909
 20
39.600000000000009
 30
0.0
 11
-11.600000000000136
 21
39.600000000000009
 31
0.0
  0
ARC
  5
212
100
AcDbEntity
  8
0
  6
CONTINUOUS
 62
               7
100
AcDbCircle
 10
-7.5000000000002274
 20
36.974999999999355
 30
0.0
 40
2.0750000000000002
100
AcDbArc
 50
179.99999999999957
 51
359.99999999999881
  0
LINE
  5
213
100
AcDbEntity
  8
0
  6
CENTER
 62
               2
100
AcDbLine
 10
-17.075000000000045
 20
36.974999999999469
 30
0.0
 11
-3.9250000000001819
 21
36.974999999999355
 31
0.0
  0
LINE
  5
214
100
AcDbEntity
  8
0
  6
CENTER
 62
               2
100
AcDbLine
 10
-7.5000000000002274
 20
33.394997531016813
 30
0.0
 11
-7.5000000000002274
 21
41.500000000000014
 31
0.0
  0
LINE
  5
215
100
AcDbEntity
  8
0
  6
CENTER
 62
               2
100
AcDbLine
 10
-20.497361450183917
 20
-24.999999999999901
 30
0.0
 11
1.4999999999997726
 21
-25.000000000000014
 31
0.0
  0
LINE
  5
216
100
AcDbEntity
  8
0
  6
CENTER
 62
               2
100
AcDbLine
 10
-10.500000000000227
 20
-34.999984393113607
 30
0.0
 11
-10.500000000000227
 21
-14.999985089308126
 31
0.0
  0
LINE
  5
217
100
AcDbEntity
  8
0
  6
CONTINUOUS
 62
               7
100
AcDbLine
 10
-26.000000000000227
 20
-16.999999999999858
 30
0.0
 11
-26.000000000000455
 21
-36.999999999999851
 31
0.0
  0
LINE
  5
218
100
AcDbEntity
  8
0
  6
CENTER
 62
               2
100
AcDbLine
 10
-20.497361450183689
 20
25.000000000000114
 30
0.0
 11
1.5
 21
25.0
 31
0.0
  0
LINE
  5
219
100
AcDbEntity
  8
0
  6
CONTINUOUS
 62
               7
100
AcDbLine
 10
-16.664414002969124
 20
-16.499999999999915
 30
0.0
 11
-25.500000000000227
 21
-16.499999999999872
 31
0.0
  0
ARC
  5
21A
100
AcDbEntity
  8
0
  6
CONTINUOUS
 62
               7
100
AcDbCircle
 10
-10.500000000000227
 20
-24.999999999999915
 30
0.0
 40
10.5
100
AcDbArc
 50
107.75279016194654
 51
125.95056761961744
  0
ARC
  5
21B
100
AcDbEntity
  8
0
  6
CONTINUOUS
 62
               7
100
AcDbCircle
 10
-10.5
 20
25.000000000000043
 30
0.0
 40
10.5
100
AcDbArc
 50
234.04943238038126
 51
252.24720983805216
  0
LINE
  5
21C
100
AcDbEntity
  8
0
  6
CONTINUOUS
 62
               7
100
AcDbLine
 10
-16.664414002969124
 20
16.500000000000099
 30
0.0
 11
-25.5
 21
16.500000000000128
 31
0.0
  0
ARC
  5
21D
100
AcDbEntity
  8
0
  6
CONTINUOUS
 62
               7
100
AcDbCircle
 10
-7.2598713683535152
 20
19.344495740012292
 30
0.0
 40
0.9999999999999999
100
AcDbArc
 50
297.04710317092508
 51
32.679571257004554
  0
ARC
  5
21E
100
AcDbEntity
  8
0
  6
CONTINUOUS
 62
               7
100
AcDbCircle
 10
-4.8189316518903524
 20
20.910322454751963
 30
0.0
 40
1.8999999999999999
100
AcDbArc
 50
69.999999999999559
 51
212.67957125700408
  0
CIRCLE
  5
21F
100
AcDbEntity
  8
0
  6
CONTINUOUS
 62
               7
100
AcDbCircle
 10
-4.8299999999999272
 20
20.900000000000048
 30
0.0
 40
0.8500000238418579
  0
LINE
  5
220
100
AcDbEntity
  8
0
  6
CONTINUOUS
 62
               7
100
AcDbLine
 10
-4.16909337957145
 20
22.695738434245186
 30
0.0
 11
-2.510287775748111
 21
22.091982570019482
 31
0.0
  0
LINE
  5
221
100
AcDbEntity
  8
0
  6
CONTINUOUS
 62
               7
100
AcDbLine
 10
-4.16909337957145
 20
27.304261565754857
 30
0.0
 11
-2.510287775748111
 21
27.908017429980546
 31
0.0
  0
CIRCLE
  5
222
100
AcDbEntity
  8
0
  6
CONTINUOUS
 62
               7
100
AcDbCircle
 10
-4.8299999999999272
 20
29.09999999999998
 30
0.0
 40
0.8500000238418579
  0
ARC
  5
223
100
AcDbEntity
  8
0
  6
CONTINUOUS
 62
               7
100
AcDbCircle
 10
-10.147361450195149
 20
25.000015258789105
 30
0.0
 40
7.3499999999999996
100
AcDbArc
 50
62.952788652370792
 51
297.04710317092474
  0
ARC
  5
224
100
AcDbEntity
  8
0
  6
CONTINUOUS
 62
               7
100
AcDbCircle
 10
-7.2598713683535152
 20
30.655504259987779
 30
0.0
 40
0.9999999999999999
100
AcDbArc
 50
327.3204287429939
 51
62.952896829074177
  0
ARC
  5
225
100
AcDbEntity
  8
0
  6
CONTINUOUS
 62
               7
100
AcDbCircle
 10
-4.8189316518903524
 20
29.08967754524808
 30
0.0
 40
1.8999999999999999
100
AcDbArc
 50
147.3204287429943
 51
289.99999999999881
  0
CIRCLE
  5
226
100
AcDbEntity
  8
0
  6
CONTINUOUS
 62
               7
100
AcDbCircle
 10
-10.5
 20
25.000000000000043
 30
0.0
 40
5.2000000000000002
  0
ARC
  5
227
100
AcDbEntity
  8
0
  6
CONTINUOUS
 62
               7
100
AcDbCircle
 10
-7.25987136835397
 20
-30.655504259987701
 30
0.0
 40
0.9999999999999999
100
AcDbArc
 50
297.04710317092508
 51
32.679571257004554
  0
ARC
  5
228
100
AcDbEntity
  8
0
  6
CONTINUOUS
 62
               7
100
AcDbCircle
 10
-4.8189316518905798
 20
-29.089677545248023
 30
0.0
 40
1.8999999999999999
100
AcDbArc
 50
69.999999999999559
 51
212.67957125700408
  0
CIRCLE
  5
229
100
AcDbEntity
  8
0
  6
CONTINUOUS
 62
               7
100
AcDbCircle
 10
-4.8300000000001546
 20
-29.09999999999993
 30
0.0
 40
0.8500000238418579
  0
LINE
  5
22A
100
AcDbEntity
  8
0
  6
CONTINUOUS
 62
               7
100
AcDbLine
 10
-4.1690933795719047
 20
-27.3042615657548
 30
0.0
 11
-2.5102877757483384
 21
-27.908017429980532
 31
0.0
  0
LINE
  5
22B
100
AcDbEntity
  8
0
  6
CONTINUOUS
 62
               7
100
AcDbLine
 10
-4.1690933795716774
 20
-22.695738434245143
 30
0.0
 11
-2.5102877757483384
 21
-22.091982570019439
 31
0.0
  0
CIRCLE
  5
22C
100
AcDbEntity
  8
0
  6
CONTINUOUS
 62
               7
100
AcDbCircle
 10
-4.8300000000001546
 20
-20.900000000000006
 30
0.0
 40
0.8500000238418579
  0
ARC
  5
22D
100
AcDbEntity
  8
0
  6
CONTINUOUS
 62
               7
100
AcDbCircle
 10
-10.147361450195604
 20
-24.999984741210881
 30
0.0
 40
7.3499999999999996
100
AcDbArc
 50
62.952788652370792
 51
297.04710317092474
  0
ARC
  5
22E
100
AcDbEntity
  8
0
  6
CONTINUOUS
 62
               7
100
AcDbCircle
 10
-7.2598713683537426
 20
-19.344495740012206
 30
0.0
 40
0.9999999999999999
100
AcDbArc
 50
327.3204287429939
 51
62.952896829074177
  0
ARC
  5
22F
100
AcDbEntity
  8
0
  6
CONTINUOUS
 62
               7
100
AcDbCircle
 10
-4.8189316518905798
 20
-20.91032245475192
 30
0.0
 40
1.8999999999999999
100
AcDbArc
 50
147.3204287429943
 51
289.99999999999881
  0
CIRCLE
  5
230
100
AcDbEntity
  8
0
  6
CONTINUOUS
 62
               7
100
AcDbCircle
 10
-10.500000000000227
 20
-24.999999999999929
 30
0.0
 40
5.2000000000000002
  0
LINE
  5
231
100
AcDbEntity
  8
0
  6
CENTER
 62
               2
100
AcDbLine
 10
-10.5
 20
34.999984393113721
 30
0.0
 11
-10.5
 21
14.999985089308254
 31
0.0
  0
LINE
  5
232
100
AcDbEntity
  8
0
  6
CONTINUOUS
 62
               7
100
AcDbLine
 10
-26.000000000000227
 20
-36.999999999999865
 30
0.0
 11
-23.000000000000227
 21
-39.999999999999879
 31
0.0
  0
CIRCLE
  5
233
100
AcDbEntity
  8
0
  6
CONTINUOUS
 62
               7
100
AcDbCircle
 10
-10.497361450195513
 20
-24.999984741210881
 30
0.0
 40
8.5
  0
CIRCLE
  5
234
100
AcDbEntity
  8
0
  6
CONTINUOUS
 62
               7
100
AcDbCircle
 10
-10.497361450195285
 20
24.999984741211009
 30
0.0
 40
8.5
  0
LINE
  5
235
100
AcDbEntity
  8
0
  6
CONTINUOUS
 62
               7
100
AcDbLine
 10
-26.0
 20
32.500000000000654
 30
0.0
 11
-26.500000000000227
 21
32.500000000000654
 31
0.0
  0
LINE
  5
236
100
AcDbEntity
  8
0
  6
CONTINUOUS
 62
               7
100
AcDbLine
 10
-26.500000000000227
 20
32.500000000000654
 30
0.0
 11
-26.500000000000227
 21
15.000000000000142
 31
0.0
  0
LINE
  5
237
100
AcDbEntity
  8
0
  6
CENTER
 62
               2
100
AcDbLine
 10
-30.000000000000227
 20
0.0000000000001563
 30
0.0
 11
3.0
 21
-0.0000000000000142
 31
0.0
  0
CIRCLE
  5
238
100
AcDbEntity
  8
0
  6
CONTINUOUS
 62
               7
100
AcDbCircle
 10
-20.499999999999545
 20
34.499999999999432
 30
0.0
 40
4.25
  0
CIRCLE
  5
239
100
AcDbEntity
  8
0
  6
CONTINUOUS
 62
               7
100
AcDbCircle
 10
-20.5
 20
-34.499999999999218
 30
0.0
 40
4.25
  0
LINE
  5
23A
100
AcDbEntity
  8
0
  6
CONTINUOUS
 62
               4
100
AcDbLine
 10
-27.499999999999773
 20
15.000000000000171
 30
0.0
 11
-41.500000000000227
 21
-15.023096887134599
 31
0.0
  0
CIRCLE
  5
23B
100
AcDbEntity
  8
0
  6
CONTINUOUS
 62
               4
100
AcDbCircle
 10
-34.000000000000227
 20
-20.999999999999972
 30
0.0
 40
4.9999999999999991
  0
LINE
  5
23C
100
AcDbEntity
  8
0
  6
CENTER
 62
             200
100
AcDbLine
 10
-34.000000000000227
 20
-12.499999999999972
 30
0.0
 11
-34.000000000000227
 21
-29.499999999999972
 31
0.0
  0
LINE
  5
23D
100
AcDbEntity
  8
0
  6
CENTER
 62
             200
100
AcDbLine
 10
-42.500000000000227
 20
-20.999999999999972
 30
0.0
 11
-25.500000000000227
 21
-20.999999999999972
 31
0.0
  0
CIRCLE
  5
23E
100
AcDbEntity
  8
0
  6
CONTINUOUS
 62
               4
100
AcDbCircle
 10
-34.000000000000227
 20
-20.999999999999972
 30
0.0
 40
6.0
  0
LINE
  5
23F
100
AcDbEntity
  8
0
  6
CONTINUOUS
 62
               4
100
AcDbLine
 10
-30.535898384862321
 20
-14.999999999999972
 30
0.0
 11
-37.464101615137906
 21
-14.999999999999972
 31
0.0
  0
LINE
  5
240
100
AcDbEntity
  8
0
  6
CONTINUOUS
 62
               4
100
AcDbLine
 10
-30.535898384862321
 20
-26.999999999999972
 30
0.0
 11
-37.464101615137906
 21
-26.999999999999972
 31
0.0
  0
LINE
  5
241
100
AcDbEntity
  8
0
  6
CONTINUOUS
 62
               4
100
AcDbLine
 10
-27.500000000000227
 20
-21.74166975080233
 30
0.0
 11
-27.500000000000455
 21
-27.999999999999972
 31
0.0
  0
CIRCLE
  5
242
100
AcDbEntity
  8
0
  6
CONTINUOUS
 62
               4
100
AcDbCircle
 10
-34.000000000000227
 20
-20.999999999999972
 30
0.0
 40
4.2999999999999998
  0
CIRCLE
  5
243
100
AcDbEntity
  8
0
  6
CONTINUOUS
 62
               4
100
AcDbCircle
 10
-19.5
 20
0.0000000000000995
 30
0.0
 40
4.2999999999999998
  0
LINE
  5
244
100
AcDbEntity
  8
0
  6
CONTINUOUS
 62
               4
100
AcDbLine
 10
-7.8660254037845334
 20
-8.4999999999998863
 30
0.0
 11
-8.7320508075690668
 21
-9.9999999999998579
 31
0.0
  0
LINE
  5
245
100
AcDbEntity
  8
0
  6
CONTINUOUS
 62
               4
100
AcDbLine
 10
-7.8660254037847608
 20
-11.499999999999886
 30
0.0
 11
-8.7320508075690668
 21
-9.9999999999998579
 31
0.0
  0
LINE
  5
246
100
AcDbEntity
  8
0
  6
CONTINUOUS
 62
               4
100
AcDbLine
 10
-6.133974596215694
 20
-11.499999999999915
 30
0.0
 11
-5.2679491924313879
 21
-9.9999999999999147
 31
0.0
  0
LINE
  5
247
100
AcDbEntity
  8
0
  6
CONTINUOUS
 62
               4
100
AcDbLine
 10
-6.133974596215694
 20
-8.4999999999999005
 30
0.0
 11
-5.2679491924313879
 21
-9.9999999999999147
 31
0.0
  0
LINE
  5
248
100
AcDbEntity
  8
0
  6
CONTINUOUS
 62
               4
100
AcDbLine
 10
-6.133974596215694
 20
-8.4999999999999005
 30
0.0
 11
-7.8660254037845334
 21
-8.4999999999998863
 31
0.0
  0
LINE
  5
249
100
AcDbEntity
  8
0
  6
CONTINUOUS
 62
               4
100
AcDbLine
 10
-6.133974596215694
 20
-11.499999999999915
 30
0.0
 11
-7.8660254037847608
 21
-11.499999999999886
 31
0.0
  0
LINE
  5
24A
100
AcDbEntity
  8
0
  6
CENTER
 62
             200
100
AcDbLine
 10
-12.500000000000227
 20
-9.9999999999999432
 30
0.0
 11
-1.5
 21
-10.0
 31
0.0
  0
CIRCLE
  5
24B
100
AcDbEntity
  8
0
  6
CONTINUOUS
 62
               4
100
AcDbCircle
 10
-7.0000000000002274
 20
-9.9999999999999716
 30
0.0
 40
3.9999999999999996
  0
LINE
  5
24C
100
AcDbEntity
  8
0
  6
CENTER
 62
             200
100
AcDbLine
 10
-7.0000000000002274
 20
-4.4999999999999716
 30
0.0
 11
-7.0000000000002274
 21
-15.499999999999972
 31
0.0
  0
CIRCLE
  5
24D
100
AcDbEntity
  8
0
  6
CONTINUOUS
 62
               4
100
AcDbCircle
 10
-19.5
 20
0.0000000000000995
 30
0.0
 40
4.9999999999999991
  0
LINE
  5
24E
100
AcDbEntity
  8
0
  6
CONTINUOUS
 62
               4
100
AcDbLine
 10
-16.035898384862321
 20
6.0000000000001137
 30
0.0
 11
-22.964101615137906
 21
6.0000000000001137
 31
0.0
  0
LINE
  5
24F
100
AcDbEntity
  8
0
  6
CONTINUOUS
 62
               4
100
AcDbLine
 10
-16.035898384862321
 20
-5.9999999999998863
 30
0.0
 11
-22.964101615137906
 21
-5.9999999999998863
 31
0.0
  0
LINE
  5
250
100
AcDbEntity
  8
0
  6
CONTINUOUS
 62
               4
100
AcDbLine
 10
-26.428203230275585
 20
0.0000000000000995
 30
0.0
 11
-22.964101615137906
 21
-5.9999999999998863
 31
0.0
  0
LINE
  5
251
100
AcDbEntity
  8
0
  6
CONTINUOUS
 62
               4
100
AcDbLine
 10
-12.571796769724642
 20
0.0000000000001847
 30
0.0
 11
-16.035898384862321
 21
-5.9999999999998579
 31
0.0
  0
LINE
  5
252
100
AcDbEntity
  8
0
  6
CONTINUOUS
 62
               4
100
AcDbLine
 10
-12.571796769724642
 20
0.0000000000000426
 30
0.0
 11
-16.035898384862321
 21
6.0000000000000711
 31
0.0
  0
LINE
  5
253
100
AcDbEntity
  8
0
  6
CONTINUOUS
 62
               4
100
AcDbLine
 10
-26.428203230275585
 20
0.0000000000000995
 30
0.0
 11
-22.964101615137906
 21
6.0000000000001137
 31
0.0
  0
CIRCLE
  5
254
100
AcDbEntity
  8
0
  6
CONTINUOUS
 62
               4
100
AcDbCircle
 10
-19.5
 20
0.0000000000000995
 30
0.0
 40
6.0
  0
LINE
  5
255
100
AcDbEntity
  8
0
  6
CENTER
 62
             200
100
AcDbLine
 10
-19.5
 20
8.5000000000000995
 30
0.0
 11
-19.500000000000227
 21
-8.4999999999998863
 31
0.0
  0
LINE
  5
256
100
AcDbEntity
  8
0
  6
CONTINUOUS
 62
               4
100
AcDbLine
 10
-27.071796769724642
 20
-20.999999999999901
 30
0.0
 11
-30.535898384862321
 21
-26.999999999999929
 31
0.0
  0
LINE
  5
257
100
AcDbEntity
  8
0
  6
CONTINUOUS
 62
               4
100
AcDbLine
 10
-27.071796769724642
 20
-21.000000000000043
 30
0.0
 11
-30.535898384862321
 21
-15.0
 31
0.0
  0
LINE
  5
258
100
AcDbEntity
  8
0
  6
CONTINUOUS
 62
               4
100
AcDbLine
 10
-6.133974596215694
 20
11.499999999999986
 30
0.0
 11
-7.8660254037845334
 21
11.499999999999986
 31
0.0
  0
LINE
  5
259
100
AcDbEntity
  8
0
  6
CONTINUOUS
 62
               4
100
AcDbLine
 10
-6.133974596215694
 20
8.4999999999999716
 30
0.0
 11
-7.8660254037845334
 21
8.4999999999999716
 31
0.0
  0
LINE
  5
25A
100
AcDbEntity
  8
0
  6
CONTINUOUS
 62
               4
100
AcDbLine
 10
-6.133974596215694
 20
8.4999999999999716
 30
0.0
 11
-5.2679491924311606
 21
9.9999999999999716
 31
0.0
  0
LINE
  5
25B
100
AcDbEntity
  8
0
  6
CONTINUOUS
 62
               4
100
AcDbLine
 10
-6.133974596215694
 20
11.499999999999986
 30
0.0
 11
-5.2679491924311606
 21
9.9999999999999716
 31
0.0
  0
LINE
  5
25C
100
AcDbEntity
  8
0
  6
CONTINUOUS
 62
               4
100
AcDbLine
 10
-7.8660254037845334
 20
11.499999999999986
 30
0.0
 11
-8.7320508075690668
 21
9.9999999999999716
 31
0.0
  0
LINE
  5
25D
100
AcDbEntity
  8
0
  6
CONTINUOUS
 62
               4
100
AcDbLine
 10
-7.8660254037845334
 20
8.4999999999999716
 30
0.0
 11
-8.7320508075690668
 21
9.9999999999999716
 31
0.0
  0
LINE
  5
25E
100
AcDbEntity
  8
0
  6
CENTER
 62
             200
100
AcDbLine
 10
-12.5
 20
10.000000000000099
 30
0.0
 11
-1.5
 21
10.000000000000057
 31
0.0
  0
CIRCLE
  5
25F
100
AcDbEntity
  8
0
  6
CONTINUOUS
 62
               4
100
AcDbCircle
 10
-7.0
 20
10.000000000000057
 30
0.0
 40
3.9999999999999996
  0
CIRCLE
  5
260
100
AcDbEntity
  8
0
  6
CONTINUOUS
 62
               4
100
AcDbCircle
 10
-7.0
 20
10.000000000000071
 30
0.0
 40
3.5
  0
LINE
  5
261
100
AcDbEntity
  8
0
  6
CONTINUOUS
 62
               4
100
AcDbLine
 10
-27.500000000000227
 20
-16.060820367750907
 30
0.0
 11
-27.500000000000227
 21
-20.258330249197655
 31
0.0
  0
LINE
  5
262
100
AcDbEntity
  8
0
  6
CONTINUOUS
 62
               4
100
AcDbLine
 10
-26.5
 20
-14.999999999999858
 30
0.0
 11
-1.5
 21
-14.999999999999986
 31
0.0
  0
LINE
  5
263
100
AcDbEntity
  8
0
  6
CONTINUOUS
 62
               4
100
AcDbLine
 10
-1.5
 20
-14.999999999999986
 30
0.0
 11
-1.5
 21
15.000000000000014
 31
0.0
  0
LINE
  5
264
100
AcDbEntity
  8
0
  6
CONTINUOUS
 62
               4
100
AcDbLine
 10
-27.499999999999773
 20
15.000000000000171
 30
0.0
 11
-1.5
 21
15.000000000000014
 31
0.0
  0
LINE
  5
265
100
AcDbEntity
  8
0
  6
CONTINUOUS
 62
               4
100
AcDbLine
 10
-26.5
 20
15.000000000000142
 30
0.0
 11
-26.5
 21
-14.999999999999858
 31
0.0
  0
LINE
  5
266
100
AcDbEntity
  8
0
  6
CENTER
 62
             200
100
AcDbLine
 10
-7.0
 20
4.5000000000000568
 30
0.0
 11
-7.0
 21
15.500000000000057
 31
0.0
  0
LINE
  5
267
100
AcDbEntity
  8
0
  6
CONTINUOUS
 62
               4
100
AcDbLine
 10
-40.928203230275813
 20
-20.999999999999972
 30
0.0
 11
-37.464101615137906
 21
-26.999999999999972
 31
0.0
  0
LINE
  5
268
100
AcDbEntity
  8
0
  6
CONTINUOUS
 62
               4
100
AcDbLine
 10
-41.500000000000227
 20
-27.999999999999972
 30
0.0
 11
-27.500000000000455
 21
-27.999999999999972
 31
0.0
  0
LINE
  5
269
100
AcDbEntity
  8
0
  6
CONTINUOUS
 62
               4
100
AcDbLine
 10
-41.500000000000227
 20
-14.999999999999858
 30
0.0
 11
-41.500000000000227
 21
-27.999999999999972
 31
0.0
  0
LINE
  5
26A
100
AcDbEntity
  8
0
  6
CONTINUOUS
 62
               4
100
AcDbLine
 10
-40.928203230275813
 20
-20.999999999999972
 30
0.0
 11
-37.464101615137906
 21
-14.999999999999972
 31
0.0
  0
CIRCLE
  5
26B
100
AcDbEntity
  8
0
  6
CONTINUOUS
 62
               4
100
AcDbCircle
 10
-7.0000000000002274
 20
-9.9999999999999858
 30
0.0
 40
3.5
  0
LINE
  5
26C
100
AcDbEntity
  8
0
  6
CONTINUOUS
 62
               4
100
AcDbLine
 10
-25.500000000000227
 20
-16.499999999999872
 30
0.0
 11
-27.500000000000227
 21
-16.499999999999858
 31
0.0
  0
ENDBLK
  5
26D
100
AcDbEntity
  8
0
100
AcDbBlockEnd
  0
BLOCK
  5
26E
100
AcDbEntity
  8
0
100
AcDbBlockBegin
  2
ZS16SS-6
 70
               0
 10
0.0
 20
0.0
 30
0.0
  3
ZS16SS-6
  1

  0
LINE
  5
26F
100
AcDbEntity
  8
0
  6
PHANTOM
 62
               3
100
AcDbLine
 10
129.5
 20
45.752475247524742
 30
0.0
 11
129.5
 21
-21.247524752475258
 31
0.0
  0
LINE
  5
270
100
AcDbEntity
  8
0
  6
CONTINUOUS
 62
               7
100
AcDbLine
 10
61.999999999999943
 20
26.499999999999993
 30
0.0
 11
8.0
 21
26.499999999999993
 31
0.0
  0
LINE
  5
271
100
AcDbEntity
  8
0
  6
CONTINUOUS
 62
               7
100
AcDbLine
 10
61.999999999999943
 20
26.999999999999986
 30
0.0
 11
8.0
 21
26.999999999999986
 31
0.0
  0
LINE
  5
272
100
AcDbEntity
  8
0
  6
CONTINUOUS
 62
               4
100
AcDbLine
 10
71.999999999999943
 20
37.499999999999986
 30
0.0
 11
61.999999999999943
 21
37.499999999999986
 31
0.0
  0
LINE
  5
273
100
AcDbEntity
  8
0
  6
CENTER
 62
             200
100
AcDbLine
 10
67.000000000000057
 20
38.999999999999993
 30
0.0
 11
67.000000000000057
 21
22.999999999999989
 31
0.0
  0
LINE
  5
274
100
AcDbEntity
  8
0
  6
CONTINUOUS
 62
               4
100
AcDbLine
 10
150.00000000000011
 20
1.4999999999999858
 30
0.0
 11
168.00000000000011
 21
1.4999999999999858
 31
0.0
  0
LINE
  5
275
100
AcDbEntity
  8
0
  6
CONTINUOUS
 62
               7
100
AcDbLine
 10
10.0
 20
1.9999999999999929
 30
0.0
 11
8.0
 21
1.9999999999999929
 31
0.0
  0
LINE
  5
276
100
AcDbEntity
  8
0
  6
CONTINUOUS
 62
               7
100
AcDbLine
 10
9.5
 20
15.499999999999993
 30
0.0
 11
9.5
 21
5.4999999999999929
 31
0.0
  0
LINE
  5
277
100
AcDbEntity
  8
0
  6
CONTINUOUS
 62
               7
100
AcDbLine
 10
8.0
 20
5.4999999999999929
 30
0.0
 11
9.5
 21
5.4999999999999929
 31
0.0
  0
LINE
  5
278
100
AcDbEntity
  8
0
  6
CONTINUOUS
 62
               7
100
AcDbLine
 10
8.0
 20
15.499999999999993
 30
0.0
 11
9.5
 21
15.499999999999993
 31
0.0
  0
LINE
  5
279
100
AcDbEntity
  8
0
  6
CONTINUOUS
 62
               7
100
AcDbLine
 10
9.5
 20
7.4999999999999929
 30
0.0
 11
10.0
 21
7.4999999999999929
 31
0.0
  0
LINE
  5
27A
100
AcDbEntity
  8
0
  6
CONTINUOUS
 62
               7
100
AcDbLine
 10
9.5
 20
13.499999999999989
 30
0.0
 11
10.0
 21
13.499999999999989
 31
0.0
  0
LINE
  5
27B
100
AcDbEntity
  8
0
  6
CONTINUOUS
 62
               7
100
AcDbLine
 10
10.0
 20
16.999999999999986
 30
0.0
 11
8.0
 21
16.999999999999986
 31
0.0
  0
LINE
  5
27C
100
AcDbEntity
  8
0
  6
CONTINUOUS
 62
               7
100
AcDbLine
 10
10.0
 20
25.999999999999986
 30
0.0
 11
10.0
 21
0.0
 31
0.0
  0
LINE
  5
27D
100
AcDbEntity
  8
0
  6
CONTINUOUS
 62
               7
100
AcDbLine
 10
8.0
 20
1.4999999999999929
 30
0.0
 11
0.0
 21
1.4999999999999929
 31
0.0
  0
LINE
  5
27E
100
AcDbEntity
  8
0
  6
CONTINUOUS
 62
               7
100
AcDbLine
 10
8.0
 20
26.499999999999986
 30
0.0
 11
0.0
 21
26.499999999999986
 31
0.0
  0
LINE
  5
27F
100
AcDbEntity
  8
0
  6
CONTINUOUS
 62
               7
100
AcDbLine
 10
150.00000000000011
 20
0.0
 30
0.0
 11
10.0
 21
0.0
 31
0.0
  0
LINE
  5
280
100
AcDbEntity
  8
0
  6
CONTINUOUS
 62
               7
100
AcDbLine
 10
8.0
 20
1.4999999999999929
 30
0.0
 11
8.0
 21
26.999999999999986
 31
0.0
  0
LINE
  5
281
100
AcDbEntity
  8
0
  6
CONTINUOUS
 62
               7
100
AcDbLine
 10
0.0
 20
1.4999999999999929
 30
0.0
 11
0.0
 21
26.499999999999986
 31
0.0
  0
LINE
  5
282
100
AcDbEntity
  8
0
  6
CENTER
 62
               2
100
AcDbLine
 10
11.5
 20
5.9999999999999929
 30
0.0
 11
6.5
 21
5.9999999999999929
 31
0.0
  0
LINE
  5
283
100
AcDbEntity
  8
0
  6
CONTINUOUS
 62
               4
100
AcDbLine
 10
71.999999999999943
 20
24.499999999999989
 30
0.0
 11
61.999999999999943
 21
24.499999999999989
 31
0.0
  0
LINE
  5
284
100
AcDbEntity
  8
0
  6
CONTINUOUS
 62
               4
100
AcDbLine
 10
61.999999999999943
 20
37.499999999999986
 30
0.0
 11
61.999999999999943
 21
24.499999999999989
 31
0.0
  0
LINE
  5
285
100
AcDbEntity
  8
0
  6
CONTINUOUS
 62
               7
100
AcDbLine
 10
61.999999999999943
 20
25.999999999999986
 30
0.0
 11
10.0
 21
25.999999999999986
 31
0.0
  0
LINE
  5
286
100
AcDbEntity
  8
0
  6
CONTINUOUS
 62
               4
100
AcDbLine
 10
71.999999999999943
 20
37.499999999999986
 30
0.0
 11
71.999999999999943
 21
24.499999999999989
 31
0.0
  0
LINE
  5
287
100
AcDbEntity
  8
0
  6
CONTINUOUS
 62
               7
100
AcDbLine
 10
150.00000000000011
 20
0.4999999999999929
 30
0.0
 11
10.0
 21
0.4999999999999929
 31
0.0
  0
LINE
  5
288
100
AcDbEntity
  8
0
  6
CENTER
 62
               2
100
AcDbLine
 10
20.0
 20
13.999999999999993
 30
0.0
 11
28.0
 21
13.999999999999993
 31
0.0
  0
LINE
  5
289
100
AcDbEntity
  8
0
  6
CENTER
 62
               2
100
AcDbLine
 10
24.0
 20
10.000000000000011
 30
0.0
 11
24.0
 21
17.999999999999989
 31
0.0
  0
CIRCLE
  5
28A
100
AcDbEntity
  8
0
  6
CONTINUOUS
 62
               2
100
AcDbCircle
 10
24.0
 20
13.999999999999993
 30
0.0
 40
2.4999999999999996
  0
CIRCLE
  5
28B
100
AcDbEntity
  8
0
  6
CONTINUOUS
 62
               7
100
AcDbCircle
 10
24.0
 20
13.999999999999993
 30
0.0
 40
0.75
  0
CIRCLE
  5
28C
100
AcDbEntity
  8
0
  6
CONTINUOUS
 62
               7
100
AcDbCircle
 10
24.0
 20
13.999999999999993
 30
0.0
 40
1.9999999999999998
  0
LINE
  5
28D
100
AcDbEntity
  8
0
  6
CONTINUOUS
 62
               4
100
AcDbLine
 10
155.00000000000011
 20
15.249999999999986
 30
0.0
 11
152.99999999999989
 21
15.249999999999986
 31
0.0
  0
LINE
  5
28E
100
AcDbEntity
  8
0
  6
CONTINUOUS
 62
               4
100
AcDbLine
 10
155.00000000000011
 20
15.249999999999986
 30
0.0
 11
155.75000000000011
 21
14.499999999999979
 31
0.0
  0
LINE
  5
28F
100
AcDbEntity
  8
0
  6
CONTINUOUS
 62
               4
100
AcDbLine
 10
155.75000000000011
 20
16.499999999999993
 30
0.0
 11
155.75000000000011
 21
14.499999999999979
 31
0.0
  0
LINE
  5
290
100
AcDbEntity
  8
0
  6
CONTINUOUS
 62
               4
100
AcDbLine
 10
155.00000000000011
 20
16.499999999999993
 30
0.0
 11
155.00000000000011
 21
15.249999999999986
 31
0.0
  0
LINE
  5
291
100
AcDbEntity
  8
0
  6
CONTINUOUS
 62
             200
100
AcDbLine
 10
160.00000000000011
 20
14.999999999999986
 30
0.0
 11
155.25000000000011
 21
14.999999999999986
 31
0.0
  0
LINE
  5
292
100
AcDbEntity
  8
0
  6
CONTINUOUS
 62
               4
100
AcDbLine
 10
160.00000000000011
 20
14.499999999999979
 30
0.0
 11
155.75000000000011
 21
14.499999999999979
 31
0.0
  0
LINE
  5
293
100
AcDbEntity
  8
0
  6
CONTINUOUS
 62
               4
100
AcDbLine
 10
152.99999999999989
 20
41.499999999999993
 30
0.0
 11
152.99999999999989
 21
15.249999999999986
 31
0.0
  0
LINE
  5
294
100
AcDbEntity
  8
0
  6
CONTINUOUS
 62
               4
100
AcDbLine
 10
152.00000000000011
 20
38.249999999999993
 30
0.0
 11
152.00000000000011
 21
29.749999999999989
 31
0.0
  0
LINE
  5
295
100
AcDbEntity
  8
0
  6
CONTINUOUS
 62
               4
100
AcDbLine
 10
143.99999999999989
 20
35.499999999999993
 30
0.0
 11
152.00000000000011
 21
35.499999999999993
 31
0.0
  0
LINE
  5
296
100
AcDbEntity
  8
0
  6
CONTINUOUS
 62
               4
100
AcDbLine
 10
143.99999999999989
 20
32.499999999999986
 30
0.0
 11
152.00000000000011
 21
32.499999999999986
 31
0.0
  0
LINE
  5
297
100
AcDbEntity
  8
0
  6
CONTINUOUS
 62
               4
100
AcDbLine
 10
143.99999999999989
 20
32.499999999999986
 30
0.0
 11
143.99999999999989
 21
35.499999999999993
 31
0.0
  0
LINE
  5
298
100
AcDbEntity
  8
0
  6
CONTINUOUS
 62
               4
100
AcDbLine
 10
152.00000000000011
 20
29.749999999999989
 30
0.0
 11
152.99999999999989
 21
29.749999999999989
 31
0.0
  0
LINE
  5
299
100
AcDbEntity
  8
0
  6
CONTINUOUS
 62
               4
100
AcDbLine
 10
152.00000000000011
 20
38.249999999999993
 30
0.0
 11
152.99999999999989
 21
38.249999999999993
 31
0.0
  0
LINE
  5
29A
100
AcDbEntity
  8
0
  6
CONTINUOUS
 62
               4
100
AcDbLine
 10
191.00000000000011
 20
38.249999999999993
 30
0.0
 11
192.00000000000011
 21
36.517949192431118
 31
0.0
  0
LINE
  5
29B
100
AcDbEntity
  8
0
  6
CONTINUOUS
 62
               4
100
AcDbLine
 10
181.25000000000011
 20
39.0
 30
0.0
 11
181.25000000000011
 21
28.999999999999986
 31
0.0
  0
LINE
  5
29C
100
AcDbEntity
  8
0
  6
CONTINUOUS
 62
               4
100
AcDbLine
 10
182.00000000000011
 20
38.249999999999993
 30
0.0
 11
182.00000000000011
 21
29.749999999999989
 31
0.0
  0
LINE
  5
29D
100
AcDbEntity
  8
0
  6
CONTINUOUS
 62
               4
100
AcDbLine
 10
192.00000000000011
 20
36.517949192431118
 30
0.0
 11
192.00000000000011
 21
31.482050807568868
 31
0.0
  0
LINE
  5
29E
100
AcDbEntity
  8
0
  6
CONTINUOUS
 62
               4
100
AcDbLine
 10
191.00000000000011
 20
38.249999999999993
 30
0.0
 11
191.00000000000011
 21
37.010398635845718
 31
0.0
  0
LINE
  5
29F
100
AcDbEntity
  8
0
  6
CONTINUOUS
 62
               4
100
AcDbLine
 10
182.00000000000011
 20
38.249999999999993
 30
0.0
 11
191.00000000000011
 21
38.249999999999993
 31
0.0
  0
LINE
  5
2A0
100
AcDbEntity
  8
0
  6
CONTINUOUS
 62
               4
100
AcDbLine
 10
182.00000000000011
 20
38.249999999999993
 30
0.0
 11
181.25000000000011
 21
39.0
 31
0.0
  0
LINE
  5
2A1
100
AcDbEntity
  8
0
  6
CONTINUOUS
 62
               4
100
AcDbLine
 10
182.00000000000011
 20
29.749999999999989
 30
0.0
 11
181.25000000000011
 21
28.999999999999986
 31
0.0
  0
LINE
  5
2A2
100
AcDbEntity
  8
0
  6
CONTINUOUS
 62
               4
100
AcDbLine
 10
182.00000000000011
 20
29.749999999999989
 30
0.0
 11
191.00000000000011
 21
29.749999999999989
 31
0.0
  0
LINE
  5
2A3
100
AcDbEntity
  8
0
  6
CONTINUOUS
 62
               4
100
AcDbLine
 10
188.00000000000011
 20
30.989601364154261
 30
0.0
 11
188.00000000000011
 21
37.010398635845718
 31
0.0
  0
LINE
  5
2A4
100
AcDbEntity
  8
0
  6
CONTINUOUS
 62
               4
100
AcDbLine
 10
188.00000001626279
 20
37.010398635845718
 30
0.0
 11
191.00000000000011
 21
37.010398635845718
 31
0.0
  0
LINE
  5
2A5
100
AcDbEntity
  8
0
  6
CONTINUOUS
 62
               4
100
AcDbLine
 10
191.00000000000011
 20
29.749999999999989
 30
0.0
 11
191.00000000000011
 21
30.989601364154261
 31
0.0
  0
LINE
  5
2A6
100
AcDbEntity
  8
0
  6
CONTINUOUS
 62
               4
100
AcDbLine
 10
188.00000001626279
 20
30.989601364154261
 30
0.0
 11
191.00000000000011
 21
30.989601364154261
 31
0.0
  0
LINE
  5
2A7
100
AcDbEntity
  8
0
  6
CONTINUOUS
 62
               4
100
AcDbLine
 10
191.00000000000011
 20
29.749999999999989
 30
0.0
 11
192.00000000000011
 21
31.482050807568868
 31
0.0
  0
ARC
  5
2A8
100
AcDbEntity
  8
0
  6
CONTINUOUS
 62
               4
100
AcDbCircle
 10
182.51052634516066
 20
33.999999999999986
 30
0.0
 40
9.0074226548393472
100
AcDbArc
 50
340.4753060116106
 51
19.524693988388577
  0
LINE
  5
2A9
100
AcDbEntity
  8
0
  6
CONTINUOUS
 62
             200
100
AcDbLine
 10
191.18230557862501
 20
36.435961372634807
 30
0.0
 11
188.00000000000011
 21
30.989601364154261
 31
0.0
  0
LINE
  5
2AA
100
AcDbEntity
  8
0
  6
CONTINUOUS
 62
             200
100
AcDbLine
 10
191.18230557862501
 20
31.564038627365171
 30
0.0
 11
188.00000000000011
 21
37.010398635845718
 31
0.0
  0
LINE
  5
2AB
100
AcDbEntity
  8
0
  6
CONTINUOUS
 62
             200
100
AcDbLine
 10
192.18230557862501
 20
17.064038627365164
 30
0.0
 11
188.99999999999989
 21
22.510398635845714
 31
0.0
  0
LINE
  5
2AC
100
AcDbEntity
  8
0
  6
CONTINUOUS
 62
             200
100
AcDbLine
 10
192.18230557862501
 20
21.935961372634807
 30
0.0
 11
188.99999999999989
 21
16.489601364154257
 31
0.0
  0
ARC
  5
2AD
100
AcDbEntity
  8
0
  6
CONTINUOUS
 62
               4
100
AcDbCircle
 10
183.51052634516066
 20
19.499999999999986
 30
0.0
 40
9.0074226548393472
100
AcDbArc
 50
340.4753060116106
 51
19.524693988388577
  0
LINE
  5
2AE
100
AcDbEntity
  8
0
  6
CONTINUOUS
 62
               4
100
AcDbLine
 10
192.00000000000011
 20
15.249999999999986
 30
0.0
 11
193.00000000000011
 21
16.982050807568861
 31
0.0
  0
LINE
  5
2AF
100
AcDbEntity
  8
0
  6
CONTINUOUS
 62
               4
100
AcDbLine
 10
189.00000001626279
 20
16.489601364154257
 30
0.0
 11
192.00000000000011
 21
16.489601364154257
 31
0.0
  0
LINE
  5
2B0
100
AcDbEntity
  8
0
  6
CONTINUOUS
 62
               4
100
AcDbLine
 10
192.00000000000011
 20
15.249999999999986
 30
0.0
 11
192.00000000000011
 21
16.489601364154257
 31
0.0
  0
LINE
  5
2B1
100
AcDbEntity
  8
0
  6
CONTINUOUS
 62
               4
100
AcDbLine
 10
189.00000001626279
 20
22.510398635845714
 30
0.0
 11
192.00000000000011
 21
22.510398635845714
 31
0.0
  0
LINE
  5
2B2
100
AcDbEntity
  8
0
  6
CONTINUOUS
 62
               4
100
AcDbLine
 10
188.99999999999989
 20
16.489601364154257
 30
0.0
 11
188.99999999999989
 21
22.510398635845714
 31
0.0
  0
LINE
  5
2B3
100
AcDbEntity
  8
0
  6
CONTINUOUS
 62
               4
100
AcDbLine
 10
183.00000000000011
 20
15.249999999999986
 30
0.0
 11
192.00000000000011
 21
15.249999999999986
 31
0.0
  0
LINE
  5
2B4
100
AcDbEntity
  8
0
  6
CONTINUOUS
 62
               4
100
AcDbLine
 10
183.00000000000011
 20
15.249999999999986
 30
0.0
 11
182.25000000000011
 21
14.499999999999979
 31
0.0
  0
LINE
  5
2B5
100
AcDbEntity
  8
0
  6
CONTINUOUS
 62
               4
100
AcDbLine
 10
183.00000000000011
 20
23.749999999999986
 30
0.0
 11
182.25000000000011
 21
24.499999999999989
 31
0.0
  0
LINE
  5
2B6
100
AcDbEntity
  8
0
  6
CONTINUOUS
 62
               4
100
AcDbLine
 10
183.00000000000011
 20
23.749999999999986
 30
0.0
 11
192.00000000000011
 21
23.749999999999986
 31
0.0
  0
LINE
  5
2B7
100
AcDbEntity
  8
0
  6
CONTINUOUS
 62
               4
100
AcDbLine
 10
192.00000000000011
 20
23.749999999999986
 30
0.0
 11
192.00000000000011
 21
22.510398635845714
 31
0.0
  0
LINE
  5
2B8
100
AcDbEntity
  8
0
  6
CONTINUOUS
 62
               4
100
AcDbLine
 10
193.00000000000011
 20
22.017949192431111
 30
0.0
 11
193.00000000000011
 21
16.982050807568861
 31
0.0
  0
LINE
  5
2B9
100
AcDbEntity
  8
0
  6
CONTINUOUS
 62
               4
100
AcDbLine
 10
183.00000000000011
 20
23.749999999999986
 30
0.0
 11
183.00000000000011
 21
15.249999999999986
 31
0.0
  0
LINE
  5
2BA
100
AcDbEntity
  8
0
  6
CONTINUOUS
 62
               4
100
AcDbLine
 10
182.25000000000011
 20
24.499999999999989
 30
0.0
 11
182.25000000000011
 21
14.499999999999979
 31
0.0
  0
LINE
  5
2BB
100
AcDbEntity
  8
0
  6
CONTINUOUS
 62
               4
100
AcDbLine
 10
192.00000000000011
 20
23.749999999999986
 30
0.0
 11
193.00000000000011
 21
22.017949192431111
 31
0.0
  0
LINE
  5
2BC
100
AcDbEntity
  8
0
  6
CONTINUOUS
 62
             200
100
AcDbLine
 10
171.00000000000011
 20
14.999999999999986
 30
0.0
 11
182.75000000000011
 21
14.999999999999986
 31
0.0
  0
LINE
  5
2BD
100
AcDbEntity
  8
0
  6
CONTINUOUS
 62
               4
100
AcDbLine
 10
171.00000000000011
 20
14.499999999999979
 30
0.0
 11
182.25000000000011
 21
14.499999999999979
 31
0.0
  0
LINE
  5
2BE
100
AcDbEntity
  8
0
  6
CONTINUOUS
 62
             200
100
AcDbLine
 10
171.00000000000011
 20
23.999999999999986
 30
0.0
 11
182.75000000000011
 21
23.999999999999986
 31
0.0
  0
LINE
  5
2BF
100
AcDbEntity
  8
0
  6
CONTINUOUS
 62
               4
100
AcDbLine
 10
171.00000000000011
 20
24.499999999999989
 30
0.0
 11
182.25000000000011
 21
24.499999999999989
 31
0.0
  0
LINE
  5
2C0
100
AcDbEntity
  8
0
  6
CONTINUOUS
 62
             200
100
AcDbLine
 10
161.99999999999989
 20
29.499999999999993
 30
0.0
 11
181.75000000000011
 21
29.499999999999993
 31
0.0
  0
LINE
  5
2C1
100
AcDbEntity
  8
0
  6
CONTINUOUS
 62
               4
100
AcDbLine
 10
161.99999999999989
 20
28.999999999999986
 30
0.0
 11
181.25000000000011
 21
28.999999999999986
 31
0.0
  0
LINE
  5
2C2
100
AcDbEntity
  8
0
  6
CONTINUOUS
 62
             200
100
AcDbLine
 10
161.99999999999989
 20
38.499999999999986
 30
0.0
 11
181.75000000000011
 21
38.499999999999986
 31
0.0
  0
LINE
  5
2C3
100
AcDbEntity
  8
0
  6
CONTINUOUS
 62
               4
100
AcDbLine
 10
161.99999999999989
 20
39.0
 30
0.0
 11
181.25000000000011
 21
39.0
 31
0.0
  0
LINE
  5
2C4
100
AcDbEntity
  8
0
  6
CENTER
 62
             200
100
AcDbLine
 10
142.50000000000011
 20
33.999999999999986
 30
0.0
 11
193.50000000000011
 21
33.999999999999986
 31
0.0
  0
LINE
  5
2C5
100
AcDbEntity
  8
0
  6
CONTINUOUS
 62
               4
100
AcDbLine
 10
171.00000000000011
 20
25.499999999999982
 30
0.0
 11
171.00000000000011
 21
13.499999999999986
 31
0.0
  0
LINE
  5
2C6
100
AcDbEntity
  8
0
  6
CONTINUOUS
 62
               4
100
AcDbLine
 10
168.53589841215501
 20
26.4282032302755
 30
0.0
 11
170.46410159576146
 21
26.4282032302755
 31
0.0
  0
LINE
  5
2C7
100
AcDbEntity
  8
0
  6
CONTINUOUS
 62
               4
100
AcDbLine
 10
168.53589840423854
 20
22.964101615137778
 30
0.0
 11
170.46410159576146
 21
22.964101615137778
 31
0.0
  0
LINE
  5
2C8
100
AcDbEntity
  8
0
  6
CONTINUOUS
 62
               4
100
AcDbLine
 10
170.99999995339124
 20
25.50000005901834
 30
0.0
 11
170.46410162556379
 21
26.428203164944854
 31
0.0
  0
ARC
  5
2C9
100
AcDbEntity
  8
0
  6
CONTINUOUS
 62
               4
100
AcDbCircle
 10
167.93301289898443
 20
24.696152390041309
 30
0.0
 40
3.0669871010155796
100
AcDbArc
 50
325.61575075178644
 51
34.384250727090532
  0
ARC
  5
2CA
100
AcDbEntity
  8
0
  6
CONTINUOUS
 62
               4
100
AcDbCircle
 10
159.53589877999127
 20
19.499999999999986
 30
0.0
 40
11.464101220008734
100
AcDbArc
 50
342.41204560002097
 51
17.587954399978187
  0
LINE
  5
2CB
100
AcDbEntity
  8
0
  6
CONTINUOUS
 62
               4
100
AcDbLine
 10
170.99999995339124
 20
13.499999940981628
 30
0.0
 11
170.46410162556379
 21
12.571796835055107
 31
0.0
  0
ARC
  5
2CC
100
AcDbEntity
  8
0
  6
CONTINUOUS
 62
               4
100
AcDbCircle
 10
167.93301289898443
 20
14.303847609958659
 30
0.0
 40
3.0669871010155796
100
AcDbArc
 50
325.61574927290945
 51
34.384249248212811
  0
LINE
  5
2CD
100
AcDbEntity
  8
0
  6
CONTINUOUS
 62
               4
100
AcDbLine
 10
168.53589841215501
 20
12.571796769724472
 30
0.0
 11
170.46410159576146
 21
12.571796769724472
 31
0.0
  0
LINE
  5
2CE
100
AcDbEntity
  8
0
  6
CONTINUOUS
 62
               4
100
AcDbLine
 10
168.53589840423854
 20
16.035898384862193
 30
0.0
 11
170.46410159576146
 21
16.035898384862193
 31
0.0
  0
ARC
  5
2CF
100
AcDbEntity
  8
0
  6
CONTINUOUS
 62
               4
100
AcDbCircle
 10
171.06698710101557
 20
14.303847609958659
 30
0.0
 40
3.0669871010155796
100
AcDbArc
 50
145.61575075178681
 51
214.38425072709015
  0
LINE
  5
2D0
100
AcDbEntity
  8
0
  6
CONTINUOUS
 62
               4
100
AcDbLine
 10
168.00000004660899
 20
13.499999940981628
 30
0.0
 11
168.53589837443644
 21
12.571796835055107
 31
0.0
  0
ARC
  5
2D1
100
AcDbEntity
  8
0
  6
CONTINUOUS
 62
               4
100
AcDbCircle
 10
179.46410122000873
 20
19.499999999999986
 30
0.0
 40
11.464101220008734
100
AcDbArc
 50
162.4120456000214
 51
197.5879543999778
  0
ARC
  5
2D2
100
AcDbEntity
  8
0
  6
CONTINUOUS
 62
               4
100
AcDbCircle
 10
171.06698710101557
 20
24.696152390041309
 30
0.0
 40
3.0669871010155796
100
AcDbArc
 50
145.61574927290903
 51
214.38424924821237
  0
LINE
  5
2D3
100
AcDbEntity
  8
0
  6
CONTINUOUS
 62
               4
100
AcDbLine
 10
168.00000004660899
 20
25.50000005901834
 30
0.0
 11
168.53589837443644
 21
26.428203164944854
 31
0.0
  0
LINE
  5
2D4
100
AcDbEntity
  8
0
  6
CONTINUOUS
 62
               4
100
AcDbLine
 10
159.53589841215501
 20
27.071796769724479
 30
0.0
 11
161.46410159576146
 21
27.071796769724479
 31
0.0
  0
LINE
  5
2D5
100
AcDbEntity
  8
0
  6
CONTINUOUS
 62
               4
100
AcDbLine
 10
160.00000000000011
 20
17.999999999999986
 30
0.0
 11
159.00000000000011
 21
17.999999999999986
 31
0.0
  0
LINE
  5
2D6
100
AcDbEntity
  8
0
  6
CONTINUOUS
 62
               4
100
AcDbLine
 10
159.00000000000011
 20
24.999999999999986
 30
0.0
 11
160.00000000000011
 21
24.999999999999986
 31
0.0
  0
ARC
  5
2D7
100
AcDbEntity
  8
0
  6
CONTINUOUS
 62
               4
100
AcDbCircle
 10
158.00000000000011
 20
14.499999999999986
 30
0.0
 40
1.9999999999999998
100
AcDbArc
 50
269.99999999999937
 51
0.0
  0
LINE
  5
2D8
100
AcDbEntity
  8
0
  6
CONTINUOUS
 62
               4
100
AcDbLine
 10
160.00000000000011
 20
26.499999999999982
 30
0.0
 11
168.00000000000011
 21
26.499999999999982
 31
0.0
  0
LINE
  5
2D9
100
AcDbEntity
  8
0
  6
CONTINUOUS
 62
               4
100
AcDbLine
 10
160.00000000000011
 20
26.499999999999982
 30
0.0
 11
160.00000000000011
 21
14.499999999999986
 31
0.0
  0
LINE
  5
2DA
100
AcDbEntity
  8
0
  6
CONTINUOUS
 62
               4
100
AcDbLine
 10
159.00000000000011
 20
16.499999999999993
 30
0.0
 11
151.43999999999994
 21
16.499999999999993
 31
0.0
  0
LINE
  5
2DB
100
AcDbEntity
  8
0
  6
CENTER
 62
             200
100
AcDbLine
 10
180.50000000000011
 20
19.499999999999986
 30
0.0
 11
151.43999999999994
 21
19.499999999999986
 31
0.0
  0
LINE
  5
2DC
100
AcDbEntity
  8
0
  6
CONTINUOUS
 62
               4
100
AcDbLine
 10
152.99999999999989
 20
27.499999999999993
 30
0.0
 11
159.00000000000011
 21
27.499999999999993
 31
0.0
  0
LINE
  5
2DD
100
AcDbEntity
  8
0
  6
CENTER
 62
             200
100
AcDbLine
 10
148.50000000000011
 20
21.499999999999986
 30
0.0
 11
161.49999999999989
 21
21.499999999999986
 31
0.0
  0
LINE
  5
2DE
100
AcDbEntity
  8
0
  6
CONTINUOUS
 62
               4
100
AcDbLine
 10
150.00000000000011
 20
12.499999999999989
 30
0.0
 11
158.00000000000011
 21
12.499999999999989
 31
0.0
  0
LINE
  5
2DF
100
AcDbEntity
  8
0
  6
CONTINUOUS
 62
               4
100
AcDbLine
 10
159.53589840423854
 20
30.535898384862197
 30
0.0
 11
161.46410159576146
 21
30.535898384862197
 31
0.0
  0
ARC
  5
2E0
100
AcDbEntity
  8
0
  6
CONTINUOUS
 62
               4
100
AcDbCircle
 10
170.46410122000873
 20
33.999999999999986
 30
0.0
 40
11.464101220008734
100
AcDbArc
 50
162.4120456000214
 51
197.5879543999778
  0
ARC
  5
2E1
100
AcDbEntity
  8
0
  6
CONTINUOUS
 62
               4
100
AcDbCircle
 10
162.06698710101557
 20
39.19615239004132
 30
0.0
 40
3.0669871010155796
100
AcDbArc
 50
145.61574927290903
 51
214.38424924821237
  0
LINE
  5
2E2
100
AcDbEntity
  8
0
  6
CONTINUOUS
 62
               4
100
AcDbLine
 10
159.00000004660899
 20
40.000000059018348
 30
0.0
 11
159.53589837443644
 21
40.928203164944861
 31
0.0
  0
ARC
  5
2E3
100
AcDbEntity
  8
0
  6
CONTINUOUS
 62
               4
100
AcDbCircle
 10
150.53589877999127
 20
33.999999999999986
 30
0.0
 40
11.464101220008734
100
AcDbArc
 50
342.41204560002097
 51
17.587954399978187
  0
ARC
  5
2E4
100
AcDbEntity
  8
0
  6
CONTINUOUS
 62
               4
100
AcDbCircle
 10
158.93301289898443
 20
39.19615239004132
 30
0.0
 40
3.0669871010155796
100
AcDbArc
 50
325.61575075178644
 51
34.384250727090532
  0
LINE
  5
2E5
100
AcDbEntity
  8
0
  6
CONTINUOUS
 62
               4
100
AcDbLine
 10
161.99999995339124
 20
40.000000059018348
 30
0.0
 11
161.46410162556379
 21
40.928203164944861
 31
0.0
  0
LINE
  5
2E6
100
AcDbEntity
  8
0
  6
CONTINUOUS
 62
               4
100
AcDbLine
 10
159.53589840423854
 20
37.464101615137778
 30
0.0
 11
161.46410159576146
 21
37.464101615137778
 31
0.0
  0
LINE
  5
2E7
100
AcDbEntity
  8
0
  6
CONTINUOUS
 62
               4
100
AcDbLine
 10
159.53589841215501
 20
40.928203230275507
 30
0.0
 11
161.46410159576146
 21
40.928203230275507
 31
0.0
  0
LINE
  5
2E8
100
AcDbEntity
  8
0
  6
CONTINUOUS
 62
               4
100
AcDbLine
 10
162.00000000000011
 20
39.999999999999993
 30
0.0
 11
162.00000000000011
 21
27.999999999999989
 31
0.0
  0
LINE
  5
2E9
100
AcDbEntity
  8
0
  6
CONTINUOUS
 62
               4
100
AcDbLine
 10
159.00000000000011
 20
41.499999999999993
 30
0.0
 11
152.99999999999989
 21
41.499999999999993
 31
0.0
  0
LINE
  5
2EA
100
AcDbEntity
  8
0
  6
CONTINUOUS
 62
               4
100
AcDbLine
 10
159.00000000000011
 20
41.499999999999993
 30
0.0
 11
159.00000000000011
 21
16.472805158642331
 31
0.0
  0
LINE
  5
2EB
100
AcDbEntity
  8
0
  6
CONTINUOUS
 62
               4
100
AcDbLine
 10
161.99999995339124
 20
27.999999940981638
 30
0.0
 11
161.46410162556379
 21
27.071796835055125
 31
0.0
  0
ARC
  5
2EC
100
AcDbEntity
  8
0
  6
CONTINUOUS
 62
               4
100
AcDbCircle
 10
158.93301289898443
 20
28.803847609958662
 30
0.0
 40
3.0669871010155796
100
AcDbArc
 50
325.61574927290945
 51
34.384249248212811
  0
LINE
  5
2ED
100
AcDbEntity
  8
0
  6
CONTINUOUS
 62
               4
100
AcDbLine
 10
159.00000004660899
 20
27.999999940981638
 30
0.0
 11
159.53589837443644
 21
27.071796835055125
 31
0.0
  0
ARC
  5
2EE
100
AcDbEntity
  8
0
  6
CONTINUOUS
 62
               4
100
AcDbCircle
 10
162.06698710101557
 20
28.803847609958662
 30
0.0
 40
3.0669871010155796
100
AcDbArc
 50
145.61575075178681
 51
214.38425072709015
  0
LINE
  5
2EF
100
AcDbEntity
  8
0
  6
CONTINUOUS
 62
               4
100
AcDbLine
 10
152.99999999999989
 20
26.499999999999993
 30
0.0
 11
150.00000000000011
 21
26.499999999999993
 31
0.0
  0
LINE
  5
2F0
100
AcDbEntity
  8
0
  6
CENTER
 62
               2
100
AcDbLine
 10
148.50000000000011
 20
20.499999999999986
 30
0.0
 11
152.93999999999994
 21
20.499999999999986
 31
0.0
  0
LINE
  5
2F1
100
AcDbEntity
  8
0
  6
CONTINUOUS
 62
               7
100
AcDbLine
 10
150.00000000000011
 20
16.499999999999993
 30
0.0
 11
151.43999999999994
 21
16.499999999999993
 31
0.0
  0
LINE
  5
2F2
100
AcDbEntity
  8
0
  6
CONTINUOUS
 62
               7
100
AcDbLine
 10
150.00000000000011
 20
24.499999999999989
 30
0.0
 11
151.43999999999994
 21
24.499999999999989
 31
0.0
  0
LINE
  5
2F3
100
AcDbEntity
  8
0
  6
CONTINUOUS
 62
               7
100
AcDbLine
 10
151.43999999999994
 20
24.499999999999989
 30
0.0
 11
151.43999999999994
 21
16.499999999999993
 31
0.0
  0
LINE
  5
2F4
100
AcDbEntity
  8
0
  6
CONTINUOUS
 62
               7
100
AcDbLine
 10
150.34000000000003
 20
24.499999999999989
 30
0.0
 11
150.34000000000003
 21
16.499999999999993
 31
0.0
  0
LINE
  5
2F5
100
AcDbEntity
  8
0
  6
CENTER
 62
               2
100
AcDbLine
 10
131.00000000000011
 20
13.999999999999993
 30
0.0
 11
138.99999999999989
 21
13.999999999999993
 31
0.0
  0
LINE
  5
2F6
100
AcDbEntity
  8
0
  6
CENTER
 62
               2
100
AcDbLine
 10
134.99999999999989
 20
10.000000000000011
 30
0.0
 11
134.99999999999989
 21
17.999999999999989
 31
0.0
  0
CIRCLE
  5
2F7
100
AcDbEntity
  8
0
  6
CONTINUOUS
 62
               2
100
AcDbCircle
 10
134.99999999999989
 20
13.999999999999993
 30
0.0
 40
2.4999999999999996
  0
CIRCLE
  5
2F8
100
AcDbEntity
  8
0
  6
CONTINUOUS
 62
               7
100
AcDbCircle
 10
134.99999999999989
 20
13.999999999999993
 30
0.0
 40
0.75
  0
CIRCLE
  5
2F9
100
AcDbEntity
  8
0
  6
CONTINUOUS
 62
               7
100
AcDbCircle
 10
134.99999999999989
 20
13.999999999999993
 30
0.0
 40
1.9999999999999998
  0
LINE
  5
2FA
100
AcDbEntity
  8
0
  6
CONTINUOUS
 62
               7
100
AcDbLine
 10
150.00000000000011
 20
26.499999999999993
 30
0.0
 11
71.999999999999943
 21
26.499999999999993
 31
0.0
  0
LINE
  5
2FB
100
AcDbEntity
  8
0
  6
CONTINUOUS
 62
               7
100
AcDbLine
 10
150.00000000000011
 20
26.999999999999986
 30
0.0
 11
71.999999999999943
 21
26.999999999999986
 31
0.0
  0
LINE
  5
2FC
100
AcDbEntity
  8
0
  6
CONTINUOUS
 62
               7
100
AcDbLine
 10
150.00000000000011
 20
25.999999999999986
 30
0.0
 11
71.999999999999943
 21
25.999999999999986
 31
0.0
  0
LINE
  5
2FD
100
AcDbEntity
  8
0
  6
CONTINUOUS
 62
               7
100
AcDbLine
 10
150.00000000000011
 20
26.999999999999986
 30
0.0
 11
150.00000000000011
 21
0.0
 31
0.0
  0
LINE
  5
2FE
100
AcDbEntity
  8
0
  6
CONTINUOUS
 62
               7
100
AcDbLine
 10
150.00000000000011
 20
22.999999999999993
 30
0.0
 11
10.0
 21
22.999999999999993
 31
0.0
  0
LINE
  5
2FF
100
AcDbEntity
  8
0
  6
CENTER
 62
               2
100
AcDbLine
 10
-3.0
 20
10.499999999999986
 30
0.0
 11
171.00000000000011
 21
10.499999999999986
 31
0.0
  0
LINE
  5
300
100
AcDbEntity
  8
0
  6
CONTINUOUS
 62
               4
100
AcDbLine
 10
168.00000000000011
 20
26.499999999999982
 30
0.0
 11
168.00000000000011
 21
1.4999999999999858
 31
0.0
  0
ENDBLK
  5
301
100
AcDbEntity
  8
0
100
AcDbBlockEnd
  0
BLOCK
  5
302
100
AcDbEntity
  8
0
100
AcDbBlockBegin
  2
ZS16SS-7
 70
               0
 10
0.0
 20
0.0
 30
0.0
  3
ZS16SS-7
  1

  0
LINE
  5
303
100
AcDbEntity
  8
0
  6
PHANTOM
 62
               3
100
AcDbLine
 10
129.5
 20
-54.999999999999986
 30
0.0
 11
129.5
 21
58.554455445544534
 31
0.0
  0
LINE
  5
304
100
AcDbEntity
  8
0
  6
CONTINUOUS
 62
               4
100
AcDbLine
 10
188.99999999999989
 20
4.25
 30
0.0
 11
188.99999999999989
 21
3.0
 31
0.0
  0
LINE
  5
305
100
AcDbEntity
  8
0
  6
CONTINUOUS
 62
               4
100
AcDbLine
 10
183.00000000000011
 20
-4.25
 30
0.0
 11
183.00000000000011
 21
4.25
 31
0.0
  0
LINE
  5
306
100
AcDbEntity
  8
0
  6
CONTINUOUS
 62
               4
100
AcDbLine
 10
183.00000000000011
 20
4.25
 30
0.0
 11
188.99999999999989
 21
4.25
 31
0.0
  0
LINE
  5
307
100
AcDbEntity
  8
0
  6
CONTINUOUS
 62
               4
100
AcDbLine
 10
183.00000000000011
 20
4.25
 30
0.0
 11
182.25000000000011
 21
5.0
 31
0.0
  0
LINE
  5
308
100
AcDbEntity
  8
0
  6
CONTINUOUS
 62
               4
100
AcDbLine
 10
182.25000000000011
 20
-5.0
 30
0.0
 11
182.25000000000011
 21
5.0
 31
0.0
  0
LINE
  5
309
100
AcDbEntity
  8
0
  6
CONTINUOUS
 62
               4
100
AcDbLine
 10
192.00000000000011
 20
-3.0
 30
0.0
 11
192.00000000000011
 21
3.0
 31
0.0
  0
LINE
  5
30A
100
AcDbEntity
  8
0
  6
CONTINUOUS
 62
               4
100
AcDbLine
 10
188.99999999999989
 20
3.0
 30
0.0
 11
192.72168783648692
 21
3.0
 31
0.0
  0
LINE
  5
30B
100
AcDbEntity
  8
0
  6
CONTINUOUS
 62
               4
100
AcDbLine
 10
193.00000000000011
 20
-2.5179491924311037
 30
0.0
 11
193.00000000000011
 21
2.5179491924311037
 31
0.0
  0
LINE
  5
30C
100
AcDbEntity
  8
0
  6
CONTINUOUS
 62
               4
100
AcDbLine
 10
192.72168783648692
 20
3.0
 30
0.0
 11
193.00000000000011
 21
2.5179491924311037
 31
0.0
  0
LINE
  5
30D
100
AcDbEntity
  8
0
  6
CONTINUOUS
 62
             200
100
AcDbLine
 10
170.99999999999989
 20
4.5
 30
0.0
 11
182.75000000000011
 21
4.5
 31
0.0
  0
LINE
  5
30E
100
AcDbEntity
  8
0
  6
CONTINUOUS
 62
               4
100
AcDbLine
 10
170.99999999999989
 20
5.0
 30
0.0
 11
182.25000000000011
 21
5.0
 31
0.0
  0
LINE
  5
30F
100
AcDbEntity
  8
0
  6
CONTINUOUS
 62
               4
100
AcDbLine
 10
152.00000000000011
 20
25.249999999999986
 30
0.0
 11
152.00000000000011
 21
16.75
 31
0.0
  0
LINE
  5
310
100
AcDbEntity
  8
0
  6
CONTINUOUS
 62
               4
100
AcDbLine
 10
150.00000000000011
 20
22.499999999999986
 30
0.0
 11
152.00000000000011
 21
22.499999999999986
 31
0.0
  0
LINE
  5
311
100
AcDbEntity
  8
0
  6
CONTINUOUS
 62
               4
100
AcDbLine
 10
152.00000000000011
 20
25.249999999999986
 30
0.0
 11
152.99999999999989
 21
25.249999999999986
 31
0.0
  0
LINE
  5
312
100
AcDbEntity
  8
0
  6
CONTINUOUS
 62
               4
100
AcDbLine
 10
152.00000000000011
 20
16.75
 30
0.0
 11
152.99999999999989
 21
16.75
 31
0.0
  0
LINE
  5
313
100
AcDbEntity
  8
0
  6
CONTINUOUS
 62
               4
100
AcDbLine
 10
150.00000000000011
 20
19.5
 30
0.0
 11
152.00000000000011
 21
19.5
 31
0.0
  0
LINE
  5
314
100
AcDbEntity
  8
0
  6
CONTINUOUS
 62
               4
100
AcDbLine
 10
182.00000000000011
 20
16.75
 30
0.0
 11
181.25000000000011
 21
15.999999999999972
 31
0.0
  0
LINE
  5
315
100
AcDbEntity
  8
0
  6
CONTINUOUS
 62
               4
100
AcDbLine
 10
188.00000000000011
 20
16.75
 30
0.0
 11
188.00000000000011
 21
18.0
 31
0.0
  0
LINE
  5
316
100
AcDbEntity
  8
0
  6
CONTINUOUS
 62
               4
100
AcDbLine
 10
188.00000000000011
 20
18.0
 30
0.0
 11
191.72168783648692
 21
18.0
 31
0.0
  0
LINE
  5
317
100
AcDbEntity
  8
0
  6
CONTINUOUS
 62
               4
100
AcDbLine
 10
182.00000000000011
 20
16.75
 30
0.0
 11
188.00000000000011
 21
16.75
 31
0.0
  0
LINE
  5
318
100
AcDbEntity
  8
0
  6
CONTINUOUS
 62
               4
100
AcDbLine
 10
181.25000000000011
 20
25.999999999999986
 30
0.0
 11
181.25000000000011
 21
15.999999999999972
 31
0.0
  0
LINE
  5
319
100
AcDbEntity
  8
0
  6
CONTINUOUS
 62
               4
100
AcDbLine
 10
182.00000000000011
 20
25.249999999999986
 30
0.0
 11
181.25000000000011
 21
25.999999999999986
 31
0.0
  0
LINE
  5
31A
100
AcDbEntity
  8
0
  6
CONTINUOUS
 62
               4
100
AcDbLine
 10
188.00000000000011
 20
23.999999999999986
 30
0.0
 11
191.72168783648692
 21
23.999999999999986
 31
0.0
  0
LINE
  5
31B
100
AcDbEntity
  8
0
  6
CONTINUOUS
 62
               4
100
AcDbLine
 10
182.00000000000011
 20
25.249999999999986
 30
0.0
 11
188.00000000000011
 21
25.249999999999986
 31
0.0
  0
LINE
  5
31C
100
AcDbEntity
  8
0
  6
CONTINUOUS
 62
               4
100
AcDbLine
 10
182.00000000000011
 20
25.249999999999986
 30
0.0
 11
182.00000000000011
 21
16.75
 31
0.0
  0
LINE
  5
31D
100
AcDbEntity
  8
0
  6
CONTINUOUS
 62
               4
100
AcDbLine
 10
188.00000000000011
 20
25.249999999999986
 30
0.0
 11
188.00000000000011
 21
23.999999999999986
 31
0.0
  0
LINE
  5
31E
100
AcDbEntity
  8
0
  6
CONTINUOUS
 62
               4
100
AcDbLine
 10
192.00000000000011
 20
23.517949192431118
 30
0.0
 11
192.00000000000011
 21
18.482050807568868
 31
0.0
  0
LINE
  5
31F
100
AcDbEntity
  8
0
  6
CONTINUOUS
 62
               4
100
AcDbLine
 10
191.00000000000011
 20
23.999999999999986
 30
0.0
 11
191.00000000000011
 21
18.0
 31
0.0
  0
LINE
  5
320
100
AcDbEntity
  8
0
  6
CONTINUOUS
 62
               4
100
AcDbLine
 10
191.72168783648692
 20
23.999999999999986
 30
0.0
 11
192.00000000000011
 21
23.517949192431118
 31
0.0
  0
LINE
  5
321
100
AcDbEntity
  8
0
  6
CONTINUOUS
 62
               4
100
AcDbLine
 10
191.72168783648692
 20
18.0
 30
0.0
 11
192.00000000000011
 21
18.482050807568868
 31
0.0
  0
LINE
  5
322
100
AcDbEntity
  8
0
  6
CONTINUOUS
 62
             200
100
AcDbLine
 10
161.99999999999989
 20
16.5
 30
0.0
 11
181.75000000000011
 21
16.5
 31
0.0
  0
LINE
  5
323
100
AcDbEntity
  8
0
  6
CONTINUOUS
 62
               4
100
AcDbLine
 10
161.99999999999989
 20
15.999999999999972
 30
0.0
 11
181.25000000000011
 21
15.999999999999972
 31
0.0
  0
LINE
  5
324
100
AcDbEntity
  8
0
  6
CONTINUOUS
 62
             200
100
AcDbLine
 10
161.99999999999989
 20
25.499999999999986
 30
0.0
 11
181.75000000000011
 21
25.499999999999986
 31
0.0
  0
LINE
  5
325
100
AcDbEntity
  8
0
  6
CONTINUOUS
 62
               4
100
AcDbLine
 10
161.99999999999989
 20
25.999999999999986
 30
0.0
 11
181.25000000000011
 21
25.999999999999986
 31
0.0
  0
LINE
  5
326
100
AcDbEntity
  8
0
  6
CENTER
 62
             200
100
AcDbLine
 10
148.50000000000011
 20
21.0
 30
0.0
 11
193.50000000000011
 21
21.0
 31
0.0
  0
LINE
  5
327
100
AcDbEntity
  8
0
  6
CENTER
 62
             200
100
AcDbLine
 10
148.50000000000011
 20
10.0
 30
0.0
 11
169.50000000000011
 21
10.0
 31
0.0
  0
LINE
  5
328
100
AcDbEntity
  8
0
  6
CONTINUOUS
 62
               4
100
AcDbLine
 10
152.99999999999989
 20
27.999999999999986
 30
0.0
 11
159.00000000000011
 21
27.999999999999986
 31
0.0
  0
LINE
  5
329
100
AcDbEntity
  8
0
  6
CONTINUOUS
 62
               4
100
AcDbLine
 10
168.53589838486221
 20
0.0
 30
0.0
 11
170.46410161513779
 21
0.0
 31
0.0
  0
ARC
  5
32A
100
AcDbEntity
  8
0
  6
CONTINUOUS
 62
               4
100
AcDbCircle
 10
162.33493649053901
 20
3.0
 30
0.0
 40
8.6650635094610795
100
AcDbArc
 50
339.74384199958286
 51
20.256158000416359
  0
ARC
  5
32B
100
AcDbEntity
  8
0
  6
CONTINUOUS
 62
               4
100
AcDbCircle
 10
176.66506350946099
 20
3.0
 30
0.0
 40
8.6650635094610795
100
AcDbArc
 50
159.74384199958322
 51
200.25615800041595
  0
LINE
  5
32C
100
AcDbEntity
  8
0
  6
CONTINUOUS
 62
               4
100
AcDbLine
 10
168.00000000000011
 20
6.0
 30
0.0
 11
170.99999999999989
 21
6.0
 31
0.0
  0
LINE
  5
32D
100
AcDbEntity
  8
0
  6
CONTINUOUS
 62
               4
100
AcDbLine
 10
161.99999999999989
 20
15.0
 30
0.0
 11
161.99999999999989
 21
26.999999999999986
 31
0.0
  0
ARC
  5
32E
100
AcDbEntity
  8
0
  6
CONTINUOUS
 62
               4
100
AcDbCircle
 10
153.33493649053901
 20
18.0
 30
0.0
 40
8.6650635094610795
100
AcDbArc
 50
339.74384199958365
 51
20.256158000416359
  0
ARC
  5
32F
100
AcDbEntity
  8
0
  6
CONTINUOUS
 62
               4
100
AcDbCircle
 10
167.66506350946099
 20
18.0
 30
0.0
 40
8.6650635094610795
100
AcDbArc
 50
159.74384199958322
 51
200.25615800041595
  0
ARC
  5
330
100
AcDbEntity
  8
0
  6
CONTINUOUS
 62
               4
100
AcDbCircle
 10
167.66506350946099
 20
23.999999999999986
 30
0.0
 40
8.6650635094610795
100
AcDbArc
 50
159.74384199958322
 51
200.25615800041595
  0
ARC
  5
331
100
AcDbEntity
  8
0
  6
CONTINUOUS
 62
               4
100
AcDbCircle
 10
153.33493649053901
 20
23.999999999999986
 30
0.0
 40
8.6650635094610795
100
AcDbArc
 50
339.74384199958286
 51
20.256158000416359
  0
LINE
  5
332
100
AcDbEntity
  8
0
  6
CONTINUOUS
 62
               4
100
AcDbLine
 10
159.53589838486221
 20
21.0
 30
0.0
 11
161.46410161513779
 21
21.0
 31
0.0
  0
LINE
  5
333
100
AcDbEntity
  8
0
  6
CONTINUOUS
 62
               4
100
AcDbLine
 10
159.00000000000011
 20
26.999999999999986
 30
0.0
 11
161.99999999999989
 21
26.999999999999986
 31
0.0
  0
LINE
  5
334
100
AcDbEntity
  8
0
  6
CONTINUOUS
 62
               4
100
AcDbLine
 10
152.99999999999989
 20
15.0
 30
0.0
 11
152.99999999999989
 21
27.999999999999986
 31
0.0
  0
LINE
  5
335
100
AcDbEntity
  8
0
  6
CONTINUOUS
 62
               4
100
AcDbLine
 10
170.99999999999989
 20
-6.0
 30
0.0
 11
170.99999999999989
 21
6.0
 31
0.0
  0
LINE
  5
336
100
AcDbEntity
  8
0
  6
CONTINUOUS
 62
               4
100
AcDbLine
 10
168.00000000000011
 20
-15.0
 30
0.0
 11
168.00000000000011
 21
15.0
 31
0.0
  0
LINE
  5
337
100
AcDbEntity
  8
0
  6
CONTINUOUS
 62
               4
100
AcDbLine
 10
159.00000000000011
 20
14.999999999999886
 30
0.0
 11
159.00000000000011
 21
27.999999999999986
 31
0.0
  0
LINE
  5
338
100
AcDbEntity
  8
0
  6
CONTINUOUS
 62
               4
100
AcDbLine
 10
150.00000000000011
 20
15.0
 30
0.0
 11
168.00000000000011
 21
15.0
 31
0.0
  0
LINE
  5
339
100
AcDbEntity
  8
0
  6
CONTINUOUS
 62
               7
100
AcDbLine
 10
10.0
 20
4.0
 30
0.0
 11
8.0
 21
4.0
 31
0.0
  0
LINE
  5
33A
100
AcDbEntity
  8
0
  6
CONTINUOUS
 62
               7
100
AcDbLine
 10
10.0
 20
4.9999999999999716
 30
0.0
 11
8.0
 21
4.9999999999999716
 31
0.0
  0
LINE
  5
33B
100
AcDbEntity
  8
0
  6
CONTINUOUS
 62
               7
100
AcDbLine
 10
52.193375672974071
 20
7.4999999999999716
 30
0.0
 11
51.471687836487035
 21
6.2499999999999716
 31
0.0
  0
LINE
  5
33C
100
AcDbEntity
  8
0
  6
CONTINUOUS
 62
               7
100
AcDbLine
 10
49.306624327025929
 20
7.4999999999999716
 30
0.0
 11
50.028312163512965
 21
6.2499999999999716
 31
0.0
  0
LINE
  5
33D
100
AcDbEntity
  8
0
  6
CONTINUOUS
 62
               7
100
AcDbLine
 10
50.028312163512965
 20
6.2499999999999716
 30
0.0
 11
51.471687836487035
 21
6.2499999999999716
 31
0.0
  0
LINE
  5
33E
100
AcDbEntity
  8
0
  6
CONTINUOUS
 62
               7
100
AcDbLine
 10
49.306624327025929
 20
7.4999999999999716
 30
0.0
 11
50.028312163512965
 21
8.7499999999999716
 31
0.0
  0
LINE
  5
33F
100
AcDbEntity
  8
0
  6
CONTINUOUS
 62
               7
100
AcDbLine
 10
50.028312163512965
 20
8.7499999999999716
 30
0.0
 11
51.471687836487035
 21
8.7499999999999716
 31
0.0
  0
LINE
  5
340
100
AcDbEntity
  8
0
  6
CONTINUOUS
 62
               7
100
AcDbLine
 10
52.193375672974071
 20
7.4999999999999716
 30
0.0
 11
51.471687836487035
 21
8.7499999999999716
 31
0.0
  0
CIRCLE
  5
341
100
AcDbEntity
  8
0
  6
CONTINUOUS
 62
               7
100
AcDbCircle
 10
50.75
 20
7.4999999999999716
 30
0.0
 40
2.7499999999999996
  0
LINE
  5
342
100
AcDbEntity
  8
0
  6
CONTINUOUS
 62
               7
100
AcDbLine
 10
37.193375672974014
 20
7.4999999999999716
 30
0.0
 11
36.471687836487035
 21
6.2499999999999716
 31
0.0
  0
LINE
  5
343
100
AcDbEntity
  8
0
  6
CONTINUOUS
 62
               7
100
AcDbLine
 10
34.306624327025929
 20
7.4999999999999716
 30
0.0
 11
35.028312163512965
 21
6.2499999999999716
 31
0.0
  0
LINE
  5
344
100
AcDbEntity
  8
0
  6
CONTINUOUS
 62
               7
100
AcDbLine
 10
35.028312163512965
 20
6.2499999999999716
 30
0.0
 11
36.471687836487035
 21
6.2499999999999716
 31
0.0
  0
LINE
  5
345
100
AcDbEntity
  8
0
  6
CONTINUOUS
 62
               7
100
AcDbLine
 10
34.306624327025929
 20
7.4999999999999716
 30
0.0
 11
35.028312163512965
 21
8.7499999999999716
 31
0.0
  0
LINE
  5
346
100
AcDbEntity
  8
0
  6
CONTINUOUS
 62
               7
100
AcDbLine
 10
35.028312163512965
 20
8.7499999999999716
 30
0.0
 11
36.471687836487035
 21
8.7499999999999716
 31
0.0
  0
LINE
  5
347
100
AcDbEntity
  8
0
  6
CONTINUOUS
 62
               7
100
AcDbLine
 10
37.193375672974014
 20
7.4999999999999716
 30
0.0
 11
36.471687836487035
 21
8.7499999999999716
 31
0.0
  0
CIRCLE
  5
348
100
AcDbEntity
  8
0
  6
CONTINUOUS
 62
               7
100
AcDbCircle
 10
35.75
 20
7.4999999999999716
 30
0.0
 40
2.7499999999999996
  0
CIRCLE
  5
349
100
AcDbEntity
  8
0
  6
CONTINUOUS
 62
               7
100
AcDbCircle
 10
50.75
 20
7.4999999999999716
 30
0.0
 40
3.2499999999999996
  0
LINE
  5
34A
100
AcDbEntity
  8
0
  6
CENTER
 62
               2
100
AcDbLine
 10
55.5
 20
7.4999999999999716
 30
0.0
 11
46.0
 21
7.4999999999999716
 31
0.0
  0
LINE
  5
34B
100
AcDbEntity
  8
0
  6
CENTER
 62
               2
100
AcDbLine
 10
50.75
 20
2.7499999999999716
 30
0.0
 11
50.75
 21
12.25
 31
0.0
  0
CIRCLE
  5
34C
100
AcDbEntity
  8
0
  6
CONTINUOUS
 62
               7
100
AcDbCircle
 10
35.75
 20
7.4999999999999716
 30
0.0
 40
3.2499999999999996
  0
LINE
  5
34D
100
AcDbEntity
  8
0
  6
CENTER
 62
               2
100
AcDbLine
 10
65.0
 20
9.9999999999999716
 30
0.0
 11
73.0
 21
9.9999999999999716
 31
0.0
  0
CIRCLE
  5
34E
100
AcDbEntity
  8
0
  6
CONTINUOUS
 62
               7
100
AcDbCircle
 10
19.0
 20
9.9999999999999716
 30
0.0
 40
2.1499999999999999
  0
CIRCLE
  5
34F
100
AcDbEntity
  8
0
  6
CONTINUOUS
 62
               2
100
AcDbCircle
 10
19.0
 20
9.9999999999999716
 30
0.0
 40
2.4999999999999996
  0
CIRCLE
  5
350
100
AcDbEntity
  8
0
  6
CONTINUOUS
 62
               7
100
AcDbCircle
 10
69.0
 20
9.9999999999999716
 30
0.0
 40
2.1499999999999999
  0
CIRCLE
  5
351
100
AcDbEntity
  8
0
  6
CONTINUOUS
 62
               2
100
AcDbCircle
 10
69.0
 20
9.9999999999999716
 30
0.0
 40
2.4999999999999996
  0
LINE
  5
352
100
AcDbEntity
  8
0
  6
CENTER
 62
               2
100
AcDbLine
 10
23.0
 20
9.9999999999999716
 30
0.0
 11
15.0
 21
9.9999999999999716
 31
0.0
  0
LINE
  5
353
100
AcDbEntity
  8
0
  6
CENTER
 62
               2
100
AcDbLine
 10
69.0
 20
13.999999999999972
 30
0.0
 11
69.0
 21
6.0
 31
0.0
  0
LINE
  5
354
100
AcDbEntity
  8
0
  6
CENTER
 62
               2
100
AcDbLine
 10
19.0
 20
13.999999999999972
 30
0.0
 11
19.0
 21
6.0
 31
0.0
  0
LINE
  5
355
100
AcDbEntity
  8
0
  6
CENTER
 62
               2
100
AcDbLine
 10
40.5
 20
7.4999999999999716
 30
0.0
 11
31.0
 21
7.4999999999999716
 31
0.0
  0
LINE
  5
356
100
AcDbEntity
  8
0
  6
CENTER
 62
               2
100
AcDbLine
 10
35.75
 20
2.7499999999999716
 30
0.0
 11
35.75
 21
12.25
 31
0.0
  0
LINE
  5
357
100
AcDbEntity
  8
0
  6
CENTER
 62
             200
100
AcDbLine
 10
115.00000000000006
 20
9.9999999999999716
 30
0.0
 11
123.00000000000011
 21
9.9999999999999716
 31
0.0
  0
CIRCLE
  5
358
100
AcDbEntity
  8
0
  6
CONTINUOUS
 62
               4
100
AcDbCircle
 10
119.00000000000011
 20
9.9999999999999716
 30
0.0
 40
2.1499999999999999
  0
CIRCLE
  5
359
100
AcDbEntity
  8
0
  6
CONTINUOUS
 62
             200
100
AcDbCircle
 10
119.00000000000011
 20
9.9999999999999716
 30
0.0
 40
2.4999999999999996
  0
LINE
  5
35A
100
AcDbEntity
  8
0
  6
CENTER
 62
             200
100
AcDbLine
 10
119.00000000000011
 20
13.999999999999972
 30
0.0
 11
119.00000000000011
 21
6.0
 31
0.0
  0
ARC
  5
35B
100
AcDbEntity
  8
0
  6
CONTINUOUS
 62
               7
100
AcDbCircle
 10
70.0
 20
0.0
 30
0.0
 40
1.9999999999999998
100
AcDbArc
 50
269.99999999999937
 51
89.999999999999801
  0
LINE
  5
35C
100
AcDbEntity
  8
0
  6
CENTER
 62
               2
100
AcDbLine
 10
68.0
 20
-3.5000000000000284
 30
0.0
 11
68.0
 21
3.5
 31
0.0
  0
ARC
  5
35D
100
AcDbEntity
  8
0
  6
CONTINUOUS
 62
               7
100
AcDbCircle
 10
68.0
 20
0.0
 30
0.0
 40
1.9999999999999998
100
AcDbArc
 50
89.999999999999815
 51
269.99999999999937
  0
LINE
  5
35E
100
AcDbEntity
  8
0
  6
CENTER
 62
               2
100
AcDbLine
 10
70.0
 20
-3.5000000000000284
 30
0.0
 11
70.0
 21
3.5
 31
0.0
  0
LINE
  5
35F
100
AcDbEntity
  8
0
  6
CENTER
 62
               2
100
AcDbLine
 10
69.0
 20
3.5
 30
0.0
 11
69.0
 21
-3.5000000000000284
 31
0.0
  0
LINE
  5
360
100
AcDbEntity
  8
0
  6
CONTINUOUS
 62
               7
100
AcDbLine
 10
68.0
 20
-2.0
 30
0.0
 11
70.0
 21
-2.0
 31
0.0
  0
LINE
  5
361
100
AcDbEntity
  8
0
  6
CONTINUOUS
 62
               7
100
AcDbLine
 10
68.0
 20
2.0
 30
0.0
 11
70.0
 21
2.0
 31
0.0
  0
CIRCLE
  5
362
100
AcDbEntity
  8
0
  6
CONTINUOUS
 62
               7
100
AcDbCircle
 10
19.0
 20
0.0
 30
0.0
 40
1.9999999999999998
  0
LINE
  5
363
100
AcDbEntity
  8
0
  6
CENTER
 62
               2
100
AcDbLine
 10
19.0
 20
-3.5000000000000284
 30
0.0
 11
19.0
 21
3.5
 31
0.0
  0
LINE
  5
364
100
AcDbEntity
  8
0
  6
CONTINUOUS
 62
               7
100
AcDbLine
 10
150.00000000000011
 20
2.4999999403951279
 30
0.0
 11
10.000000020515074
 21
2.4999999403951279
 31
0.0
  0
LINE
  5
365
100
AcDbEntity
  8
0
  6
CONTINUOUS
 62
               7
100
AcDbLine
 10
150.00000000000011
 20
17.499999999999858
 30
0.0
 11
10.000000020515074
 21
17.499999999999858
 31
0.0
  0
LINE
  5
366
100
AcDbEntity
  8
0
  6
CONTINUOUS
 62
               7
100
AcDbLine
 10
150.00000000000011
 20
30.499999940395199
 30
0.0
 11
10.000000020515074
 21
30.499999940395199
 31
0.0
  0
LINE
  5
367
100
AcDbEntity
  8
0
  6
CONTINUOUS
 62
               7
100
AcDbLine
 10
150.00000000000011
 20
38.499999999999844
 30
0.0
 11
10.000000020515074
 21
38.499999999999844
 31
0.0
  0
LINE
  5
368
100
AcDbEntity
  8
0
  6
CONTINUOUS
 62
               7
100
AcDbLine
 10
150.00000000000011
 20
2.9999999403951279
 30
0.0
 11
10.000000020515074
 21
2.9999999403951279
 31
0.0
  0
LINE
  5
369
100
AcDbEntity
  8
0
  6
CONTINUOUS
 62
               7
100
AcDbLine
 10
150.00000000000011
 20
16.999999999999829
 30
0.0
 11
10.000000020515074
 21
16.999999999999829
 31
0.0
  0
LINE
  5
36A
100
AcDbEntity
  8
0
  6
CONTINUOUS
 62
               7
100
AcDbLine
 10
150.00000000000011
 20
30.999999940395199
 30
0.0
 11
10.000000020515074
 21
30.999999940395199
 31
0.0
  0
LINE
  5
36B
100
AcDbEntity
  8
0
  6
CONTINUOUS
 62
               7
100
AcDbLine
 10
150.00000000000011
 20
37.999999999999844
 30
0.0
 11
10.000000020515074
 21
37.999999999999844
 31
0.0
  0
LINE
  5
36C
100
AcDbEntity
  8
0
  6
CONTINUOUS
 62
               7
100
AcDbLine
 10
150.00000000000011
 20
30.499999999999986
 30
0.0
 11
151.43999999999994
 21
30.499999999999986
 31
0.0
  0
LINE
  5
36D
100
AcDbEntity
  8
0
  6
CONTINUOUS
 62
               7
100
AcDbLine
 10
150.00000000000011
 20
38.499999999999986
 30
0.0
 11
151.43999999999994
 21
38.499999999999986
 31
0.0
  0
LINE
  5
36E
100
AcDbEntity
  8
0
  6
CONTINUOUS
 62
               7
100
AcDbLine
 10
151.43999999999994
 20
34.99999999999973
 30
0.0
 11
151.43999999999994
 21
38.499999999999986
 31
0.0
  0
LINE
  5
36F
100
AcDbEntity
  8
0
  6
CONTINUOUS
 62
               7
100
AcDbLine
 10
150.63999999999999
 20
33.99999999999973
 30
0.0
 11
150.63999999999999
 21
34.99999999999973
 31
0.0
  0
LINE
  5
370
100
AcDbEntity
  8
0
  6
CONTINUOUS
 62
               7
100
AcDbLine
 10
151.43999999999994
 20
30.499999999999986
 30
0.0
 11
151.43999999999994
 21
33.99999999999973
 31
0.0
  0
LINE
  5
371
100
AcDbEntity
  8
0
  6
CONTINUOUS
 62
               7
100
AcDbLine
 10
150.34000000000003
 20
30.499999999999986
 30
0.0
 11
150.34000000000003
 21
38.499999999999986
 31
0.0
  0
LINE
  5
372
100
AcDbEntity
  8
0
  6
CENTER
 62
               2
100
AcDbLine
 10
148.50000000000011
 20
34.499999999999986
 30
0.0
 11
152.93999999999994
 21
34.499999999999986
 31
0.0
  0
LINE
  5
373
100
AcDbEntity
  8
0
  6
CONTINUOUS
 62
               7
100
AcDbLine
 10
150.63999999999999
 20
34.99999999999973
 30
0.0
 11
151.43999999999994
 21
34.99999999999973
 31
0.0
  0
LINE
  5
374
100
AcDbEntity
  8
0
  6
CONTINUOUS
 62
               7
100
AcDbLine
 10
150.63999999999999
 20
33.99999999999973
 30
0.0
 11
151.43999999999994
 21
33.99999999999973
 31
0.0
  0
LINE
  5
375
100
AcDbEntity
  8
0
  6
CENTER
 62
               2
100
AcDbLine
 10
196.00000000000011
 20
0.0
 30
0.0
 11
-3.0
 21
0.0
 31
0.0
  0
LINE
  5
376
100
AcDbEntity
  8
0
  6
CENTER
 62
               2
100
AcDbLine
 10
-1.5
 20
24.999999999999986
 30
0.0
 11
11.5
 21
24.999999999999986
 31
0.0
  0
LINE
  5
377
100
AcDbEntity
  8
0
  6
CONTINUOUS
 62
               7
100
AcDbLine
 10
9.5
 20
21.999999999999972
 30
0.0
 11
10.0
 21
21.999999999999972
 31
0.0
  0
LINE
  5
378
100
AcDbEntity
  8
0
  6
CONTINUOUS
 62
               7
100
AcDbLine
 10
9.5
 20
27.999999999999986
 30
0.0
 11
10.0
 21
27.999999999999986
 31
0.0
  0
LINE
  5
379
100
AcDbEntity
  8
0
  6
CONTINUOUS
 62
               7
100
AcDbLine
 10
8.0
 20
19.999999999999972
 30
0.0
 11
9.5
 21
19.999999999999972
 31
0.0
  0
LINE
  5
37A
100
AcDbEntity
  8
0
  6
CONTINUOUS
 62
               7
100
AcDbLine
 10
8.0
 20
29.999999999999986
 30
0.0
 11
9.5
 21
29.999999999999986
 31
0.0
  0
LINE
  5
37B
100
AcDbEntity
  8
0
  6
CONTINUOUS
 62
               7
100
AcDbLine
 10
9.5
 20
19.999999999999972
 30
0.0
 11
9.5
 21
29.999999999999986
 31
0.0
  0
LINE
  5
37C
100
AcDbEntity
  8
0
  6
CONTINUOUS
 62
               7
100
AcDbLine
 10
10.0
 20
-39.999999999999986
 30
0.0
 11
10.0
 21
39.999999999999986
 31
0.0
  0
LINE
  5
37D
100
AcDbEntity
  8
0
  6
CONTINUOUS
 62
               7
100
AcDbLine
 10
150.00000000000011
 20
39.999999999999986
 30
0.0
 11
10.0
 21
39.999999999999986
 31
0.0
  0
LINE
  5
37E
100
AcDbEntity
  8
0
  6
CONTINUOUS
 62
               7
100
AcDbLine
 10
0.0
 20
32.499999999999986
 30
0.0
 11
8.0
 21
32.499999999999986
 31
0.0
  0
LINE
  5
37F
100
AcDbEntity
  8
0
  6
CONTINUOUS
 62
               7
100
AcDbLine
 10
7.9999999831933906
 20
14.999999999999972
 30
0.0
 11
10.0
 21
14.999999999999972
 31
0.0
  0
LINE
  5
380
100
AcDbEntity
  8
0
  6
CONTINUOUS
 62
               7
100
AcDbLine
 10
0.0
 20
-32.499999999999986
 30
0.0
 11
0.0
 21
32.499999999999986
 31
0.0
  0
LINE
  5
381
100
AcDbEntity
  8
0
  6
CONTINUOUS
 62
               7
100
AcDbLine
 10
8.0
 20
-32.499999999999986
 30
0.0
 11
8.0
 21
32.499999999999986
 31
0.0
  0
LINE
  5
382
100
AcDbEntity
  8
0
  6
CONTINUOUS
 62
               7
100
AcDbLine
 10
150.00000000000011
 20
-39.999999999999986
 30
0.0
 11
150.00000000000011
 21
39.999999999999986
 31
0.0
  0
LINE
  5
383
100
AcDbEntity
  8
0
  6
CONTINUOUS
 62
               7
100
AcDbLine
 10
150.00000000000011
 20
-17.499999999999858
 30
0.0
 11
10.000000020515074
 21
-17.499999999999858
 31
0.0
  0
LINE
  5
384
100
AcDbEntity
  8
0
  6
CONTINUOUS
 62
               7
100
AcDbLine
 10
150.00000000000011
 20
-30.499999940395199
 30
0.0
 11
10.000000020515074
 21
-30.499999940395199
 31
0.0
  0
LINE
  5
385
100
AcDbEntity
  8
0
  6
CONTINUOUS
 62
               7
100
AcDbLine
 10
150.00000000000011
 20
-38.499999999999844
 30
0.0
 11
10.000000020515074
 21
-38.499999999999844
 31
0.0
  0
LINE
  5
386
100
AcDbEntity
  8
0
  6
CONTINUOUS
 62
               7
100
AcDbLine
 10
150.00000000000011
 20
-2.9999999403951279
 30
0.0
 11
10.000000020515074
 21
-2.9999999403951279
 31
0.0
  0
LINE
  5
387
100
AcDbEntity
  8
0
  6
CONTINUOUS
 62
               7
100
AcDbLine
 10
150.00000000000011
 20
-16.999999999999829
 30
0.0
 11
10.000000020515074
 21
-16.999999999999829
 31
0.0
  0
LINE
  5
388
100
AcDbEntity
  8
0
  6
CONTINUOUS
 62
               7
100
AcDbLine
 10
150.00000000000011
 20
-30.999999940395199
 30
0.0
 11
10.000000020515074
 21
-30.999999940395199
 31
0.0
  0
LINE
  5
389
100
AcDbEntity
  8
0
  6
CONTINUOUS
 62
               7
100
AcDbLine
 10
150.00000000000011
 20
-37.999999999999844
 30
0.0
 11
10.000000020515074
 21
-37.999999999999844
 31
0.0
  0
LINE
  5
38A
100
AcDbEntity
  8
0
  6
CONTINUOUS
 62
               7
100
AcDbLine
 10
7.9999999831933906
 20
-14.999999999999972
 30
0.0
 11
10.0
 21
-14.999999999999972
 31
0.0
  0
LINE
  5
38B
100
AcDbEntity
  8
0
  6
CONTINUOUS
 62
               7
100
AcDbLine
 10
0.0
 20
-32.499999999999986
 30
0.0
 11
8.0
 21
-32.499999999999986
 31
0.0
  0
LINE
  5
38C
100
AcDbEntity
  8
0
  6
CONTINUOUS
 62
               7
100
AcDbLine
 10
9.5
 20
-19.999999999999972
 30
0.0
 11
9.5
 21
-29.999999999999986
 31
0.0
  0
LINE
  5
38D
100
AcDbEntity
  8
0
  6
CONTINUOUS
 62
               7
100
AcDbLine
 10
8.0
 20
-29.999999999999986
 30
0.0
 11
9.5
 21
-29.999999999999986
 31
0.0
  0
LINE
  5
38E
100
AcDbEntity
  8
0
  6
CONTINUOUS
 62
               7
100
AcDbLine
 10
8.0
 20
-19.999999999999972
 30
0.0
 11
9.5
 21
-19.999999999999972
 31
0.0
  0
LINE
  5
38F
100
AcDbEntity
  8
0
  6
CONTINUOUS
 62
               7
100
AcDbLine
 10
9.5
 20
-27.999999999999986
 30
0.0
 11
10.0
 21
-27.999999999999986
 31
0.0
  0
LINE
  5
390
100
AcDbEntity
  8
0
  6
CONTINUOUS
 62
               7
100
AcDbLine
 10
9.5
 20
-21.999999999999972
 30
0.0
 11
10.0
 21
-21.999999999999972
 31
0.0
  0
LINE
  5
391
100
AcDbEntity
  8
0
  6
CENTER
 62
               2
100
AcDbLine
 10
-1.5
 20
-24.999999999999986
 30
0.0
 11
11.5
 21
-24.999999999999986
 31
0.0
  0
LINE
  5
392
100
AcDbEntity
  8
0
  6
CONTINUOUS
 62
               7
100
AcDbLine
 10
10.0
 20
-4.9999999999999716
 30
0.0
 11
8.0
 21
-4.9999999999999716
 31
0.0
  0
LINE
  5
393
100
AcDbEntity
  8
0
  6
CONTINUOUS
 62
               7
100
AcDbLine
 10
10.0
 20
-4.0
 30
0.0
 11
8.0
 21
-4.0
 31
0.0
  0
LINE
  5
394
100
AcDbEntity
  8
0
  6
CONTINUOUS
 62
               7
100
AcDbLine
 10
150.00000000000011
 20
-39.999999999999986
 30
0.0
 11
10.0
 21
-39.999999999999986
 31
0.0
  0
LINE
  5
395
100
AcDbEntity
  8
0
  6
CONTINUOUS
 62
               7
100
AcDbLine
 10
150.63999999999999
 20
-33.99999999999973
 30
0.0
 11
151.43999999999994
 21
-33.99999999999973
 31
0.0
  0
LINE
  5
396
100
AcDbEntity
  8
0
  6
CONTINUOUS
 62
               7
100
AcDbLine
 10
150.63999999999999
 20
-34.99999999999973
 30
0.0
 11
151.43999999999994
 21
-34.99999999999973
 31
0.0
  0
LINE
  5
397
100
AcDbEntity
  8
0
  6
CENTER
 62
               2
100
AcDbLine
 10
148.50000000000011
 20
-34.499999999999986
 30
0.0
 11
152.93999999999994
 21
-34.499999999999986
 31
0.0
  0
LINE
  5
398
100
AcDbEntity
  8
0
  6
CONTINUOUS
 62
               7
100
AcDbLine
 10
150.34000000000003
 20
-30.499999999999986
 30
0.0
 11
150.34000000000003
 21
-38.499999999999986
 31
0.0
  0
LINE
  5
399
100
AcDbEntity
  8
0
  6
CONTINUOUS
 62
               7
100
AcDbLine
 10
151.43999999999994
 20
-30.499999999999986
 30
0.0
 11
151.43999999999994
 21
-33.99999999999973
 31
0.0
  0
LINE
  5
39A
100
AcDbEntity
  8
0
  6
CONTINUOUS
 62
               7
100
AcDbLine
 10
150.63999999999999
 20
-33.99999999999973
 30
0.0
 11
150.63999999999999
 21
-34.99999999999973
 31
0.0
  0
LINE
  5
39B
100
AcDbEntity
  8
0
  6
CONTINUOUS
 62
               7
100
AcDbLine
 10
151.43999999999994
 20
-34.99999999999973
 30
0.0
 11
151.43999999999994
 21
-38.499999999999986
 31
0.0
  0
LINE
  5
39C
100
AcDbEntity
  8
0
  6
CONTINUOUS
 62
               7
100
AcDbLine
 10
150.00000000000011
 20
-38.499999999999986
 30
0.0
 11
151.43999999999994
 21
-38.499999999999986
 31
0.0
  0
LINE
  5
39D
100
AcDbEntity
  8
0
  6
CONTINUOUS
 62
               7
100
AcDbLine
 10
150.00000000000011
 20
-30.499999999999986
 30
0.0
 11
151.43999999999994
 21
-30.499999999999986
 31
0.0
  0
LINE
  5
39E
100
AcDbEntity
  8
0
  6
CONTINUOUS
 62
               7
100
AcDbLine
 10
150.00000000000011
 20
-2.4999999403951279
 30
0.0
 11
10.000000020515074
 21
-2.4999999403951279
 31
0.0
  0
LINE
  5
39F
100
AcDbEntity
  8
0
  6
CENTER
 62
             200
100
AcDbLine
 10
148.50000000000011
 20
-10.0
 30
0.0
 11
169.50000000000011
 21
-10.0
 31
0.0
  0
LINE
  5
3A0
100
AcDbEntity
  8
0
  6
CONTINUOUS
 62
               4
100
AcDbLine
 10
150.00000000000011
 20
-15.0
 30
0.0
 11
168.00000000000011
 21
-15.0
 31
0.0
  0
LINE
  5
3A1
100
AcDbEntity
  8
0
  6
CONTINUOUS
 62
               4
100
AcDbLine
 10
168.00000000000011
 20
-6.0
 30
0.0
 11
170.99999999999989
 21
-6.0
 31
0.0
  0
ARC
  5
3A2
100
AcDbEntity
  8
0
  6
CONTINUOUS
 62
               4
100
AcDbCircle
 10
176.66506350946099
 20
-3.0
 30
0.0
 40
8.6650635094610795
100
AcDbArc
 50
159.74384199958322
 51
200.25615800041595
  0
ARC
  5
3A3
100
AcDbEntity
  8
0
  6
CONTINUOUS
 62
               4
100
AcDbCircle
 10
162.33493649053901
 20
-3.0
 30
0.0
 40
8.6650635094610795
100
AcDbArc
 50
339.74384199958365
 51
20.256158000416359
  0
LINE
  5
3A4
100
AcDbEntity
  8
0
  6
CONTINUOUS
 62
               4
100
AcDbLine
 10
170.99999999999989
 20
-5.0
 30
0.0
 11
182.25000000000011
 21
-5.0
 31
0.0
  0
LINE
  5
3A5
100
AcDbEntity
  8
0
  6
CONTINUOUS
 62
             200
100
AcDbLine
 10
170.99999999999989
 20
-4.5
 30
0.0
 11
182.75000000000011
 21
-4.5
 31
0.0
  0
LINE
  5
3A6
100
AcDbEntity
  8
0
  6
CONTINUOUS
 62
               4
100
AcDbLine
 10
192.72168783648692
 20
-3.0
 30
0.0
 11
193.00000000000011
 21
-2.5179491924311037
 31
0.0
  0
LINE
  5
3A7
100
AcDbEntity
  8
0
  6
CONTINUOUS
 62
               4
100
AcDbLine
 10
188.99999999999989
 20
-3.0
 30
0.0
 11
192.72168783648692
 21
-3.0
 31
0.0
  0
LINE
  5
3A8
100
AcDbEntity
  8
0
  6
CONTINUOUS
 62
               4
100
AcDbLine
 10
183.00000000000011
 20
-4.25
 30
0.0
 11
182.25000000000011
 21
-5.0
 31
0.0
  0
LINE
  5
3A9
100
AcDbEntity
  8
0
  6
CONTINUOUS
 62
               4
100
AcDbLine
 10
183.00000000000011
 20
-4.25
 30
0.0
 11
188.99999999999989
 21
-4.25
 31
0.0
  0
LINE
  5
3AA
100
AcDbEntity
  8
0
  6
CONTINUOUS
 62
               4
100
AcDbLine
 10
188.99999999999989
 20
-4.25
 30
0.0
 11
188.99999999999989
 21
-3.0
 31
0.0
  0
CIRCLE
  5
3AB
100
AcDbEntity
  8
0
  6
CONTINUOUS
 62
               2
100
AcDbCircle
 10
19.0
 20
-9.9999999999999716
 30
0.0
 40
2.4999999999999996
  0
LINE
  5
3AC
100
AcDbEntity
  8
0
  6
CENTER
 62
               2
100
AcDbLine
 10
19.0
 20
-13.999999999999972
 30
0.0
 11
19.0
 21
-6.0
 31
0.0
  0
LINE
  5
3AD
100
AcDbEntity
  8
0
  6
CENTER
 62
               2
100
AcDbLine
 10
23.0
 20
-9.9999999999999716
 30
0.0
 11
15.0
 21
-9.9999999999999716
 31
0.0
  0
CIRCLE
  5
3AE
100
AcDbEntity
  8
0
  6
CONTINUOUS
 62
               7
100
AcDbCircle
 10
19.0
 20
-9.9999999999999716
 30
0.0
 40
2.1499999999999999
  0
CIRCLE
  5
3AF
100
AcDbEntity
  8
0
  6
CONTINUOUS
 62
               7
100
AcDbCircle
 10
35.75
 20
-7.4999999999999716
 30
0.0
 40
2.7499999999999996
  0
CIRCLE
  5
3B0
100
AcDbEntity
  8
0
  6
CONTINUOUS
 62
               7
100
AcDbCircle
 10
35.75
 20
-7.4999999999999716
 30
0.0
 40
3.2499999999999996
  0
LINE
  5
3B1
100
AcDbEntity
  8
0
  6
CENTER
 62
               2
100
AcDbLine
 10
40.5
 20
-7.4999999999999716
 30
0.0
 11
31.0
 21
-7.4999999999999716
 31
0.0
  0
LINE
  5
3B2
100
AcDbEntity
  8
0
  6
CENTER
 62
               2
100
AcDbLine
 10
35.75
 20
-2.7499999999999716
 30
0.0
 11
35.75
 21
-12.25
 31
0.0
  0
LINE
  5
3B3
100
AcDbEntity
  8
0
  6
CONTINUOUS
 62
               7
100
AcDbLine
 10
37.193375672974014
 20
-7.4999999999999716
 30
0.0
 11
36.471687836487035
 21
-8.7499999999999716
 31
0.0
  0
LINE
  5
3B4
100
AcDbEntity
  8
0
  6
CONTINUOUS
 62
               7
100
AcDbLine
 10
35.028312163512965
 20
-8.7499999999999716
 30
0.0
 11
36.471687836487035
 21
-8.7499999999999716
 31
0.0
  0
LINE
  5
3B5
100
AcDbEntity
  8
0
  6
CONTINUOUS
 62
               7
100
AcDbLine
 10
34.306624327025929
 20
-7.4999999999999716
 30
0.0
 11
35.028312163512965
 21
-8.7499999999999716
 31
0.0
  0
LINE
  5
3B6
100
AcDbEntity
  8
0
  6
CONTINUOUS
 62
               7
100
AcDbLine
 10
35.028312163512965
 20
-6.2499999999999716
 30
0.0
 11
36.471687836487035
 21
-6.2499999999999716
 31
0.0
  0
LINE
  5
3B7
100
AcDbEntity
  8
0
  6
CONTINUOUS
 62
               7
100
AcDbLine
 10
34.306624327025929
 20
-7.4999999999999716
 30
0.0
 11
35.028312163512965
 21
-6.2499999999999716
 31
0.0
  0
LINE
  5
3B8
100
AcDbEntity
  8
0
  6
CONTINUOUS
 62
               7
100
AcDbLine
 10
37.193375672974014
 20
-7.4999999999999716
 30
0.0
 11
36.471687836487035
 21
-6.2499999999999716
 31
0.0
  0
CIRCLE
  5
3B9
100
AcDbEntity
  8
0
  6
CONTINUOUS
 62
               7
100
AcDbCircle
 10
50.75
 20
-7.4999999999999716
 30
0.0
 40
2.7499999999999996
  0
CIRCLE
  5
3BA
100
AcDbEntity
  8
0
  6
CONTINUOUS
 62
               7
100
AcDbCircle
 10
50.75
 20
-7.4999999999999716
 30
0.0
 40
3.2499999999999996
  0
LINE
  5
3BB
100
AcDbEntity
  8
0
  6
CENTER
 62
               2
100
AcDbLine
 10
50.75
 20
-2.7499999999999716
 30
0.0
 11
50.75
 21
-12.25
 31
0.0
  0
LINE
  5
3BC
100
AcDbEntity
  8
0
  6
CENTER
 62
               2
100
AcDbLine
 10
69.0
 20
-13.999999999999972
 30
0.0
 11
69.0
 21
-6.0
 31
0.0
  0
CIRCLE
  5
3BD
100
AcDbEntity
  8
0
  6
CONTINUOUS
 62
               2
100
AcDbCircle
 10
69.0
 20
-9.9999999999999716
 30
0.0
 40
2.4999999999999996
  0
CIRCLE
  5
3BE
100
AcDbEntity
  8
0
  6
CONTINUOUS
 62
               7
100
AcDbCircle
 10
69.0
 20
-9.9999999999999716
 30
0.0
 40
2.1499999999999999
  0
LINE
  5
3BF
100
AcDbEntity
  8
0
  6
CENTER
 62
               2
100
AcDbLine
 10
65.0
 20
-9.9999999999999716
 30
0.0
 11
73.0
 21
-9.9999999999999716
 31
0.0
  0
LINE
  5
3C0
100
AcDbEntity
  8
0
  6
CENTER
 62
               2
100
AcDbLine
 10
55.5
 20
-7.4999999999999716
 30
0.0
 11
46.0
 21
-7.4999999999999716
 31
0.0
  0
LINE
  5
3C1
100
AcDbEntity
  8
0
  6
CONTINUOUS
 62
               7
100
AcDbLine
 10
52.193375672974071
 20
-7.4999999999999716
 30
0.0
 11
51.471687836487035
 21
-8.7499999999999716
 31
0.0
  0
LINE
  5
3C2
100
AcDbEntity
  8
0
  6
CONTINUOUS
 62
               7
100
AcDbLine
 10
50.028312163512965
 20
-8.7499999999999716
 30
0.0
 11
51.471687836487035
 21
-8.7499999999999716
 31
0.0
  0
LINE
  5
3C3
100
AcDbEntity
  8
0
  6
CONTINUOUS
 62
               7
100
AcDbLine
 10
49.306624327025929
 20
-7.4999999999999716
 30
0.0
 11
50.028312163512965
 21
-8.7499999999999716
 31
0.0
  0
LINE
  5
3C4
100
AcDbEntity
  8
0
  6
CONTINUOUS
 62
               7
100
AcDbLine
 10
50.028312163512965
 20
-6.2499999999999716
 30
0.0
 11
51.471687836487035
 21
-6.2499999999999716
 31
0.0
  0
LINE
  5
3C5
100
AcDbEntity
  8
0
  6
CONTINUOUS
 62
               7
100
AcDbLine
 10
49.306624327025929
 20
-7.4999999999999716
 30
0.0
 11
50.028312163512965
 21
-6.2499999999999716
 31
0.0
  0
LINE
  5
3C6
100
AcDbEntity
  8
0
  6
CONTINUOUS
 62
               7
100
AcDbLine
 10
52.193375672974071
 20
-7.4999999999999716
 30
0.0
 11
51.471687836487035
 21
-6.2499999999999716
 31
0.0
  0
LINE
  5
3C7
100
AcDbEntity
  8
0
  6
CENTER
 62
             200
100
AcDbLine
 10
115.00000000000006
 20
-9.9999999999999716
 30
0.0
 11
123.00000000000011
 21
-9.9999999999999716
 31
0.0
  0
LINE
  5
3C8
100
AcDbEntity
  8
0
  6
CENTER
 62
             200
100
AcDbLine
 10
119.00000000000011
 20
-13.999999999999972
 30
0.0
 11
119.00000000000011
 21
-6.0
 31
0.0
  0
CIRCLE
  5
3C9
100
AcDbEntity
  8
0
  6
CONTINUOUS
 62
             200
100
AcDbCircle
 10
119.00000000000011
 20
-9.9999999999999716
 30
0.0
 40
2.4999999999999996
  0
CIRCLE
  5
3CA
100
AcDbEntity
  8
0
  6
CONTINUOUS
 62
               4
100
AcDbCircle
 10
119.00000000000011
 20
-9.9999999999999716
 30
0.0
 40
2.1499999999999999
  0
ENDBLK
  5
3CB
100
AcDbEntity
  8
0
100
AcDbBlockEnd
  0
BLOCK
  5
3CC
100
AcDbEntity
  8
0
100
AcDbBlockBegin
  2
ZS16SS-8
 70
               0
 10
0.0
 20
0.0
 30
0.0
  3
ZS16SS-8
  1

  0
LINE
  5
3CD
100
AcDbEntity
  8
0
  6
CONTINUOUS
 62
               4
100
AcDbLine
 10
0.0
 20
0.0
 30
0.0
 11
22.0
 21
0.0
 31
0.0
  0
LINE
  5
3CE
100
AcDbEntity
  8
0
  6
CONTINUOUS
 62
               4
100
AcDbLine
 10
4.7000000000000455
 20
-4.5999999999999943
 30
0.0
 11
22.0
 21
-4.5999999999999943
 31
0.0
  0
LINE
  5
3CF
100
AcDbEntity
  8
0
  6
CONTINUOUS
 62
               4
100
AcDbLine
 10
22.0
 20
0.0
 30
0.0
 11
22.0
 21
-4.5999999999999943
 31
0.0
  0
LINE
  5
3D0
100
AcDbEntity
  8
0
  6
CONTINUOUS
 62
               4
100
AcDbLine
 10
0.0
 20
-1.7999999999999972
 30
0.0
 11
0.0
 21
0.0
 31
0.0
  0
LINE
  5
3D1
100
AcDbEntity
  8
0
  6
CONTINUOUS
 62
               4
100
AcDbLine
 10
4.7000000000000455
 20
-3.0400000000000063
 30
0.0
 11
4.7000000000000455
 21
-4.5999999999999943
 31
0.0
  0
LINE
  5
3D2
100
AcDbEntity
  8
0
  6
CONTINUOUS
 62
               4
100
AcDbLine
 10
0.0
 20
-1.7999999999999972
 30
0.0
 11
4.25
 21
-1.7999999999999972
 31
0.0
  0
LINE
  5
3D3
100
AcDbEntity
  8
0
  6
CENTER
 62
             200
100
AcDbLine
 10
2.0
 20
0.7999999999999972
 30
0.0
 11
2.0
 21
-5.4300000000000068
 31
0.0
  0
LINE
  5
3D4
100
AcDbEntity
  8
0
  6
CONTINUOUS
 62
               4
100
AcDbLine
 10
4.25
 20
-1.7999999999999972
 30
0.0
 11
4.25
 21
-3.0400000000000063
 31
0.0
  0
LINE
  5
3D5
100
AcDbEntity
  8
0
  6
CONTINUOUS
 62
               4
100
AcDbLine
 10
4.0
 20
-1.7999999999999972
 30
0.0
 11
4.0
 21
-2.5999999999999943
 31
0.0
  0
LINE
  5
3D6
100
AcDbEntity
  8
0
  6
CONTINUOUS
 62
               4
100
AcDbLine
 10
0.0
 20
-1.7999999999999972
 30
0.0
 11
0.0
 21
-2.5999999999999943
 31
0.0
  0
LINE
  5
3D7
100
AcDbEntity
  8
0
  6
CONTINUOUS
 62
               4
100
AcDbLine
 10
0.0
 20
-2.5999999999999943
 30
0.0
 11
4.0
 21
-2.5999999999999943
 31
0.0
  0
LINE
  5
3D8
100
AcDbEntity
  8
0
  6
CONTINUOUS
 62
               4
100
AcDbLine
 10
4.2000000000000455
 20
-1.7999999999999972
 30
0.0
 11
4.2000000000000455
 21
-3.7999999999999972
 31
0.0
  0
LINE
  5
3D9
100
AcDbEntity
  8
0
  6
CONTINUOUS
 62
               4
100
AcDbLine
 10
4.2000000000000455
 20
-3.7999999999999972
 30
0.0
 11
4.7000000000000455
 21
-3.7999999999999972
 31
0.0
  0
LINE
  5
3DA
100
AcDbEntity
  8
0
  6
CONTINUOUS
 62
               4
100
AcDbLine
 10
4.25
 20
-3.0400000000000063
 30
0.0
 11
4.7000000000000455
 21
-3.0400000000000063
 31
0.0
  0
LINE
  5
3DB
100
AcDbEntity
  8
0
  6
CONTINUOUS
 62
               4
100
AcDbLine
 10
30.5
 20
-1.0
 30
0.0
 11
30.5
 21
-3.5999999999999943
 31
0.0
  0
LINE
  5
3DC
100
AcDbEntity
  8
0
  6
CENTER
 62
             200
100
AcDbLine
 10
28.769999999999982
 20
-1.8499999999999943
 30
0.0
 11
40.700000000000045
 21
-1.8499999999999943
 31
0.0
  0
LINE
  5
3DD
100
AcDbEntity
  8
0
  6
CENTER
 62
             200
100
AcDbLine
 10
28.82000000000005
 20
-2.75
 30
0.0
 11
40.75
 21
-2.75
 31
0.0
  0
LINE
  5
3DE
100
AcDbEntity
  8
0
  6
CONTINUOUS
 62
               4
100
AcDbLine
 10
40.5
 20
-1.5999999999999943
 30
0.0
 11
40.5
 21
-2.0999999999999943
 31
0.0
  0
LINE
  5
3DF
100
AcDbEntity
  8
0
  6
CONTINUOUS
 62
               4
100
AcDbLine
 10
40.5
 20
-2.5
 30
0.0
 11
40.5
 21
-3.0
 31
0.0
  0
LINE
  5
3E0
100
AcDbEntity
  8
0
  6
CONTINUOUS
 62
               4
100
AcDbLine
 10
37.5
 20
-1.4000000000000057
 30
0.0
 11
37.5
 21
-3.2000000000000028
 31
0.0
  0
LINE
  5
3E1
100
AcDbEntity
  8
0
  6
CONTINUOUS
 62
               4
100
AcDbLine
 10
30.5
 20
-3.2000000000000028
 30
0.0
 11
34.5
 21
-3.2000000000000028
 31
0.0
  0
LINE
  5
3E2
100
AcDbEntity
  8
0
  6
CONTINUOUS
 62
               4
100
AcDbLine
 10
30.5
 20
-2.2999999999999972
 30
0.0
 11
33.980000000000018
 21
-2.2999999999999972
 31
0.0
  0
LINE
  5
3E3
100
AcDbEntity
  8
0
  6
CONTINUOUS
 62
               4
100
AcDbLine
 10
35.480000000000018
 20
-2.2999999999999972
 30
0.0
 11
37.5
 21
-2.2999999999999972
 31
0.0
  0
LINE
  5
3E4
100
AcDbEntity
  8
0
  6
CONTINUOUS
 62
               4
100
AcDbLine
 10
36.0
 20
-3.2000000000000028
 30
0.0
 11
37.5
 21
-3.2000000000000028
 31
0.0
  0
LINE
  5
3E5
100
AcDbEntity
  8
0
  6
CONTINUOUS
 62
               4
100
AcDbLine
 10
30.5
 20
-1.4000000000000057
 30
0.0
 11
33.460000000000036
 21
-1.4000000000000057
 31
0.0
  0
LINE
  5
3E6
100
AcDbEntity
  8
0
  6
CONTINUOUS
 62
               4
100
AcDbLine
 10
34.960000000000036
 20
-1.4000000000000057
 30
0.0
 11
37.5
 21
-1.4000000000000057
 31
0.0
  0
LINE
  5
3E7
100
AcDbEntity
  8
0
  6
CONTINUOUS
 62
               4
100
AcDbLine
 10
37.5
 20
-1.5999999999999943
 30
0.0
 11
40.5
 21
-1.5999999999999943
 31
0.0
  0
LINE
  5
3E8
100
AcDbEntity
  8
0
  6
CONTINUOUS
 62
               4
100
AcDbLine
 10
37.5
 20
-2.0999999999999943
 30
0.0
 11
40.5
 21
-2.0999999999999943
 31
0.0
  0
LINE
  5
3E9
100
AcDbEntity
  8
0
  6
CONTINUOUS
 62
               4
100
AcDbLine
 10
37.5
 20
-2.5
 30
0.0
 11
40.5
 21
-2.5
 31
0.0
  0
LINE
  5
3EA
100
AcDbEntity
  8
0
  6
CONTINUOUS
 62
               4
100
AcDbLine
 10
37.5
 20
-3.0
 30
0.0
 11
40.5
 21
-3.0
 31
0.0
  0
LINE
  5
3EB
100
AcDbEntity
  8
0
  6
CONTINUOUS
 62
             200
100
AcDbLine
 10
34.230000000000018
 20
-0.1299999999999955
 30
0.0
 11
36.730000000000018
 21
-4.4599999999999937
 31
0.0
  0
LINE
  5
3EC
100
AcDbEntity
  8
0
  6
CENTER
 62
             200
100
AcDbLine
 10
20.680000000000064
 20
-2.2999999999999972
 30
0.0
 11
30.5
 21
-2.2999999999999972
 31
0.0
  0
LINE
  5
3ED
100
AcDbEntity
  8
0
  6
CONTINUOUS
 62
             200
100
AcDbLine
 10
32.730000000000018
 20
-0.1299999999999955
 30
0.0
 11
35.230000000000018
 21
-4.4599999999999937
 31
0.0
  0
LINE
  5
3EE
100
AcDbEntity
  8
0
  6
CONTINUOUS
 62
             200
100
AcDbLine
 10
25.25
 20
-0.1299999999999955
 30
0.0
 11
27.75
 21
-4.4599999999999937
 31
0.0
  0
LINE
  5
3EF
100
AcDbEntity
  8
0
  6
CONTINUOUS
 62
             200
100
AcDbLine
 10
23.75
 20
-0.1299999999999955
 30
0.0
 11
26.25
 21
-4.4599999999999937
 31
0.0
  0
LINE
  5
3F0
100
AcDbEntity
  8
0
  6
CONTINUOUS
 62
               4
100
AcDbLine
 10
0.9700000000000273
 20
-4.0
 30
0.0
 11
3.0200000000000387
 21
-4.0
 31
0.0
  0
LINE
  5
3F1
100
AcDbEntity
  8
0
  6
CONTINUOUS
 62
               4
100
AcDbLine
 10
3.0200000000000387
 20
-4.0
 30
0.0
 11
3.25
 21
-3.769999999999996
 31
0.0
  0
LINE
  5
3F2
100
AcDbEntity
  8
0
  6
CONTINUOUS
 62
               4
100
AcDbLine
 10
0.9700000000000273
 20
-4.0
 30
0.0
 11
0.75
 21
-3.769999999999996
 31
0.0
  0
LINE
  5
3F3
100
AcDbEntity
  8
0
  6
CONTINUOUS
 62
               4
100
AcDbLine
 10
0.75
 20
-2.5900000000000034
 30
0.0
 11
0.75
 21
-3.769999999999996
 31
0.0
  0
LINE
  5
3F4
100
AcDbEntity
  8
0
  6
CONTINUOUS
 62
             200
100
AcDbLine
 10
0.9700000000000273
 20
-2.5900000000000034
 30
0.0
 11
0.9700000000000273
 21
-4.0
 31
0.0
  0
LINE
  5
3F5
100
AcDbEntity
  8
0
  6
CONTINUOUS
 62
             200
100
AcDbLine
 10
3.0200000000000387
 20
-2.5900000000000034
 30
0.0
 11
3.0200000000000387
 21
-4.0
 31
0.0
  0
LINE
  5
3F6
100
AcDbEntity
  8
0
  6
CONTINUOUS
 62
               4
100
AcDbLine
 10
3.25
 20
-2.5900000000000034
 30
0.0
 11
3.25
 21
-3.769999999999996
 31
0.0
  0
LINE
  5
3F7
100
AcDbEntity
  8
0
  6
CONTINUOUS
 62
               4
100
AcDbLine
 10
0.75
 20
-3.769999999999996
 30
0.0
 11
3.25
 21
-3.769999999999996
 31
0.0
  0
LINE
  5
3F8
100
AcDbEntity
  8
0
  6
CONTINUOUS
 62
               4
100
AcDbLine
 10
0.75
 20
0.5
 30
0.0
 11
0.75
 21
0.0
 31
0.0
  0
LINE
  5
3F9
100
AcDbEntity
  8
0
  6
CONTINUOUS
 62
             200
100
AcDbLine
 10
0.9700000000000273
 20
0.5
 30
0.0
 11
0.9700000000000273
 21
0.0
 31
0.0
  0
LINE
  5
3FA
100
AcDbEntity
  8
0
  6
CONTINUOUS
 62
             200
100
AcDbLine
 10
3.0200000000000387
 20
0.5
 30
0.0
 11
3.0200000000000387
 21
0.0
 31
0.0
  0
LINE
  5
3FB
100
AcDbEntity
  8
0
  6
CONTINUOUS
 62
               4
100
AcDbLine
 10
3.25
 20
0.5
 30
0.0
 11
3.25
 21
0.0
 31
0.0
  0
LINE
  5
3FC
100
AcDbEntity
  8
0
  6
CONTINUOUS
 62
               4
100
AcDbLine
 10
0.75
 20
0.5
 30
0.0
 11
3.25
 21
0.5
 31
0.0
  0
LINE
  5
3FD
100
AcDbEntity
  8
0
  6
CONTINUOUS
 62
               4
100
AcDbLine
 10
0.0
 20
-1.0
 30
0.0
 11
22.0
 21
-1.0
 31
0.0
  0
LINE
  5
3FE
100
AcDbEntity
  8
0
  6
CONTINUOUS
 62
               4
100
AcDbLine
 10
0.0
 20
-0.4500000000000028
 30
0.0
 11
22.0
 21
-0.4500000000000028
 31
0.0
  0
LINE
  5
3FF
100
AcDbEntity
  8
0
  6
CONTINUOUS
 62
               4
100
AcDbLine
 10
22.0
 20
-1.0
 30
0.0
 11
24.25
 21
-1.0
 31
0.0
  0
LINE
  5
400
100
AcDbEntity
  8
0
  6
CONTINUOUS
 62
               4
100
AcDbLine
 10
22.0
 20
-3.5999999999999943
 30
0.0
 11
25.75
 21
-3.5999999999999943
 31
0.0
  0
LINE
  5
401
100
AcDbEntity
  8
0
  6
CONTINUOUS
 62
               4
100
AcDbLine
 10
25.75
 20
-1.0
 30
0.0
 11
30.5
 21
-1.0
 31
0.0
  0
LINE
  5
402
100
AcDbEntity
  8
0
  6
CONTINUOUS
 62
               4
100
AcDbLine
 10
27.25
 20
-3.5999999999999943
 30
0.0
 11
30.5
 21
-3.5999999999999943
 31
0.0
  0
ENDBLK
  5
403
100
AcDbEntity
  8
0
100
AcDbBlockEnd
  0
BLOCK
  5
404
100
AcDbEntity
  8
0
100
AcDbBlockBegin
  2
ZS16SS-9
 70
               0
 10
0.0
 20
0.0
 30
0.0
  3
ZS16SS-9
  1

  0
LINE
  5
405
100
AcDbEntity
  8
0
  6
CENTER
 62
             200
100
AcDbLine
 10
0.0
 20
2.0499999999999972
 30
0.0
 11
0.0
 21
-6.6599999999999966
 31
0.0
  0
LINE
  5
406
100
AcDbEntity
  8
0
  6
CONTINUOUS
 62
               4
100
AcDbLine
 10
-2.0499999999999545
 20
-1.0
 30
0.0
 11
-2.0499999999999545
 21
-2.5499999999999972
 31
0.0
  0
LINE
  5
407
100
AcDbEntity
  8
0
  6
CONTINUOUS
 62
               4
100
AcDbLine
 10
-2.0499999999999545
 20
-1.0
 30
0.0
 11
-1.5
 21
-0.4500000000000028
 31
0.0
  0
LINE
  5
408
100
AcDbEntity
  8
0
  6
CONTINUOUS
 62
               4
100
AcDbLine
 10
-1.5
 20
0.0
 30
0.0
 11
-1.5
 21
-0.4500000000000028
 31
0.0
  0
LINE
  5
409
100
AcDbEntity
  8
0
  6
CONTINUOUS
 62
               4
100
AcDbLine
 10
-1.5
 20
0.0
 30
0.0
 11
1.5
 21
0.0
 31
0.0
  0
LINE
  5
40A
100
AcDbEntity
  8
0
  6
CONTINUOUS
 62
               4
100
AcDbLine
 10
1.5
 20
0.0
 30
0.0
 11
1.5
 21
-0.4500000000000028
 31
0.0
  0
LINE
  5
40B
100
AcDbEntity
  8
0
  6
CONTINUOUS
 62
               4
100
AcDbLine
 10
2.0500000000000682
 20
-1.0
 30
0.0
 11
1.5
 21
-0.4500000000000028
 31
0.0
  0
LINE
  5
40C
100
AcDbEntity
  8
0
  6
CONTINUOUS
 62
               4
100
AcDbLine
 10
2.0500000000000682
 20
-1.0
 30
0.0
 11
2.0500000000000682
 21
-2.5499999999999972
 31
0.0
  0
LINE
  5
40D
100
AcDbEntity
  8
0
  6
CONTINUOUS
 62
               4
100
AcDbLine
 10
-2.0499999999999545
 20
-1.7999999999999972
 30
0.0
 11
2.0500000000000682
 21
-1.7999999999999972
 31
0.0
  0
LINE
  5
40E
100
AcDbEntity
  8
0
  6
CONTINUOUS
 62
               4
100
AcDbLine
 10
-2.0496097189465119
 20
-2.5900000000000034
 30
0.0
 11
2.0496097189465119
 21
-2.5900000000000034
 31
0.0
  0
LINE
  5
40F
100
AcDbEntity
  8
0
  6
CONTINUOUS
 62
               4
100
AcDbLine
 10
-1.0199999999999818
 20
-4.0
 30
0.0
 11
1.0199999999999818
 21
-4.0
 31
0.0
  0
LINE
  5
410
100
AcDbEntity
  8
0
  6
CONTINUOUS
 62
               4
100
AcDbLine
 10
1.0199999999999818
 20
-4.0
 30
0.0
 11
1.25
 21
-3.769999999999996
 31
0.0
  0
LINE
  5
411
100
AcDbEntity
  8
0
  6
CONTINUOUS
 62
               4
100
AcDbLine
 10
-1.0199999999999818
 20
-4.0
 30
0.0
 11
-1.25
 21
-3.769999999999996
 31
0.0
  0
LINE
  5
412
100
AcDbEntity
  8
0
  6
CONTINUOUS
 62
               4
100
AcDbLine
 10
-1.25
 20
-2.5900000000000034
 30
0.0
 11
-1.25
 21
-3.769999999999996
 31
0.0
  0
LINE
  5
413
100
AcDbEntity
  8
0
  6
CONTINUOUS
 62
             200
100
AcDbLine
 10
-1.0199999999999818
 20
-2.5900000000000034
 30
0.0
 11
-1.0199999999999818
 21
-4.0
 31
0.0
  0
LINE
  5
414
100
AcDbEntity
  8
0
  6
CONTINUOUS
 62
             200
100
AcDbLine
 10
1.0199999999999818
 20
-2.5900000000000034
 30
0.0
 11
1.0199999999999818
 21
-4.0
 31
0.0
  0
LINE
  5
415
100
AcDbEntity
  8
0
  6
CONTINUOUS
 62
               4
100
AcDbLine
 10
1.25
 20
-2.5900000000000034
 30
0.0
 11
1.25
 21
-3.769999999999996
 31
0.0
  0
LINE
  5
416
100
AcDbEntity
  8
0
  6
CONTINUOUS
 62
               4
100
AcDbLine
 10
-1.25
 20
-3.769999999999996
 30
0.0
 11
1.25
 21
-3.769999999999996
 31
0.0
  0
LINE
  5
417
100
AcDbEntity
  8
0
  6
CONTINUOUS
 62
               4
100
AcDbLine
 10
-1.25
 20
0.5
 30
0.0
 11
-1.25
 21
0.0
 31
0.0
  0
LINE
  5
418
100
AcDbEntity
  8
0
  6
CONTINUOUS
 62
             200
100
AcDbLine
 10
-1.0199999999999818
 20
0.5
 30
0.0
 11
-1.0199999999999818
 21
0.0
 31
0.0
  0
LINE
  5
419
100
AcDbEntity
  8
0
  6
CONTINUOUS
 62
             200
100
AcDbLine
 10
1.0199999999999818
 20
0.5
 30
0.0
 11
1.0199999999999818
 21
0.0
 31
0.0
  0
LINE
  5
41A
100
AcDbEntity
  8
0
  6
CONTINUOUS
 62
               4
100
AcDbLine
 10
1.25
 20
0.5
 30
0.0
 11
1.25
 21
0.0
 31
0.0
  0
LINE
  5
41B
100
AcDbEntity
  8
0
  6
CONTINUOUS
 62
               4
100
AcDbLine
 10
-1.25
 20
0.5
 30
0.0
 11
1.25
 21
0.5
 31
0.0
  0
ARC
  5
41C
100
AcDbEntity
  8
0
  6
CONTINUOUS
 62
               4
100
AcDbCircle
 10
0.0
 20
-2.5499999999999998
 30
0.0
 40
2.0499999999999998
100
AcDbArc
 50
179.99999999999952
 51
0.0000000000001018
  0
ENDBLK
  5
41D
100
AcDbEntity
  8
0
100
AcDbBlockEnd
  0
BLOCK
  5
41E
100
AcDbEntity
  8
0
100
AcDbBlockBegin
  2
ZS16SS-10
 70
               0
 10
0.0
 20
0.0
 30
0.0
  3
ZS16SS-10
  1

  0
LINE
  5
41F
100
AcDbEntity
  8
0
  6
CENTER
 62
             200
100
AcDbLine
 10
-2.7999999999999545
 20
0.0
 30
0.0
 11
27.400000000000034
 21
0.0
 31
0.0
  0
LINE
  5
420
100
AcDbEntity
  8
0
  6
CONTINUOUS
 62
               4
100
AcDbLine
 10
0.0
 20
-1.5
 30
0.0
 11
22.0
 21
-1.5
 31
0.0
  0
LINE
  5
421
100
AcDbEntity
  8
0
  6
CONTINUOUS
 62
               4
100
AcDbLine
 10
0.0
 20
1.5
 30
0.0
 11
22.0
 21
1.5
 31
0.0
  0
LINE
  5
422
100
AcDbEntity
  8
0
  6
CONTINUOUS
 62
               4
100
AcDbLine
 10
0.0
 20
-2.0499999999999972
 30
0.0
 11
22.0
 21
-2.0499999999999972
 31
0.0
  0
LINE
  5
423
100
AcDbEntity
  8
0
  6
CONTINUOUS
 62
               4
100
AcDbLine
 10
0.0
 20
2.0499999999999972
 30
0.0
 11
22.0
 21
2.0499999999999972
 31
0.0
  0
LINE
  5
424
100
AcDbEntity
  8
0
  6
CONTINUOUS
 62
               4
100
AcDbLine
 10
0.0
 20
2.0499999999999972
 30
0.0
 11
0.0
 21
-2.0499999999999972
 31
0.0
  0
LINE
  5
425
100
AcDbEntity
  8
0
  6
CONTINUOUS
 62
               4
100
AcDbLine
 10
22.0
 20
2.0499999999999972
 30
0.0
 11
22.0
 21
-2.0499999999999972
 31
0.0
  0
LINE
  5
426
100
AcDbEntity
  8
0
  6
CENTER
 62
             200
100
AcDbLine
 10
2.0
 20
2.8299999999999983
 30
0.0
 11
2.0
 21
-2.75
 31
0.0
  0
LINE
  5
427
100
AcDbEntity
  8
0
  6
CONTINUOUS
 62
               4
100
AcDbLine
 10
0.9500000000000455
 20
-0.710000000000008
 30
0.0
 11
2.6800000000000637
 21
1.0200000000000102
 31
0.0
  0
LINE
  5
428
100
AcDbEntity
  8
0
  6
CONTINUOUS
 62
               4
100
AcDbLine
 10
1.3000000000000682
 20
-1.0600000000000023
 30
0.0
 11
2.9400000000000546
 21
0.5600000000000023
 31
0.0
  0
LINE
  5
429
100
AcDbEntity
  8
0
  6
CONTINUOUS
 62
             200
100
AcDbLine
 10
23.080000000000041
 20
2.1599999999999966
 30
0.0
 11
25.580000000000041
 21
-2.1599999999999966
 31
0.0
  0
LINE
  5
42A
100
AcDbEntity
  8
0
  6
CONTINUOUS
 62
               4
100
AcDbLine
 10
22.0
 20
1.2999999999999972
 30
0.0
 11
23.580000000000041
 21
1.2999999999999972
 31
0.0
  0
LINE
  5
42B
100
AcDbEntity
  8
0
  6
CONTINUOUS
 62
               4
100
AcDbLine
 10
22.0
 20
-1.2999999999999972
 30
0.0
 11
25.090000000000032
 21
-1.2999999999999972
 31
0.0
  0
CIRCLE
  5
42C
100
AcDbEntity
  8
0
  6
CONTINUOUS
 62
               4
100
AcDbCircle
 10
2.0000152587890625
 20
0.0
 30
0.0
 40
1.25
  0
CIRCLE
  5
42D
100
AcDbEntity
  8
0
  6
CONTINUOUS
 62
               4
100
AcDbCircle
 10
2.0000152587890625
 20
0.0
 30
0.0
 40
1.3999996185302734
  0
ENDBLK
  5
42E
100
AcDbEntity
  8
0
100
AcDbBlockEnd
  0
BLOCK
  5
42F
100
AcDbEntity
  8
0
100
AcDbBlockBegin
  2
ZS16SS-11
 70
               0
 10
0.0
 20
0.0
 30
0.0
  3
ZS16SS-11
  1

  0
LINE
  5
430
100
AcDbEntity
  8
0
  6
CONTINUOUS
 62
               4
100
AcDbLine
 10
0.0
 20
0.0
 30
0.0
 11
16.100000000000023
 21
0.0
 31
0.0
  0
LINE
  5
431
100
AcDbEntity
  8
0
  6
CONTINUOUS
 62
               4
100
AcDbLine
 10
4.7000000000000171
 20
-4.6000000000000227
 30
0.0
 11
22.000000000000028
 21
-4.6000000000000227
 31
0.0
  0
LINE
  5
432
100
AcDbEntity
  8
0
  6
CONTINUOUS
 62
               4
100
AcDbLine
 10
22.000000000000028
 20
6.8999999999999773
 30
0.0
 11
22.000000000000028
 21
-4.6000000000000227
 31
0.0
  0
LINE
  5
433
100
AcDbEntity
  8
0
  6
CONTINUOUS
 62
               4
100
AcDbLine
 10
0.0000000000000284
 20
-2.5999999999999943
 30
0.0
 11
0.0
 21
0.0
 31
0.0
  0
LINE
  5
434
100
AcDbEntity
  8
0
  6
CONTINUOUS
 62
               4
100
AcDbLine
 10
4.7000000000000171
 20
-2.9800000000000182
 30
0.0
 11
4.7000000000000171
 21
-4.6000000000000227
 31
0.0
  0
LINE
  5
435
100
AcDbEntity
  8
0
  6
CENTER
 62
             200
100
AcDbLine
 10
2.0000000000000568
 20
0.7300000000000182
 30
0.0
 11
2.0
 21
-5.1700000000000159
 31
0.0
  0
LINE
  5
436
100
AcDbEntity
  8
0
  6
CONTINUOUS
 62
               4
100
AcDbLine
 10
16.100000000000051
 20
6.8999999999999773
 30
0.0
 11
16.100000000000023
 21
0.0
 31
0.0
  0
LINE
  5
437
100
AcDbEntity
  8
0
  6
CONTINUOUS
 62
               4
100
AcDbLine
 10
0.0000000000000568
 20
-1.8000000000000114
 30
0.0
 11
4.2700000000000102
 21
-1.8000000000000114
 31
0.0
  0
LINE
  5
438
100
AcDbEntity
  8
0
  6
CONTINUOUS
 62
               4
100
AcDbLine
 10
0.0000000000000284
 20
-2.5999999999999943
 30
0.0
 11
4.0000000000000568
 21
-2.6000000000000227
 31
0.0
  0
LINE
  5
439
100
AcDbEntity
  8
0
  6
CONTINUOUS
 62
               4
100
AcDbLine
 10
4.0000000000000284
 20
-1.8000000000000114
 30
0.0
 11
4.0000000000000568
 21
-2.6000000000000227
 31
0.0
  0
LINE
  5
43A
100
AcDbEntity
  8
0
  6
CONTINUOUS
 62
               4
100
AcDbLine
 10
16.100000000000051
 20
6.8999999999999773
 30
0.0
 11
22.000000000000028
 21
6.8999999999999773
 31
0.0
  0
LINE
  5
43B
100
AcDbEntity
  8
0
  6
CONTINUOUS
 62
               4
100
AcDbLine
 10
4.2000000000000171
 20
-3.7999999999999829
 30
0.0
 11
4.6999999999999886
 21
-3.8000000000000114
 31
0.0
  0
LINE
  5
43C
100
AcDbEntity
  8
0
  6
CONTINUOUS
 62
               4
100
AcDbLine
 10
4.2000000000000455
 20
-1.8000000000000114
 30
0.0
 11
4.2000000000000171
 21
-3.7999999999999829
 31
0.0
  0
LINE
  5
43D
100
AcDbEntity
  8
0
  6
CONTINUOUS
 62
               4
100
AcDbLine
 10
4.2700000000000102
 20
-2.9800000000000182
 30
0.0
 11
4.7000000000000171
 21
-2.9800000000000182
 31
0.0
  0
LINE
  5
43E
100
AcDbEntity
  8
0
  6
CONTINUOUS
 62
               4
100
AcDbLine
 10
4.2700000000000102
 20
-1.8000000000000114
 30
0.0
 11
4.2700000000000102
 21
-2.9800000000000182
 31
0.0
  0
LINE
  5
43F
100
AcDbEntity
  8
0
  6
CONTINUOUS
 62
               4
100
AcDbLine
 10
0.0000000000000284
 20
-1.0000000000000284
 30
0.0
 11
22.000000000000057
 21
-1.0000000000000284
 31
0.0
  0
LINE
  5
440
100
AcDbEntity
  8
0
  6
CONTINUOUS
 62
               4
100
AcDbLine
 10
0.0000000000000284
 20
-0.4500000000000171
 30
0.0
 11
22.000000000000028
 21
-0.4500000000000171
 31
0.0
  0
LINE
  5
441
100
AcDbEntity
  8
0
  6
CONTINUOUS
 62
               4
100
AcDbLine
 10
16.100000000000051
 20
1.1500000000000057
 30
0.0
 11
22.0
 21
1.1500000000000057
 31
0.0
  0
LINE
  5
442
100
AcDbEntity
  8
0
  6
CONTINUOUS
 62
               4
100
AcDbLine
 10
16.100000000000051
 20
0.4000000000000057
 30
0.0
 11
22.000000000000028
 21
0.4000000000000057
 31
0.0
  0
LINE
  5
443
100
AcDbEntity
  8
0
  6
CONTINUOUS
 62
               4
100
AcDbLine
 10
16.10000000000008
 20
5.3999999999999773
 30
0.0
 11
22.000000000000028
 21
5.3999999999999773
 31
0.0
  0
LINE
  5
444
100
AcDbEntity
  8
0
  6
CONTINUOUS
 62
               4
100
AcDbLine
 10
18.100000000000051
 20
15.399999999999977
 30
0.0
 11
20.700000000000017
 21
15.399999999999977
 31
0.0
  0
LINE
  5
445
100
AcDbEntity
  8
0
  6
CENTER
 62
             200
100
AcDbLine
 10
18.950000000000017
 20
13.669999999999987
 30
0.0
 11
18.950000000000017
 21
25.599999999999994
 31
0.0
  0
LINE
  5
446
100
AcDbEntity
  8
0
  6
CENTER
 62
             200
100
AcDbLine
 10
19.850000000000051
 20
13.71999999999997
 30
0.0
 11
19.850000000000051
 21
25.650000000000006
 31
0.0
  0
LINE
  5
447
100
AcDbEntity
  8
0
  6
CONTINUOUS
 62
               4
100
AcDbLine
 10
18.700000000000045
 20
25.399999999999977
 30
0.0
 11
19.200000000000017
 21
25.399999999999977
 31
0.0
  0
LINE
  5
448
100
AcDbEntity
  8
0
  6
CONTINUOUS
 62
               4
100
AcDbLine
 10
19.600000000000051
 20
25.399999999999977
 30
0.0
 11
20.100000000000051
 21
25.400000000000006
 31
0.0
  0
LINE
  5
449
100
AcDbEntity
  8
0
  6
CONTINUOUS
 62
               4
100
AcDbLine
 10
18.500000000000028
 20
22.400000000000006
 30
0.0
 11
20.300000000000068
 21
22.400000000000006
 31
0.0
  0
LINE
  5
44A
100
AcDbEntity
  8
0
  6
CONTINUOUS
 62
               4
100
AcDbLine
 10
20.300000000000068
 20
15.400000000000006
 30
0.0
 11
20.300000000000068
 21
19.400000000000006
 31
0.0
  0
LINE
  5
44B
100
AcDbEntity
  8
0
  6
CONTINUOUS
 62
               4
100
AcDbLine
 10
19.400000000000091
 20
15.399999999999977
 30
0.0
 11
19.400000000000119
 21
18.879999999999967
 31
0.0
  0
LINE
  5
44C
100
AcDbEntity
  8
0
  6
CONTINUOUS
 62
               4
100
AcDbLine
 10
19.400000000000063
 20
20.379999999999967
 30
0.0
 11
19.400000000000119
 21
22.399999999999977
 31
0.0
  0
LINE
  5
44D
100
AcDbEntity
  8
0
  6
CONTINUOUS
 62
               4
100
AcDbLine
 10
20.30000000000004
 20
20.900000000000006
 30
0.0
 11
20.300000000000068
 21
22.400000000000006
 31
0.0
  0
LINE
  5
44E
100
AcDbEntity
  8
0
  6
CONTINUOUS
 62
               4
100
AcDbLine
 10
18.500000000000028
 20
15.400000000000006
 30
0.0
 11
18.500000000000028
 21
18.359999999999957
 31
0.0
  0
LINE
  5
44F
100
AcDbEntity
  8
0
  6
CONTINUOUS
 62
               4
100
AcDbLine
 10
18.500000000000057
 20
19.859999999999957
 30
0.0
 11
18.500000000000028
 21
22.400000000000006
 31
0.0
  0
LINE
  5
450
100
AcDbEntity
  8
0
  6
CONTINUOUS
 62
               4
100
AcDbLine
 10
18.699999999999989
 20
22.399999999999977
 30
0.0
 11
18.700000000000045
 21
25.399999999999977
 31
0.0
  0
LINE
  5
451
100
AcDbEntity
  8
0
  6
CONTINUOUS
 62
               4
100
AcDbLine
 10
19.200000000000045
 20
22.399999999999977
 30
0.0
 11
19.200000000000017
 21
25.399999999999977
 31
0.0
  0
LINE
  5
452
100
AcDbEntity
  8
0
  6
CONTINUOUS
 62
               4
100
AcDbLine
 10
19.600000000000051
 20
22.399999999999977
 30
0.0
 11
19.600000000000051
 21
25.399999999999977
 31
0.0
  0
LINE
  5
453
100
AcDbEntity
  8
0
  6
CONTINUOUS
 62
               4
100
AcDbLine
 10
20.100000000000051
 20
22.400000000000006
 30
0.0
 11
20.100000000000051
 21
25.400000000000006
 31
0.0
  0
LINE
  5
454
100
AcDbEntity
  8
0
  6
CONTINUOUS
 62
             200
100
AcDbLine
 10
17.240000000000038
 20
19.129999999999967
 30
0.0
 11
21.57000000000005
 21
21.629999999999995
 31
0.0
  0
LINE
  5
455
100
AcDbEntity
  8
0
  6
CENTER
 62
             200
100
AcDbLine
 10
19.400000000000091
 20
5.5799999999999841
 30
0.0
 11
19.400000000000091
 21
15.399999999999977
 31
0.0
  0
LINE
  5
456
100
AcDbEntity
  8
0
  6
CONTINUOUS
 62
             200
100
AcDbLine
 10
17.240000000000066
 20
17.629999999999967
 30
0.0
 11
21.570000000000022
 21
20.129999999999995
 31
0.0
  0
LINE
  5
457
100
AcDbEntity
  8
0
  6
CONTINUOUS
 62
             200
100
AcDbLine
 10
17.240000000000038
 20
10.150000000000006
 30
0.0
 11
21.570000000000022
 21
12.649999999999977
 31
0.0
  0
LINE
  5
458
100
AcDbEntity
  8
0
  6
CONTINUOUS
 62
             200
100
AcDbLine
 10
17.240000000000038
 20
8.6499999999999773
 30
0.0
 11
21.570000000000022
 21
11.149999999999977
 31
0.0
  0
LINE
  5
459
100
AcDbEntity
  8
0
  6
CONTINUOUS
 62
               4
100
AcDbLine
 10
0.9700000000000273
 20
-4.0
 30
0.0
 11
3.0200000000000387
 21
-4.0
 31
0.0
  0
LINE
  5
45A
100
AcDbEntity
  8
0
  6
CONTINUOUS
 62
               4
100
AcDbLine
 10
3.0200000000000387
 20
-4.0
 30
0.0
 11
3.2500000000000284
 21
-3.7700000000000102
 31
0.0
  0
LINE
  5
45B
100
AcDbEntity
  8
0
  6
CONTINUOUS
 62
               4
100
AcDbLine
 10
0.9700000000000273
 20
-4.0
 30
0.0
 11
0.7500000000000284
 21
-3.7700000000000102
 31
0.0
  0
LINE
  5
45C
100
AcDbEntity
  8
0
  6
CONTINUOUS
 62
               4
100
AcDbLine
 10
0.75
 20
-2.6000000000000227
 30
0.0
 11
0.7500000000000284
 21
-3.7700000000000102
 31
0.0
  0
LINE
  5
45D
100
AcDbEntity
  8
0
  6
CONTINUOUS
 62
             200
100
AcDbLine
 10
0.9700000000000557
 20
-2.6000000000000227
 30
0.0
 11
0.9700000000000273
 21
-4.0
 31
0.0
  0
LINE
  5
45E
100
AcDbEntity
  8
0
  6
CONTINUOUS
 62
             200
100
AcDbLine
 10
3.0200000000000102
 20
-2.6000000000000227
 30
0.0
 11
3.0200000000000387
 21
-4.0
 31
0.0
  0
LINE
  5
45F
100
AcDbEntity
  8
0
  6
CONTINUOUS
 62
               4
100
AcDbLine
 10
3.2500000000000284
 20
-2.6000000000000227
 30
0.0
 11
3.2500000000000284
 21
-3.7700000000000102
 31
0.0
  0
LINE
  5
460
100
AcDbEntity
  8
0
  6
CONTINUOUS
 62
               4
100
AcDbLine
 10
0.7500000000000284
 20
-3.7700000000000102
 30
0.0
 11
3.2500000000000284
 21
-3.7700000000000102
 31
0.0
  0
LINE
  5
461
100
AcDbEntity
  8
0
  6
CONTINUOUS
 62
               4
100
AcDbLine
 10
0.7500000000000284
 20
0.4999999999999716
 30
0.0
 11
0.7500000000000284
 21
0.0
 31
0.0
  0
LINE
  5
462
100
AcDbEntity
  8
0
  6
CONTINUOUS
 62
             200
100
AcDbLine
 10
0.9700000000000557
 20
0.5
 30
0.0
 11
0.9700000000000841
 21
-0.0000000000000284
 31
0.0
  0
LINE
  5
463
100
AcDbEntity
  8
0
  6
CONTINUOUS
 62
             200
100
AcDbLine
 10
3.0200000000000102
 20
0.5
 30
0.0
 11
3.0199999999999818
 21
-0.0000000000000284
 31
0.0
  0
LINE
  5
464
100
AcDbEntity
  8
0
  6
CONTINUOUS
 62
               4
100
AcDbLine
 10
3.25
 20
0.4999999999999716
 30
0.0
 11
3.2500000000000568
 21
0.0
 31
0.0
  0
LINE
  5
465
100
AcDbEntity
  8
0
  6
CONTINUOUS
 62
               4
100
AcDbLine
 10
0.7500000000000284
 20
0.4999999999999716
 30
0.0
 11
3.25
 21
0.4999999999999716
 31
0.0
  0
LINE
  5
466
100
AcDbEntity
  8
0
  6
CONTINUOUS
 62
               4
100
AcDbLine
 10
20.699999999999989
 20
6.9000000000000057
 30
0.0
 11
20.700000000000017
 21
10.650000000000006
 31
0.0
  0
LINE
  5
467
100
AcDbEntity
  8
0
  6
CONTINUOUS
 62
               4
100
AcDbLine
 10
18.100000000000023
 20
6.9000000000000057
 30
0.0
 11
18.100000000000051
 21
9.1499999999999773
 31
0.0
  0
LINE
  5
468
100
AcDbEntity
  8
0
  6
CONTINUOUS
 62
               4
100
AcDbLine
 10
18.100000000000023
 20
10.649999999999977
 30
0.0
 11
18.100000000000051
 21
15.399999999999977
 31
0.0
  0
LINE
  5
469
100
AcDbEntity
  8
0
  6
CONTINUOUS
 62
               4
100
AcDbLine
 10
20.700000000000017
 20
12.150000000000006
 30
0.0
 11
20.700000000000017
 21
15.399999999999977
 31
0.0
  0
ENDBLK
  5
46A
100
AcDbEntity
  8
0
100
AcDbBlockEnd
  0
BLOCK
  5
487
100
AcDbEntity
  8
0
  6
ByBlock
 62
               0
100
AcDbBlockBegin
  2
_OPEN30
 70
               2
 10
0.0
 20
0.0
 30
0.0
  3
_OPEN30
  1

  0
LINE
  5
488
100
AcDbEntity
  8
0
  6
ByBlock
 62
               0
100
AcDbLine
 10
-1.0
 20
0.267949
 30
0.0
 11
0.0
 21
0.0
 31
0.0
  0
LINE
  5
489
100
AcDbEntity
  8
0
  6
ByBlock
 62
               0
100
AcDbLine
 10
0.0
 20
0.0
 30
0.0
 11
-1.0
 21
-0.267949
 31
0.0
  0
LINE
  5
48A
100
AcDbEntity
  8
0
  6
ByBlock
 62
               0
100
AcDbLine
 10
0.0
 20
0.0
 30
0.0
 11
-1.0
 21
0.0
 31
0.0
  0
ENDBLK
  5
48B
100
AcDbEntity
  8
0
  6
ByBlock
 62
               0
100
AcDbBlockEnd
  0
ENDSEC
  0
SECTION
  2
ENTITIES
  0
INSERT
  5
46B
100
AcDbEntity
  8
0
  6
ByBlock
100
AcDbBlockReference
  2
ZS16SS-1
 10
-118.13872832369941
 20
101.78148059252027
 30
0.0
  0
INSERT
  5
46C
100
AcDbEntity
  8
0
  6
ByBlock
100
AcDbBlockReference
  2
ZS16SS-4
 10
-205.60761092624534
 20
101.78148059252027
 30
0.0
  0
INSERT
  5
46D
100
AcDbEntity
  8
0
  6
ByBlock
100
AcDbBlockReference
  2
ZS16SS-5
 10
148.18588270883248
 20
101.78148059251997
 30
0.0
  0
INSERT
  5
46E
100
AcDbEntity
  8
0
  6
ByBlock
100
AcDbBlockReference
  2
ZS16SS-6
 10
-118.13872832369935
 20
-9.9709946550044606
 30
0.0
  0
INSERT
  5
46F
100
AcDbEntity
  8
0
  6
ByBlock
100
AcDbBlockReference
  2
ZS16SS-7
 10
-118.13872832369935
 20
-89.772974853024252
 30
0.0
  0
INSERT
  5
470
100
AcDbEntity
  8
0
  6
ByBlock
100
AcDbBlockReference
  2
ZS16SS-8
 10
215.47807633471581
 20
-50.647329752673798
 30
0.0
  0
INSERT
  5
471
100
AcDbEntity
  8
0
  6
ByBlock
100
AcDbBlockReference
  2
ZS16SS-9
 10
170.93535172534081
 20
-50.647329752673798
 30
0.0
  0
INSERT
  5
472
100
AcDbEntity
  8
0
  6
ByBlock
100
AcDbBlockReference
  2
ZS16SS-10
 10
215.47807633471581
 20
-8.0973267009159855
 30
0.0
  0
INSERT
  5
473
100
AcDbEntity
  8
0
  6
ByBlock
100
AcDbBlockReference
  2
ZS16SS-11
 10
213.97815323963277
 20
-154.34198413473331
 30
0.0
  0
INSERT
  5
474
100
AcDbEntity
  8
0
  6
ByBlock
100
AcDbBlockReference
  2
ZS16SS-2
 10
170.93539811268667
 20
-154.34195361707401
 30
0.0
  0
INSERT
  5
475
100
AcDbEntity
  8
0
  6
ByBlock
100
AcDbBlockReference
  2
ZS16SS-3
 10
213.97812272206167
 20
-106.74196277250272
 30
0.0
  0
MTEXT
  5
476
100
AcDbEntity
  8
0
  6
CONTINUOUS
 62
               7
100
AcDbMText
 10
-268.27263163401642
 20
160.5
 30
0.0
 40
6.3000001907348633
 41
0.0
 71
               4
 72
               1
  1
\W1.074;\A1;MODEL:ZS16*80-SS2
  0
MTEXT
  5
477
100
AcDbEntity
  8
0
  6
CONTINUOUS
 62
               7
100
AcDbMText
 10
-245.29403745956643
 20
185.5
 30
0.0
 40
6.3000001907348633
 41
0.0
 71
               4
 72
               1
  1
\W1.101;\A1;Z SLIDER
  0
MTEXT
  5
478
100
AcDbEntity
  8
0
  6
CONTINUOUS
 62
               7
100
AcDbMText
 10
170.28101009431273
 20
-185.0
 30
0.0
 40
9.0
 41
0.0
 71
               4
 72
               1
  1
\W1.121;\A1;KOGANEI CORP.
  0
MTEXT
  5
479
100
AcDbEntity
  8
0
  6
CONTINUOUS
 62
               7
100
AcDbMText
 10
198.31570519064027
 20
185.5
 30
0.0
 40
6.3000001907348633
 41
0.0
 71
               4
 72
               1
  1
\W1.348;\A1;Ver. 1.1
  0
LINE
  5
47A
100
AcDbEntity
  8
0
  6
CONTINUOUS
 62
               7
100
AcDbLine
 10
-161.25
 20
195.5
 30
0.0
 11
-161.25
 21
175.5
 31
0.0
  0
LINE
  5
47B
100
AcDbEntity
  8
0
  6
CONTINUOUS
 62
               7
100
AcDbLine
 10
162.0999755859375
 20
195.5
 30
0.0
 11
162.0999755859375
 21
175.5
 31
0.0
  0
LINE
  5
47C
100
AcDbEntity
  8
0
  6
CONTINUOUS
 62
               7
100
AcDbLine
 10
-281.25
 20
175.5
 30
0.0
 11
-161.25
 21
175.5
 31
0.0
  0
LINE
  5
47D
100
AcDbEntity
  8
0
  6
CONTINUOUS
 62
               7
100
AcDbLine
 10
162.0999755859375
 20
175.5
 30
0.0
 11
282.099853515625
 21
175.5
 31
0.0
  0
LINE
  5
47E
100
AcDbEntity
  8
0
  6
CONTINUOUS
 62
               7
100
AcDbLine
 10
162.0999755859375
 20
-175.0
 30
0.0
 11
282.099853515625
 21
-175.0
 31
0.0
  0
LINE
  5
47F
100
AcDbEntity
  8
0
  6
CONTINUOUS
 62
               7
100
AcDbLine
 10
162.0999755859375
 20
-175.0
 30
0.0
 11
162.0999755859375
 21
-195.0
 31
0.0
  0
LINE
  5
480
100
AcDbEntity
  8
0
  6
CONTINUOUS
 62
               7
100
AcDbLine
 10
-281.25
 20
-195.0
 30
0.0
 11
282.099853515625
 21
-195.0
 31
0.0
  0
LINE
  5
481
100
AcDbEntity
  8
0
  6
CONTINUOUS
 62
               7
100
AcDbLine
 10
-281.25
 20
195.5
 30
0.0
 11
-281.25
 21
-195.0
 31
0.0
  0
LINE
  5
482
100
AcDbEntity
  8
0
  6
CONTINUOUS
 62
               7
100
AcDbLine
 10
-281.25
 20
195.5
 30
0.0
 11
282.099853515625
 21
195.5
 31
0.0
  0
LINE
  5
483
100
AcDbEntity
  8
0
  6
CONTINUOUS
 62
               7
100
AcDbLine
 10
282.099853515625
 20
195.5
 30
0.0
 11
282.099853515625
 21
-195.0
 31
0.0
  0
MTEXT
  5
484
100
AcDbEntity
  8
0
  6
CONTINUOUS
 62
               3
100
AcDbMText
 10
-14.839911764817671
 20
168.83699421965318
 30
0.0
 40
4.5
 41
0.0
 71
               4
 72
               1
  1
\W1.065;\A1;STRETCH LINE
  0
MTEXT
  5
485
100
AcDbEntity
  8
0
  6
CONTINUOUS
 62
               2
100
AcDbMText
 10
-90.252614781068161
 20
156.33872045311159
 30
0.0
 40
4.5
 41
0.0
 71
               4
 72
               1
  1
\W1.286;\A1;ST:70,80,90,100
  0
LEADER
  5
48C
100
AcDbEntity
  8
0
  6
CONTINUOUS
 62
               2
100
AcDbLeader
  3
MXDIMSTYLE
 73
               3
 74
               0
 75
               0
 40
0.0
 76
               3
 10
-0.2137283236993426
 20
113.64343521065682
 30
0.0
 10
-22.175575698295347
 20
151.68247069153017
 30
0.0
 10
-90.252614761272184
 20
151.68247069153017
 30
0.0
 77
               2
1001
ACAD
1000
DSTYLE
1002
{
1070
               6
1000
_OPEN30
1070
               7
1000
_OPEN30
1070
              41
1040
2.77
1070
             173
1070
               1
1070
             341
1005
486
1002
}
  0
MTEXT
  5
48D
100
AcDbEntity
  8
0
  6
CONTINUOUS
 62
               2
100
AcDbMText
 10
-87.343045841052827
 20
-40.166230041937908
 30
0.0
 40
4.5
 41
0.0
 71
               4
 72
               1
  1
\W1.286;\A1;ST:70,80,90,100
  0
LEADER
  5
48E
100
AcDbEntity
  8
0
  6
CONTINUOUS
 62
               2
100
AcDbLeader
  3
MXDIMSTYLE
 73
               3
 74
               0
 75
               0
 40
0.0
 76
               3
 10
-0.3887283236992971
 20
-77.607911343563174
 30
0.0
 10
-19.31740604884169
 20
-44.822479803519329
 30
0.0
 10
-87.343045821256851
 20
-44.822479803519329
 30
0.0
 77
               2
1001
ACAD
1000
DSTYLE
1002
{
1070
               6
1000
_OPEN30
1070
               7
1000
_OPEN30
1070
              41
1040
2.77
1070
             173
1070
               1
1070
             341
1005
486
1002
}
  0
MTEXT
  5
48F
100
AcDbEntity
  8
0
  6
CONTINUOUS
 62
               7
100
AcDbMText
 10
-13.190000194549556
 20
-168.46697330588674
 30
0.0
 40
4.5
 41
0.0
 71
               4
 72
               1
  1
\W1.200;\A1;(mm)
  0
MTEXT
  5
490
100
AcDbEntity
  8
0
  6
CONTINUOUS
 62
               7
100
AcDbMText
 10
-176.4511834411183
 20
-169.40536178445137
 30
0.0
 40
4.5
 41
0.0
 71
               4
 72
               1
  1
\W1.065;\A1;STRETCH LIST
  0
MTEXT
  5
491
100
AcDbEntity
  8
0
  6
CONTINUOUS
 62
               7
100
AcDbMText
 10
-14.431818172211736
 20
-186.00000002459743
 30
0.0
 40
4.5
 41
0.0
 71
               4
 72
               1
  1
\W1.091;\A1;20
  0
MTEXT
  5
492
100
AcDbEntity
  8
0
  6
CONTINUOUS
 62
               7
100
AcDbMText
 10
-41.250000033113693
 20
-186.00000002459743
 30
0.0
 40
4.5
 41
0.0
 71
               4
 72
               1
  1
\W1.333;\A1;10
  0
LINE
  5
493
100
AcDbEntity
  8
0
  6
CONTINUOUS
 62
               7
100
AcDbLine
 10
2.75
 20
-190.00000002459743
 30
0.0
 11
2.75
 21
-174.00000002459743
 31
0.0
  0
LINE
  5
494
100
AcDbEntity
  8
0
  6
CONTINUOUS
 62
               7
100
AcDbLine
 10
-24.25
 20
-190.00000002459743
 30
0.0
 11
-24.25
 21
-174.00000002459743
 31
0.0
  0
LINE
  5
495
100
AcDbEntity
  8
0
  6
CONTINUOUS
 62
               7
100
AcDbLine
 10
-276.25
 20
-190.00000002459743
 30
0.0
 11
2.75
 21
-190.00000002459743
 31
0.0
  0
LINE
  5
496
100
AcDbEntity
  8
0
  6
CONTINUOUS
 62
               7
100
AcDbLine
 10
-276.25
 20
-182.00000002459743
 30
0.0
 11
2.75
 21
-182.00000002459743
 31
0.0
  0
LINE
  5
497
100
AcDbEntity
  8
0
  6
CONTINUOUS
 62
               7
100
AcDbLine
 10
-276.25
 20
-174.00000002459743
 30
0.0
 11
2.75
 21
-174.00000002459743
 31
0.0
  0
LINE
  5
498
100
AcDbEntity
  8
0
  6
CONTINUOUS
 62
               7
100
AcDbLine
 10
-276.25
 20
-190.00000002459743
 30
0.0
 11
-276.25
 21
-174.0
 31
0.0
  0
LINE
  5
499
100
AcDbEntity
  8
0
  6
CONTINUOUS
 62
               7
100
AcDbLine
 10
-240.25
 20
-190.00000002459743
 30
0.0
 11
-240.25
 21
-174.0
 31
0.0
  0
LINE
  5
49A
100
AcDbEntity
  8
0
  6
CONTINUOUS
 62
               7
100
AcDbLine
 10
-213.25
 20
-190.00000002459743
 30
0.0
 11
-213.25
 21
-174.0
 31
0.0
  0
LINE
  5
49B
100
AcDbEntity
  8
0
  6
CONTINUOUS
 62
               7
100
AcDbLine
 10
-186.25
 20
-190.00000002459743
 30
0.0
 11
-186.25
 21
-174.0
 31
0.0
  0
LINE
  5
49C
100
AcDbEntity
  8
0
  6
CONTINUOUS
 62
               7
100
AcDbLine
 10
-159.25
 20
-190.00000002459743
 30
0.0
 11
-159.25
 21
-174.0
 31
0.0
  0
LINE
  5
49D
100
AcDbEntity
  8
0
  6
CONTINUOUS
 62
               7
100
AcDbLine
 10
-132.25
 20
-190.00000002459743
 30
0.0
 11
-132.25
 21
-174.0
 31
0.0
  0
LINE
  5
49E
100
AcDbEntity
  8
0
  6
CONTINUOUS
 62
               7
100
AcDbLine
 10
-105.25
 20
-190.00000002459743
 30
0.0
 11
-105.25
 21
-174.0
 31
0.0
  0
LINE
  5
49F
100
AcDbEntity
  8
0
  6
CONTINUOUS
 62
               7
100
AcDbLine
 10
-78.25
 20
-190.00000002459743
 30
0.0
 11
-78.25
 21
-174.0
 31
0.0
  0
LINE
  5
4A0
100
AcDbEntity
  8
0
  6
CONTINUOUS
 62
               7
100
AcDbLine
 10
-51.25
 20
-190.00000002459743
 30
0.0
 11
-51.25
 21
-174.00000002459743
 31
0.0
  0
MTEXT
  5
4A1
100
AcDbEntity
  8
0
  6
CONTINUOUS
 62
               7
100
AcDbMText
 10
-271.0
 20
-178.00000002459743
 30
0.0
 40
4.5
 41
0.0
 71
               4
 72
               1
  1
\A1;STROKE
  0
MTEXT
  5
4A2
100
AcDbEntity
  8
0
  6
CONTINUOUS
 62
               7
100
AcDbMText
 10
-230.43181817221173
 20
-178.00000002459743
 30
0.0
 40
4.5
 41
0.0
 71
               4
 72
               1
  1
\W1.091;\A1;20
  0
MTEXT
  5
4A3
100
AcDbEntity
  8
0
  6
CONTINUOUS
 62
               7
100
AcDbMText
 10
-203.43181817221173
 20
-178.00000002459743
 30
0.0
 40
4.5
 41
0.0
 71
               4
 72
               1
  1
\W1.091;\A1;30
  0
MTEXT
  5
4A4
100
AcDbEntity
  8
0
  6
CONTINUOUS
 62
               7
100
AcDbMText
 10
-273.25
 20
-186.00000002459743
 30
0.0
 40
4.5
 41
0.0
 71
               4
 72
               1
  1
\A1;STRETCH
  0
MTEXT
  5
4A5
100
AcDbEntity
  8
0
  6
CONTINUOUS
 62
               1
100
AcDbMText
 10
-176.43181817221173
 20
-178.0000000122987
 30
0.0
 40
4.5
 41
0.0
 71
               4
 72
               1
  1
\W1.091;\A1;40
  0
MTEXT
  5
4A6
100
AcDbEntity
  8
0
  6
CONTINUOUS
 62
               1
100
AcDbMText
 10
-149.43181817221173
 20
-178.00000002459743
 30
0.0
 40
4.5
 41
0.0
 71
               4
 72
               1
  1
\W1.091;\A1;50
  0
MTEXT
  5
4A7
100
AcDbEntity
  8
0
  6
CONTINUOUS
 62
               1
100
AcDbMText
 10
-97.528947558162741
 20
-177.99999998770124
 30
0.0
 40
4.5
 41
0.0
 71
               4
 72
               1
  1
\W1.263;\A1;(70)
  0
MTEXT
  5
4A8
100
AcDbEntity
  8
0
  6
CONTINUOUS
 62
               7
100
AcDbMText
 10
-66.099999992847444
 20
-186.00000002459743
 30
0.0
 40
4.5
 41
0.0
 71
               4
 72
               1
  1
\W1.200;\A1;0
  0
MTEXT
  5
4A9
100
AcDbEntity
  8
0
  6
CONTINUOUS
 62
               7
100
AcDbMText
 10
-271.0
 20
-178.00000002459743
 30
0.0
 40
4.5
 41
0.0
 71
               4
 72
               1
  1
\A1;STROKE
  0
MTEXT
  5
4AA
100
AcDbEntity
  8
0
  6
CONTINUOUS
 62
               7
100
AcDbMText
 10
-273.25
 20
-186.00000002459743
 30
0.0
 40
4.5
 41
0.0
 71
               4
 72
               1
  1
\A1;STRETCH
  0
MTEXT
  5
4AB
100
AcDbEntity
  8
0
  6
CONTINUOUS
 62
               1
100
AcDbMText
 10
-124.52894755816274
 20
-177.99999997540252
 30
0.0
 40
4.5
 41
0.0
 71
               4
 72
               1
  1
\W1.263;\A1;(60)
  0
MTEXT
  5
4AC
100
AcDbEntity
  8
0
  6
CONTINUOUS
 62
               1
100
AcDbMText
 10
-68.431818172211749
 20
-178.00000006149361
 30
0.0
 40
4.5
 41
0.0
 71
               4
 72
               1
  1
\W1.091;\A1;80
  0
MTEXT
  5
4AD
100
AcDbEntity
  8
0
  6
CONTINUOUS
 62
               1
100
AcDbMText
 10
-43.528947558162727
 20
-178.0000000122987
 30
0.0
 40
4.5
 41
0.0
 71
               4
 72
               1
  1
\W1.263;\A1;(90)
  0
MTEXT
  5
4AE
100
AcDbEntity
  8
0
  6
CONTINUOUS
 62
               1
100
AcDbMText
 10
-18.522727430167375
 20
-178.00000002459743
 30
0.0
 40
4.5
 41
0.0
 71
               4
 72
               1
  1
\W1.364;\A1;(100)
  0
MTEXT
  5
4AF
100
AcDbEntity
  8
0
  6
CONTINUOUS
 62
               7
100
AcDbMText
 10
-232.70588234180306
 20
-186.00000002459743
 30
0.0
 40
4.5
 41
0.0
 71
               4
 72
               1
  1
\W1.059;\A1;-60
  0
MTEXT
  5
4B0
100
AcDbEntity
  8
0
  6
CONTINUOUS
 62
               7
100
AcDbMText
 10
-205.70588234180306
 20
-186.00000002459743
 30
0.0
 40
4.5
 41
0.0
 71
               4
 72
               1
  1
\W1.059;\A1;-50
  0
MTEXT
  5
4B1
100
AcDbEntity
  8
0
  6
CONTINUOUS
 62
               7
100
AcDbMText
 10
-178.70588234180306
 20
-186.00000002459743
 30
0.0
 40
4.5
 41
0.0
 71
               4
 72
               1
  1
\W1.059;\A1;-40
  0
MTEXT
  5
4B2
100
AcDbEntity
  8
0
  6
CONTINUOUS
 62
               7
100
AcDbMText
 10
-151.70588234180306
 20
-186.00000002459743
 30
0.0
 40
4.5
 41
0.0
 71
               4
 72
               1
  1
\W1.059;\A1;-30
  0
MTEXT
  5
4B3
100
AcDbEntity
  8
0
  6
CONTINUOUS
 62
               7
100
AcDbMText
 10
-124.70588234180305
 20
-186.00000002459743
 30
0.0
 40
4.5
 41
0.0
 71
               4
 72
               1
  1
\W1.059;\A1;-20
  0
MTEXT
  5
4B4
100
AcDbEntity
  8
0
  6
CONTINUOUS
 62
               7
100
AcDbMText
 10
-97.600000035762775
 20
-186.00000002459743
 30
0.0
 40
4.5
 41
0.0
 71
               4
 72
               1
  1
\W1.200;\A1;-10
  0
LINE
  5
4B5
100
AcDbEntity
  8
0
  6
CONTINUOUS
 62
               7
100
AcDbLine
 10
122.099853515625
 20
-195.0
 30
0.0
 11
122.099853515625
 21
25.0
 31
0.0
  0
MTEXT
  5
4B6
100
AcDbEntity
  8
0
  6
CONTINUOUS
 62
               7
100
AcDbMText
 10
125.76578268761037
 20
20.0
 30
0.0
 40
4.5
 41
0.0
 71
               4
 72
               1
  1
\W1.221;\A1;MODEL:ZE135,155,102,101
  0
LINE
  5
4B7
100
AcDbEntity
  8
0
  6
CONTINUOUS
 62
               7
100
AcDbLine
 10
122.099853515625
 20
25.0
 30
0.0
 11
282.099853515625
 21
25.0
 31
0.0
  0
LINE
  5
4B8
100
AcDbEntity
  8
0
  6
CONTINUOUS
 62
               7
100
AcDbLine
 10
122.099853515625
 20
-75.0
 30
0.0
 11
282.099853515625
 21
-75.0
 31
0.0
  0
MTEXT
  5
4B9
100
AcDbEntity
  8
0
  6
CONTINUOUS
 62
               7
100
AcDbMText
 10
125.7052254392147
 20
-80.0
 30
0.0
 40
4.5
 41
0.0
 71
               4
 72
               1
  1
\W1.140;\A1;MODEL:ZE235,255,202,201
  0
ENDSEC
  0
SECTION
  2
OBJECTS
  0
DICTIONARY
  5
19
100
AcDbDictionary
  3
ACAD_GROUP
350
1A
  3
ACAD_MLINESTYLE
350
1B
  0
DICTIONARY
  5
1A
102
{ACAD_REACTORS
330
19
102
}
100
AcDbDictionary
  0
DICTIONARY
  5
1B
102
{ACAD_REACTORS
330
19
102
}
100
AcDbDictionary
  3
STANDARD
350
1C
  0
MLINESTYLE
  5
1C
102
{ACAD_REACTORS
330
1B
102
}
100
AcDbMlineStyle
  2
Standard
 70
               0
  3

 62
               0
 51
90.0
 52
90.0
 71
               2
 49
0.5
 62
             256
  6
ByLayer
 49
-0.5
 62
             256
  6
ByLayer
  0
ENDSEC
  0
EOF
