  0
SECTION
  2
HEADER
  9
$ACADVER
  1
AC1015
  9
$ACADMAINTVER
 70
    20
  9
$DWGCODEPAGE
  3
ANSI_932
  9
$INSBASE
 10
0.0
 20
0.0
 30
0.0
  9
$EXTMIN
 10
-194.25
 20
-133.5
 30
0.0
  9
$EXTMAX
 10
195.0953083914834
 20
132.6000061035156
 30
0.0
  9
$LIMMIN
 10
-210.0
 20
-148.5
  9
$LIMMAX
 10
210.0
 20
148.5
  9
$ORTHOMODE
 70
     0
  9
$REGENMODE
 70
     1
  9
$FILLMODE
 70
     1
  9
$QTEXTMODE
 70
     0
  9
$MIRRTEXT
 70
     1
  9
$LTSCALE
 40
1.0
  9
$ATTMODE
 70
     1
  9
$TEXTSIZE
 40
3.200000047683714
  9
$TRACEWID
 40
0.05
  9
$TEXTSTYLE
  7
MX_NOTE_STANDARD
  9
$CLAYER
  8
0
  9
$CELTYPE
  6
CONTINUOUS
  9
$CECOLOR
 62
   256
  9
$CELTSCALE
 40
1.0
  9
$DISPSILH
 70
     0
  9
$DIMSCALE
 40
1.0
  9
$DIMASZ
 40
2.5
  9
$DIMEXO
 40
1.5
  9
$DIMDLI
 40
3.75
  9
$DIMRND
 40
0.0
  9
$DIMDLE
 40
0.0
  9
$DIMEXE
 40
1.5
  9
$DIMTP
 40
0.0
  9
$DIMTM
 40
0.0
  9
$DIMTXT
 40
3.200000047683714
  9
$DIMCEN
 40
2.5
  9
$DIMTSZ
 40
0.0
  9
$DIMTOL
 70
     0
  9
$DIMLIM
 70
     0
  9
$DIMTIH
 70
     0
  9
$DIMTOH
 70
     0
  9
$DIMSE1
 70
     0
  9
$DIMSE2
 70
     0
  9
$DIMTAD
 70
     1
  9
$DIMZIN
 70
     8
  9
$DIMBLK
  1

  9
$DIMASO
 70
     1
  9
$DIMSHO
 70
     1
  9
$DIMPOST
  1

  9
$DIMAPOST
  1

  9
$DIMALT
 70
     0
  9
$DIMALTD
 70
     4
  9
$DIMALTF
 40
0.03937007874016
  9
$DIMLFAC
 40
1.0
  9
$DIMTOFL
 70
     1
  9
$DIMTVP
 40
0.0
  9
$DIMTIX
 70
     0
  9
$DIMSOXD
 70
     0
  9
$DIMSAH
 70
     1
  9
$DIMBLK1
  1
OPEN30
  9
$DIMBLK2
  1
OPEN30
  9
$DIMSTYLE
  2
MXDIMSTYLE
  9
$DIMCLRD
 70
     0
  9
$DIMCLRE
 70
     0
  9
$DIMCLRT
 70
     0
  9
$DIMTFAC
 40
1.0
  9
$DIMGAP
 40
1.0
  9
$DIMJUST
 70
     0
  9
$DIMSD1
 70
     0
  9
$DIMSD2
 70
     0
  9
$DIMTOLJ
 70
     0
  9
$DIMTZIN
 70
     0
  9
$DIMALTZ
 70
     0
  9
$DIMALTTZ
 70
     0
  9
$DIMUPT
 70
     1
  9
$DIMDEC
 70
     2
  9
$DIMTDEC
 70
     2
  9
$DIMALTU
 70
     2
  9
$DIMALTTD
 70
     4
  9
$DIMTXSTY
  7
MX_NOTE_STANDARD
  9
$DIMAUNIT
 70
     0
  9
$DIMADEC
 70
     0
  9
$DIMALTRND
 40
0.0
  9
$DIMAZIN
 70
     0
  9
$DIMDSEP
 70
    46
  9
$DIMATFIT
 70
     3
  9
$DIMFRAC
 70
     0
  9
$DIMLDRBLK
  1
OPEN30
  9
$DIMLUNIT
 70
     2
  9
$DIMLWD
 70
    -2
  9
$DIMLWE
 70
    -2
  9
$DIMTMOVE
 70
     0
  9
$LUNITS
 70
     2
  9
$LUPREC
 70
     4
  9
$SKETCHINC
 40
0.1
  9
$FILLETRAD
 40
0.0
  9
$AUNITS
 70
     0
  9
$AUPREC
 70
     0
  9
$MENU
  1
acad
  9
$ELEVATION
 40
0.0
  9
$PELEVATION
 40
0.0
  9
$THICKNESS
 40
0.0
  9
$LIMCHECK
 70
     0
  9
$CHAMFERA
 40
0.0
  9
$CHAMFERB
 40
0.0
  9
$CHAMFERC
 40
0.0
  9
$CHAMFERD
 40
0.0
  9
$SKPOLY
 70
     0
  9
$TDCREATE
 40
2453984.744699074
  9
$TDUCREATE
 40
2453984.369699074
  9
$TDUPDATE
 40
2454495.674852558
  9
$TDUUPDATE
 40
2454495.299852558
  9
$TDINDWG
 40
0.0075842940
  9
$TDUSRTIMER
 40
0.0075799653
  9
$USRTIMER
 70
     1
  9
$ANGBASE
 50
0.0
  9
$ANGDIR
 70
     0
  9
$PDMODE
 70
     0
  9
$PDSIZE
 40
0.0
  9
$PLINEWID
 40
0.0
  9
$SPLFRAME
 70
     0
  9
$SPLINETYPE
 70
     6
  9
$SPLINESEGS
 70
     8
  9
$HANDSEED
  5
338
  9
$SURFTAB1
 70
     6
  9
$SURFTAB2
 70
     6
  9
$SURFTYPE
 70
     6
  9
$SURFU
 70
     6
  9
$SURFV
 70
     6
  9
$UCSBASE
  2

  9
$UCSNAME
  2

  9
$UCSORG
 10
0.0
 20
0.0
 30
0.0
  9
$UCSXDIR
 10
1.0
 20
0.0
 30
0.0
  9
$UCSYDIR
 10
0.0
 20
1.0
 30
0.0
  9
$UCSORTHOREF
  2

  9
$UCSORTHOVIEW
 70
     0
  9
$UCSORGTOP
 10
0.0
 20
0.0
 30
0.0
  9
$UCSORGBOTTOM
 10
0.0
 20
0.0
 30
0.0
  9
$UCSORGLEFT
 10
0.0
 20
0.0
 30
0.0
  9
$UCSORGRIGHT
 10
0.0
 20
0.0
 30
0.0
  9
$UCSORGFRONT
 10
0.0
 20
0.0
 30
0.0
  9
$UCSORGBACK
 10
0.0
 20
0.0
 30
0.0
  9
$PUCSBASE
  2

  9
$PUCSNAME
  2

  9
$PUCSORG
 10
0.0
 20
0.0
 30
0.0
  9
$PUCSXDIR
 10
1.0
 20
0.0
 30
0.0
  9
$PUCSYDIR
 10
0.0
 20
1.0
 30
0.0
  9
$PUCSORTHOREF
  2

  9
$PUCSORTHOVIEW
 70
     0
  9
$PUCSORGTOP
 10
0.0
 20
0.0
 30
0.0
  9
$PUCSORGBOTTOM
 10
0.0
 20
0.0
 30
0.0
  9
$PUCSORGLEFT
 10
0.0
 20
0.0
 30
0.0
  9
$PUCSORGRIGHT
 10
0.0
 20
0.0
 30
0.0
  9
$PUCSORGFRONT
 10
0.0
 20
0.0
 30
0.0
  9
$PUCSORGBACK
 10
0.0
 20
0.0
 30
0.0
  9
$USERI1
 70
     0
  9
$USERI2
 70
     0
  9
$USERI3
 70
     0
  9
$USERI4
 70
     0
  9
$USERI5
 70
     0
  9
$USERR1
 40
0.0
  9
$USERR2
 40
0.0
  9
$USERR3
 40
0.0
  9
$USERR4
 40
0.0
  9
$USERR5
 40
0.0
  9
$WORLDVIEW
 70
     1
  9
$SHADEDGE
 70
     3
  9
$SHADEDIF
 70
    70
  9
$TILEMODE
 70
     1
  9
$MAXACTVP
 70
    16
  9
$PINSBASE
 10
0.0
 20
0.0
 30
0.0
  9
$PLIMCHECK
 70
     0
  9
$PEXTMIN
 10
1.000000000000000E+20
 20
1.000000000000000E+20
 30
1.000000000000000E+20
  9
$PEXTMAX
 10
-1.000000000000000E+20
 20
-1.000000000000000E+20
 30
-1.000000000000000E+20
  9
$PLIMMIN
 10
0.0
 20
0.0
  9
$PLIMMAX
 10
12.0
 20
9.0
  9
$UNITMODE
 70
     0
  9
$VISRETAIN
 70
     0
  9
$PLINEGEN
 70
     1
  9
$PSLTSCALE
 70
     0
  9
$TREEDEPTH
 70
  3020
  9
$CMLSTYLE
  2
STANDARD
  9
$CMLJUST
 70
     0
  9
$CMLSCALE
 40
1.0
  9
$PROXYGRAPHICS
 70
     1
  9
$MEASUREMENT
 70
     0
  9
$CELWEIGHT
370
    -1
  9
$ENDCAPS
280
     0
  9
$JOINSTYLE
280
     0
  9
$LWDISPLAY
290
     0
  9
$INSUNITS
 70
     0
  9
$HYPERLINKBASE
  1

  9
$STYLESHEET
  1

  9
$XEDIT
290
     1
  9
$CEPSNTYPE
380
     0
  9
$PSTYLEMODE
290
     1
  9
$FINGERPRINTGUID
  2
{BC49FA38-96FD-4A2E-A1F9-32E703704CB9}
  9
$VERSIONGUID
  2
{2D989DB9-34CD-4904-B0DA-64D23298CC09}
  9
$EXTNAMES
290
     1
  9
$PSVPSCALE
 40
0.0
  9
$OLESTARTUP
290
     0
  0
ENDSEC
  0
SECTION
  2
CLASSES
  0
CLASS
  1
IMAGE
  2
AcDbRasterImage
  3
ISM
 90
    32895
280
     0
281
     1
  0
CLASS
  1
DICTIONARYVAR
  2
AcDbDictionaryVar
  3
ObjectDBX Classes
 90
        0
280
     0
281
     0
  0
CLASS
  1
RASTERVARIABLES
  2
AcDbRasterVariables
  3
ISM
 90
    32768
280
     0
281
     0
  0
CLASS
  1
IMAGEDEF
  2
AcDbRasterImageDef
  3
ISM
 90
    32768
280
     0
281
     0
  0
CLASS
  1
IMAGEDEF_REACTOR
  2
AcDbRasterImageDefReactor
  3
ISM
 90
    32769
280
     0
281
     0
  0
CLASS
  1
IDBUFFER
  2
AcDbIdBuffer
  3
ObjectDBX Classes
 90
    32768
280
     0
281
     0
  0
CLASS
  1
SPATIAL_FILTER
  2
AcDbSpatialFilter
  3
ObjectDBX Classes
 90
    32768
280
     0
281
     0
  0
CLASS
  1
SORTENTSTABLE
  2
AcDbSortentsTable
  3
ObjectDBX Classes
 90
        0
280
     0
281
     0
  0
CLASS
  1
LAYER_INDEX
  2
AcDbLayerIndex
  3
ObjectDBX Classes
 90
    32768
280
     0
281
     0
  0
CLASS
  1
SPATIAL_INDEX
  2
AcDbSpatialIndex
  3
ObjectDBX Classes
 90
    32768
280
     0
281
     0
  0
CLASS
  1
OBJECT_PTR
  2
CAseDLPNTableRecord
  3
"ASE-LPNTableRecord"
 90
    32769
280
     0
281
     0
  0
CLASS
  1
LAYOUT
  2
AcDbLayout
  3
ObjectDBX Classes
 90
        0
280
     0
281
     0
  0
CLASS
  1
PLOTSETTINGS
  2
AcDbPlotSettings
  3
ObjectDBX Classes
 90
    32768
280
     0
281
     0
  0
CLASS
  1
ACDBDICTIONARYWDFLT
  2
AcDbDictionaryWithDefault
  3
ObjectDBX Classes
 90
        0
280
     0
281
     0
  0
CLASS
  1
ACDBPLACEHOLDER
  2
AcDbPlaceHolder
  3
ObjectDBX Classes
 90
        0
280
     0
281
     0
  0
CLASS
  1
TABLESTYLE
  2
AcDbTableStyle
  3
ObjectDBX Classes
 90
     2047
280
     0
281
     0
  0
ENDSEC
  0
SECTION
  2
TABLES
  0
TABLE
  2
VPORT
  5
7
330
0
100
AcDbSymbolTable
 70
     2
  0
VPORT
  5
331
330
7
100
AcDbSymbolTableRecord
100
AcDbViewportTableRecord
  2
*Active
 70
     0
 10
0.0
 20
0.0
 11
1.0
 21
1.0
 12
40.18457497948872
 22
-54.22294279255165
 13
0.0
 23
0.0
 14
1.0
 24
1.0
 15
0.0
 25
0.0
 16
0.0
 26
0.0
 36
1.0
 17
0.0
 27
0.0
 37
0.0
 40
189.6736648358244
 41
1.540229885057471
 42
50.0
 43
0.0
 44
0.0
 50
0.0
 51
0.0
 71
     0
 72
   100
 73
     1
 74
     1
 75
     0
 76
     0
 77
     0
 78
     0
281
     0
 65
     1
110
0.0
120
0.0
130
0.0
111
1.0
121
0.0
131
0.0
112
0.0
122
1.0
132
0.0
 79
     0
146
0.0
  0
ENDTAB
  0
TABLE
  2
LTYPE
  5
4
330
0
100
AcDbSymbolTable
 70
     2
  0
LTYPE
  5
11
330
4
100
AcDbSymbolTableRecord
100
AcDbLinetypeTableRecord
  2
BYBLOCK
 70
     0
  3

 72
    65
 73
     0
 40
0.0
  0
LTYPE
  5
12
330
4
100
AcDbSymbolTableRecord
100
AcDbLinetypeTableRecord
  2
BYLAYER
 70
     0
  3

 72
    65
 73
     0
 40
0.0
  0
LTYPE
  5
13
330
4
100
AcDbSymbolTableRecord
100
AcDbLinetypeTableRecord
  2
CONTINUOUS
 70
     0
  3
Solid line
 72
    65
 73
     0
 40
0.0
  0
LTYPE
  5
BD
330
4
100
AcDbSymbolTableRecord
100
AcDbLinetypeTableRecord
  2
DASHED
 70
     0
  3
Dashed __ __ __ __ __ __ __ __ __ __ __ __ __ _
 72
    65
 73
     2
 40
19.05
 49
12.7
 74
     0
 49
-6.349999999999998
 74
     0
  0
ENDTAB
  0
TABLE
  2
LAYER
  5
2
330
0
100
AcDbSymbolTable
 70
     2
  0
LAYER
  5
14
330
2
100
AcDbSymbolTableRecord
100
AcDbLayerTableRecord
  2
0
 70
     0
 62
     7
  6
CONTINUOUS
370
    -3
390
16C
  0
LAYER
  5
1D
330
2
100
AcDbSymbolTableRecord
100
AcDbLayerTableRecord
  2
DEFPOINTS
 70
     0
 62
     7
  6
CONTINUOUS
290
     0
370
    -3
390
16C
  0
ENDTAB
  0
TABLE
  2
STYLE
  5
3
330
0
100
AcDbSymbolTable
 70
     2
  0
STYLE
  5
17
330
3
100
AcDbSymbolTableRecord
100
AcDbTextStyleTableRecord
  2
MX_NOTE_STANDARD
 70
     0
 40
0.0
 41
1.0
 50
0.0
 71
     0
 42
3.200000047683714
  3
txt.shx
  4
extfont.shx
  0
STYLE
  5
16A
330
3
100
AcDbSymbolTableRecord
100
AcDbTextStyleTableRecord
  2
Standard
 70
     0
 40
0.0
 41
1.0
 50
0.0
 71
     0
 42
0.2
  3

  4

  0
ENDTAB
  0
TABLE
  2
VIEW
  5
5
330
0
100
AcDbSymbolTable
 70
     0
  0
ENDTAB
  0
TABLE
  2
UCS
  5
6
330
0
100
AcDbSymbolTable
 70
     0
  0
ENDTAB
  0
TABLE
  2
APPID
  5
8
330
0
100
AcDbSymbolTable
 70
     1
  0
APPID
  5
16
330
8
100
AcDbSymbolTableRecord
100
AcDbRegAppTableRecord
  2
ACAD
 70
     0
  0
ENDTAB
  0
TABLE
  2
DIMSTYLE
  5
9
330
0
100
AcDbSymbolTable
 70
     1
100
AcDbDimStyleTable
 71
     0
  0
DIMSTYLE
105
18
330
9
100
AcDbSymbolTableRecord
100
AcDbDimStyleTableRecord
  2
MXDIMSTYLE
 70
     0
 41
2.5
 42
1.5
 43
3.75
 44
1.5
 73
     0
 74
     0
 77
     1
 78
     8
140
3.200000047683714
141
2.5
143
0.03937007874016
147
1.0
171
     4
172
     1
173
     1
271
     2
272
     2
274
     4
283
     0
288
     1
340
17
341
21
343
21
344
21
  0
ENDTAB
  0
TABLE
  2
BLOCK_RECORD
  5
1
330
0
100
AcDbSymbolTable
 70
     6
  0
BLOCK_RECORD
  5
A
102
{ACAD_XDICTIONARY
360
1CA
102
}
330
1
100
AcDbSymbolTableRecord
100
AcDbBlockTableRecord
  2
*MODEL_SPACE
340
173
  0
BLOCK_RECORD
  5
B
330
1
100
AcDbSymbolTableRecord
100
AcDbBlockTableRecord
  2
*PAPER_SPACE
340
174
  0
BLOCK_RECORD
  5
1F
330
1
100
AcDbSymbolTableRecord
100
AcDbBlockTableRecord
  2
MS_2
340
0
102
{BLKREFS
331
155
102
}
  0
BLOCK_RECORD
  5
21
330
1
100
AcDbSymbolTableRecord
100
AcDbBlockTableRecord
  2
_OPEN30
340
0
  0
BLOCK_RECORD
  5
279
330
1
100
AcDbSymbolTableRecord
100
AcDbBlockTableRecord
  2
MS_1
340
0
310
2800000020000000200000000100080000000000000400000000000000000000000000000000000000000000000080000080000000808000800000008000800080800000C0C0C000C0DCC000F0CAA6000020400000206000002080000020A0000020C0000020E00000400000004020000040400000406000004080000040A0
310
000040C0000040E00000600000006020000060400000606000006080000060A0000060C0000060E00000800000008020000080400000806000008080000080A0000080C0000080E00000A0000000A0200000A0400000A0600000A0800000A0A00000A0C00000A0E00000C0000000C0200000C0400000C0600000C0800000C0
310
A00000C0C00000C0E00000E0000000E0200000E0400000E0600000E0800000E0A00000E0C00000E0E00040000000400020004000400040006000400080004000A0004000C0004000E00040200000402020004020400040206000402080004020A0004020C0004020E000404000004040200040404000404060004040800040
310
40A0004040C0004040E00040600000406020004060400040606000406080004060A0004060C0004060E00040800000408020004080400040806000408080004080A0004080C0004080E00040A0000040A0200040A0400040A0600040A0800040A0A00040A0C00040A0E00040C0000040C0200040C0400040C0600040C08000
310
40C0A00040C0C00040C0E00040E0000040E0200040E0400040E0600040E0800040E0A00040E0C00040E0E00080000000800020008000400080006000800080008000A0008000C0008000E00080200000802020008020400080206000802080008020A0008020C0008020E00080400000804020008040400080406000804080
310
008040A0008040C0008040E00080600000806020008060400080606000806080008060A0008060C0008060E00080800000808020008080400080806000808080008080A0008080C0008080E00080A0000080A0200080A0400080A0600080A0800080A0A00080A0C00080A0E00080C0000080C0200080C0400080C0600080C0
310
800080C0A00080C0C00080C0E00080E0000080E0200080E0400080E0600080E0800080E0A00080E0C00080E0E000C0000000C0002000C0004000C0006000C0008000C000A000C000C000C000E000C0200000C0202000C0204000C0206000C0208000C020A000C020C000C020E000C0400000C0402000C0404000C0406000C0
310
408000C040A000C040C000C040E000C0600000C0602000C0604000C0606000C0608000C060A000C060C000C060E000C0800000C0802000C0804000C0806000C0808000C080A000C080C000C080E000C0A00000C0A02000C0A04000C0A06000C0A08000C0A0A000C0A0C000C0A0E000C0C00000C0C02000C0C04000C0C06000
310
C0C08000C0C0A000F0FBFF00A4A0A000808080000000FF0000FF000000FFFF00FF000000FF00FF00FFFF0000FFFFFF00FFFFFFFFFFFFFFFFFFFFFFFFFFFFFFFFFFFFFFFFFFFFFFFFFFFFFFFFFFFFFFFFFFFFFFFFFFFFFFFFFFFFFFFFFFFFFFFFFFFFFFFFFFFFFFFFFFFFFFFFFFFFFFFFFFFFFFFFFFFFFFFFFFFFFFFFFFFFFF
310
FFFFFFFFFFFFFFFFFFFFFFFFFFFFFFFFFFFFFFFFFFFFFFFFFFFFFFFFFFFFFFFFFFFFFFFFFFFFFFFFFFFFFFFFFFFFFFFFFFFFFFFFFFFFFFFFFFFFFFFFFFFFFFFFFFFFFFFFFFFFFFFFFFFFFFFFFFFFFFFFFFFFFFFFFFFFFFFFFFFFFFFFFFFFFFFFFFFFFFFFFFFFFFFFFFFFFFFFFFFFFFFFFFFFFFFFFFFFFFFFFFFFFFFFFFFFFF
310
FFFFFFFFFFFFFFFFFFFFFFFFFFFFFFFFFFFFFFFFFFFFFFFFFFFFFFFFFFFFFFFFFFFFFFFFFBFFFFFFFFFFFFFFFFFFFFFFFFFFFFFFFFFFFFFFFFFF0000000000000000FFFFFBFFFFFF0000000000000000FFFFFFFFFFFFFFFFFFFF000000FFFB000000FFFFFBFFFFFF000000FFFF000000FFFFFFFFFFFFFFFFFF000000000000
310
0000000000FB0000000000000000000000FFFFFFFFFFFFFFFFFF0000FFFFFFFFFFFFFFFFFFFBFFFFFFFFFFFFFFFFFF0000FFFFFFFFFFFFFFFFFF0000FFFFFFFFFFFFFFFFFFFBFFFFFFFFFFFFFFFFFF0000FFFFFFFFFFFFFFFFFF0000000000000000000000FB0000000000000000000000FFFFFFFFFFFFFFFFFF00FFFF00FF
310
FFFFFFFFFFFFFBFFFFFFFFFFFFFFFF00FF00FFFFFFFFFFFFFFFFFF00FFFF00FFFFFFFFFFFFFFFBFFFFFFFFFFFFFFFF00FF0000FFFFFFFFFFFFFFFF00FFFF00FFFFFFFFFFFFFFFBFFFFFFFFFFFFFFFF00FF0000FFFFFFFFFFFFFFFF00FFFF00FFFFFFFFFFFFFFFBFFFFFFFFFFFFFFFF00FF00FFFFFFFFFFFFFFFFFF00FFFF00
310
FFFFFFFFFFFFFFFBFFFFFFFFFFFFFFFF00FF00FFFFFFFFFFFFFFFF0000FFFF00FFFFFFFFFFFFFFFBFFFFFFFFFFFFFFFF00FF00FFFFFF00000000000000FFFB00FFFFFFFFFFFFFFFBFFFFFFFFFFFFFFFF00FB00FFFFFF00000000000000000000FFFFFFFFFFFFFFFBFFFFFFFFFFFFFFFF000000FFFFFFFFFFFFFFFF000000FB
310
FFFFFFFFFFFFFFFFFBFFFFFFFFFFFFFFFFFF0000FFFFFFFFFFFFFFFFFF0000000000000000000000FB0000000000000000000000FFFFFFFFFFFFFFFFFFFFFFFBFFFFFFFFFFFFFFFFFBFFFFFFFFFFFFFFFFFFFBFFFFFFFFFFFFFFFFFFFFFFFFFFFFFFFFFFFFFFFFFFFFFFFFFFFFFFFFFFFFFFFFFFFFFFFFFFFFFFFFFFFFFFFF
310
FFFFFFFFFFFFFFFFFFFFFFFFFFFFFFFFFFFFFFFFFFFFFFFFFFFFFFFFFFFFFFFFFFFFFFFFFFFFFFFFFFFFFFFFFFFFFFFFFFFFFFFFFFFFFFFFFFFFFFFFFFFFFFFFFFFFFFFFFFFFFFFFFFFFFFFFFFFFFFFFFFFFFFFFFFFFFFFFFFFFFFFFFFFFFFFFFFFFFFFFFFFFFFFFFFFFFFFFFFFFFFFFFFFFFFFFFFFFFFFFFFFFFFFFFFFFFF
310
FFFFFFFFFFFFFFFFFFFFFFFFFFFFFFFFFFFFFFFFFFFFFFFFFFFFFFFFFFFFFFFFFFFFFFFFFFFFFFFFFFFFFFFFFFFFFFFFFFFFFFFFFFFFFFFF
102
{BLKREFS
331
2B7
102
}
  0
BLOCK_RECORD
  5
2B8
330
1
100
AcDbSymbolTableRecord
100
AcDbBlockTableRecord
  2
MS_3
340
0
310
2800000020000000200000000100080000000000000400000000000000000000000000000000000000000000000080000080000000808000800000008000800080800000C0C0C000C0DCC000F0CAA6000020400000206000002080000020A0000020C0000020E00000400000004020000040400000406000004080000040A0
310
000040C0000040E00000600000006020000060400000606000006080000060A0000060C0000060E00000800000008020000080400000806000008080000080A0000080C0000080E00000A0000000A0200000A0400000A0600000A0800000A0A00000A0C00000A0E00000C0000000C0200000C0400000C0600000C0800000C0
310
A00000C0C00000C0E00000E0000000E0200000E0400000E0600000E0800000E0A00000E0C00000E0E00040000000400020004000400040006000400080004000A0004000C0004000E00040200000402020004020400040206000402080004020A0004020C0004020E000404000004040200040404000404060004040800040
310
40A0004040C0004040E00040600000406020004060400040606000406080004060A0004060C0004060E00040800000408020004080400040806000408080004080A0004080C0004080E00040A0000040A0200040A0400040A0600040A0800040A0A00040A0C00040A0E00040C0000040C0200040C0400040C0600040C08000
310
40C0A00040C0C00040C0E00040E0000040E0200040E0400040E0600040E0800040E0A00040E0C00040E0E00080000000800020008000400080006000800080008000A0008000C0008000E00080200000802020008020400080206000802080008020A0008020C0008020E00080400000804020008040400080406000804080
310
008040A0008040C0008040E00080600000806020008060400080606000806080008060A0008060C0008060E00080800000808020008080400080806000808080008080A0008080C0008080E00080A0000080A0200080A0400080A0600080A0800080A0A00080A0C00080A0E00080C0000080C0200080C0400080C0600080C0
310
800080C0A00080C0C00080C0E00080E0000080E0200080E0400080E0600080E0800080E0A00080E0C00080E0E000C0000000C0002000C0004000C0006000C0008000C000A000C000C000C000E000C0200000C0202000C0204000C0206000C0208000C020A000C020C000C020E000C0400000C0402000C0404000C0406000C0
310
408000C040A000C040C000C040E000C0600000C0602000C0604000C0606000C0608000C060A000C060C000C060E000C0800000C0802000C0804000C0806000C0808000C080A000C080C000C080E000C0A00000C0A02000C0A04000C0A06000C0A08000C0A0A000C0A0C000C0A0E000C0C00000C0C02000C0C04000C0C06000
310
C0C08000C0C0A000F0FBFF00A4A0A000808080000000FF0000FF000000FFFF00FF000000FF00FF00FFFF0000FFFFFF00FFFFFFFFFFFFFFFFFFFFFFFFFFFFFFFFFFFFFFFFFFFFFFFFFFFFFFFFFFFFFFFFFFFFFFFFFFFFFFFFFFFFFFFFFFFFFFFFFFFFFFFFFFFFFFFFFFFFFFFFFFFFFFFFFFFFFFFFFFFFFFFFFFFFFFFFFFFFFF
310
FFFFFFFFFFFFFFFFFFFFFFFFFFFFFFFFFFFFFFFFFFFFFFFFFFFFFFFFFFFFFFFFFFFFFFFFFFFFFFFFFFFFFFFFFFFFFFFFFFFFFFFFFFFFFFFFFFFFFFFFFFFFFFFFFFFFFFFFFFFFFFFFFFFFFFFFFFFFFFFFFFFFFFFFFFFFFFFFFFFFFFFFFFFFFFFFFFFFFFFFFFFFFFFFFFFFFFFFFFFFFFFFFFFFFFFFFFFFFFFFFFFFFFFFFFFFFF
310
FFFFFFFFFFFFFFFFFFFFFFFFFFFFFFFFFFFFFFFFFFFFFFFFFFFFFFFFFFFFFFFFFFFFFFFFFFFFFFFFFFFFFFFFFFFFFFFFFFFFFFFFFFFFFFFFFFFFFFFFFFFFFFFFFFFFFFFFFFFFFFFFFFFFFFFFFFFFFFFFFFFFFFFFFFFFFFFFFFFFFFFFFFFFFFFFFFFFFFFFFFFFFFFFFFFFFFFFFFFFFFFFFFFFFFFFFFFFFFFFFFFFFFFFFFFFFF
310
FFFFFFFFFFFFFFFBFFFFFFFFFFFFFFFFFFFFFFFFFFFFFFFFFFFFFFFFFFFF000000000000000000FB0000000000000000FFFFFFFFFFFFFFFFFFFFFFFFFF00FBFBFFFFFFFFFFFFFBFBFFFFFFFFFFFFFBFB00FFFFFFFFFFFFFFFFFFFFFFFF00000000000000000000FB000000000000000000FFFFFFFFFFFFFFFFFFFFFF000000
310
0000000000000000FB000000000000000000FFFFFFFBFBFBFBFBFBFBFBFBFBFBFBFBFBFBFBFBFBFBFBFBFBFBFBFBFBFBFBFBFBFFFFFFFFFFFF00000000000000FFFBFFFF000000FFFB000000FFFFFBFF0000FFFFFFFFFFFFFFFFFFFFFF0000000000000000000000FB000000000000000000FFFFFFFFFFFFFFFFFFFFFFFF00
310
000000000000000000FB000000000000000000FFFFFFFFFFFFFFFFFFFFFFFF00FBFBFFFFFFFFFFFFFBFBFFFFFFFFFFFFFBFB00FFFFFFFFFFFFFFFFFFFFFFFFFF000000000000000000FB0000000000000000FFFFFFFFFFFFFFFFFFFFFFFFFFFFFFFFFFFFFFFFFFFFFFFBFFFFFFFFFFFFFFFFFFFFFFFFFFFFFFFFFFFFFFFFFF
310
FFFFFFFFFFFFFFFFFFFFFFFFFFFFFFFFFFFFFFFFFFFFFFFFFFFFFFFFFFFFFFFFFFFFFFFFFFFFFFFFFFFFFFFFFFFFFFFFFFFFFFFFFFFFFFFFFFFFFFFFFFFFFFFFFFFFFFFFFFFFFFFFFFFFFFFFFFFFFFFFFFFFFFFFFFFFFFFFFFFFFFFFFFFFFFFFFFFFFFFFFFFFFFFFFFFFFFFFFFFFFFFFFFFFFFFFFFFFFFFFFFFFFFFFFFFFFF
310
FFFFFFFFFFFFFFFFFFFFFFFFFFFFFFFFFFFFFFFFFFFFFFFFFFFFFFFFFFFFFFFFFFFFFFFFFFFFFFFFFFFFFFFFFFFFFFFFFFFFFFFFFFFFFFFFFFFFFFFFFFFFFFFFFFFFFFFFFFFFFFFFFFFFFFFFFFFFFFFFFFFFFFFFFFFFFFFFFFFFFFFFFFFFFFFFFFFFFFFFFFFFFFFFFFFFFFFFFFFFFFFFFFFFFFFFFFFFFFFFFFFFFFFFFFFFFF
310
FFFFFFFFFFFFFFFFFFFFFFFFFFFFFFFFFFFFFFFFFFFFFFFFFFFFFFFFFFFFFFFFFFFFFFFFFFFFFFFFFFFFFFFFFFFFFFFFFFFFFFFFFFFFFFFF
102
{BLKREFS
331
330
102
}
  0
ENDTAB
  0
ENDSEC
  0
SECTION
  2
BLOCKS
  0
BLOCK
  5
D
330
A
100
AcDbEntity
  8
0
100
AcDbBlockBegin
  2
*MODEL_SPACE
 70
     0
 10
0.0
 20
0.0
 30
0.0
  3
*MODEL_SPACE
  1

  0
ENDBLK
  5
E
330
A
100
AcDbEntity
  8
0
100
AcDbBlockEnd
  0
BLOCK
  5
F
330
B
100
AcDbEntity
 67
     1
  8
0
100
AcDbBlockBegin
  2
*PAPER_SPACE
 70
     0
 10
0.0
 20
0.0
 30
0.0
  3
*PAPER_SPACE
  1

  0
ENDBLK
  5
10
330
B
100
AcDbEntity
 67
     1
  8
0
100
AcDbBlockEnd
  0
BLOCK
  5
7B
330
1F
100
AcDbEntity
  8
0
100
AcDbBlockBegin
  2
MS_2
 70
     0
 10
0.0
 20
0.0
 30
0.0
  3
MS_2
  1

  0
LINE
  5
7C
330
1F
100
AcDbEntity
  8
0
  6
Continuous
 62
     2
100
AcDbLine
 10
-0.0000033781498416
 20
-9.593585182958721
 30
0.0
 11
0.0000010563776982
 21
3.000000000000013
 31
0.0
  0
LINE
  5
7D
330
1F
100
AcDbEntity
  8
0
  6
Continuous
 62
     2
100
AcDbLine
 10
-24.00000337814685
 20
-9.593576731937075
 30
0.0
 11
-23.9999989436223
 21
3.000000000000013
 31
0.0
  0
LINE
  5
7E
330
1F
100
AcDbEntity
  8
0
  6
Continuous
 62
     7
100
AcDbLine
 10
-7.199998943622288
 20
-38.69999999999997
 30
0.0
 11
-2.500001995380102
 21
-38.69999999999997
 31
0.0
  0
LINE
  5
7F
330
1F
100
AcDbEntity
  8
0
  6
Continuous
 62
     7
100
AcDbLine
 10
-21.50000199538011
 20
-38.69999999999997
 30
0.0
 11
-16.8000019953801
 21
-38.69999999999997
 31
0.0
  0
LINE
  5
80
330
1F
100
AcDbEntity
  8
0
  6
Continuous
 62
     7
100
AcDbLine
 10
-16.4999989436223
 20
-41.49999999999996
 30
0.0
 11
-7.500001995380102
 21
-41.49999999999996
 31
0.0
  0
LINE
  5
81
330
1F
100
AcDbEntity
  8
0
  6
Continuous
 62
     7
100
AcDbLine
 10
-16.8000019953801
 20
-41.79999999999997
 30
0.0
 11
-7.199998943622288
 21
-41.79999999999997
 31
0.0
  0
ARC
  5
82
330
1F
100
AcDbEntity
  8
0
  6
Continuous
 62
     7
100
AcDbCircle
 10
-7.350008098895727
 20
-40.29999923706053
 30
0.0
 40
1.0
100
AcDbArc
 50
98.62701136067899
 51
261.372988639321
  0
ARC
  5
83
330
1F
100
AcDbEntity
  8
0
  6
Continuous
 62
     7
100
AcDbCircle
 10
-16.65000809889574
 20
-40.29999923706053
 30
0.0
 40
1.0
100
AcDbArc
 50
278.6270300300137
 51
81.37295266714231
  0
ARC
  5
84
330
1F
100
AcDbEntity
  8
0
  6
Continuous
 62
     7
100
AcDbCircle
 10
-16.65000809889574
 20
-40.29999923706053
 30
0.0
 40
0.8000000119209291
100
AcDbArc
 50
259.192956180793
 51
100.807026516363
  0
ARC
  5
85
330
1F
100
AcDbEntity
  8
0
  6
Continuous
 62
     7
100
AcDbCircle
 10
-7.350008098895727
 20
-40.29999923706053
 30
0.0
 40
0.8000000119209291
100
AcDbArc
 50
79.19293751145831
 51
280.8070624885417
  0
LINE
  5
86
330
1F
100
AcDbEntity
  8
0
  6
Continuous
 62
     7
100
AcDbLine
 10
-7.500001995380102
 20
-39.31131362915035
 30
0.0
 11
-7.500001995380102
 21
-36.00000238418577
 31
0.0
  0
LINE
  5
87
330
1F
100
AcDbEntity
  8
0
  6
Continuous
 62
     7
100
AcDbLine
 10
-16.4999989436223
 20
-39.31131362915035
 30
0.0
 11
-16.4999989436223
 21
-36.00000238418577
 31
0.0
  0
LINE
  5
88
330
1F
100
AcDbEntity
  8
0
  6
Continuous
 62
     7
100
AcDbLine
 10
-16.8000019953801
 20
-39.51418781280515
 30
0.0
 11
-16.8000019953801
 21
-38.20000362396237
 31
0.0
  0
LINE
  5
89
330
1F
100
AcDbEntity
  8
0
  6
Continuous
 62
     7
100
AcDbLine
 10
-7.199998943622288
 20
-39.51418781280515
 30
0.0
 11
-7.199998943622288
 21
-38.20000362396237
 31
0.0
  0
LINE
  5
8A
330
1F
100
AcDbEntity
  8
0
  6
Continuous
 62
     7
100
AcDbLine
 10
-16.4999989436223
 20
-41.50000095367428
 30
0.0
 11
-16.4999989436223
 21
-41.28868484497068
 31
0.0
  0
LINE
  5
8B
330
1F
100
AcDbEntity
  8
0
  6
Continuous
 62
     7
100
AcDbLine
 10
-7.199998943622288
 20
-41.79999923706052
 30
0.0
 11
-7.199998943622288
 21
-41.08581066131589
 31
0.0
  0
LINE
  5
8C
330
1F
100
AcDbEntity
  8
0
  6
Continuous
 62
     7
100
AcDbLine
 10
-21.50000199538011
 20
-45.49999999999997
 30
0.0
 11
-21.50000199538011
 21
-38.70000362396237
 31
0.0
  0
LINE
  5
8D
330
1F
100
AcDbEntity
  8
0
  6
Continuous
 62
     7
100
AcDbLine
 10
-2.500001995380102
 20
-45.49999999999997
 30
0.0
 11
-2.500001995380102
 21
-38.70000362396237
 31
0.0
  0
LINE
  5
8E
330
1F
100
AcDbEntity
  8
0
  6
Continuous
 62
     7
100
AcDbLine
 10
-21.50000199538011
 20
-45.49999999999997
 30
0.0
 11
-2.500001995380102
 21
-45.49999999999997
 31
0.0
  0
LINE
  5
8F
330
1F
100
AcDbEntity
  8
0
  6
Continuous
 62
     7
100
AcDbLine
 10
-7.199998943622288
 20
-38.20000362396237
 30
0.0
 11
-2.000001995380101
 21
-38.20000362396237
 31
0.0
  0
LINE
  5
90
330
1F
100
AcDbEntity
  8
0
  6
Continuous
 62
     7
100
AcDbLine
 10
-16.8000019953801
 20
-41.79999923706052
 30
0.0
 11
-16.8000019953801
 21
-41.08581066131589
 31
0.0
  0
LINE
  5
91
330
1F
100
AcDbEntity
  8
0
  6
Continuous
 62
     7
100
AcDbLine
 10
-7.500001995380102
 20
-41.50000095367428
 30
0.0
 11
-7.500001995380102
 21
-41.28868484497068
 31
0.0
  0
LINE
  5
92
330
1F
100
AcDbEntity
  8
0
  6
Continuous
 62
     7
100
AcDbLine
 10
-22.00000199538011
 20
-38.20000362396237
 30
0.0
 11
-16.8000019953801
 21
-38.20000362396237
 31
0.0
  0
LINE
  5
93
330
1F
100
AcDbEntity
  8
0
  6
Continuous
 62
     7
100
AcDbLine
 10
-22.00000199538011
 20
-45.99999999999996
 30
0.0
 11
-2.000001995380101
 21
-45.99999999999996
 31
0.0
  0
LINE
  5
94
330
1F
100
AcDbEntity
  8
0
  6
Continuous
 62
     7
100
AcDbLine
 10
-22.00000199538011
 20
-46.00000190734861
 30
0.0
 11
-22.00000199538011
 21
-38.20000362396237
 31
0.0
  0
LINE
  5
95
330
1F
100
AcDbEntity
  8
0
  6
Continuous
 62
     7
100
AcDbLine
 10
-2.000001995380101
 20
-46.00000190734861
 30
0.0
 11
-2.000001995380101
 21
-38.20000362396237
 31
0.0
  0
LINE
  5
96
330
1F
100
AcDbEntity
  8
0
  6
Continuous
 62
     7
100
AcDbLine
 10
1.000001056377669
 20
-39.19999999999997
 30
0.0
 11
1.000001056377669
 21
-31.49999999999997
 31
0.0
  0
LINE
  5
97
330
1F
100
AcDbEntity
  8
0
  6
Continuous
 62
     7
100
AcDbLine
 10
-24.99999894362185
 20
-39.19999999999997
 30
0.0
 11
-24.99999894362185
 21
-31.49999999999997
 31
0.0
  0
LINE
  5
98
330
1F
100
AcDbEntity
  8
0
  6
Continuous
 62
     7
100
AcDbLine
 10
-6.9999989436223
 20
-36.99999999999997
 30
0.0
 11
-6.9999989436223
 21
-35.99999999999996
 31
0.0
  0
LINE
  5
99
330
1F
100
AcDbEntity
  8
0
  6
Continuous
 62
     7
100
AcDbLine
 10
-6.9999989436223
 20
-36.99999999999997
 30
0.0
 11
-1.4999989436223
 21
-36.99999999999997
 31
0.0
  0
LINE
  5
9A
330
1F
100
AcDbEntity
  8
0
  6
Continuous
 62
     7
100
AcDbLine
 10
-22.4999989436223
 20
-36.99999999999997
 30
0.0
 11
-16.4999989436223
 21
-36.99999999999997
 31
0.0
  0
LINE
  5
9B
330
1F
100
AcDbEntity
  8
0
  6
Continuous
 62
     7
100
AcDbLine
 10
-27.9999989436223
 20
-39.19999999999997
 30
0.0
 11
-27.9999989436223
 21
-31.49999999999997
 31
0.0
  0
LINE
  5
9C
330
1F
100
AcDbEntity
  8
0
  6
Continuous
 62
     7
100
AcDbLine
 10
4.000001056377697
 20
-39.19999999999997
 30
0.0
 11
4.000001056377697
 21
-31.49999999999997
 31
0.0
  0
LINE
  5
9D
330
1F
100
AcDbEntity
  8
0
  6
Continuous
 62
     7
100
AcDbLine
 10
-16.4999989436223
 20
-35.99999999999996
 30
0.0
 11
-6.9999989436223
 21
-35.99999999999996
 31
0.0
  0
LINE
  5
9E
330
1F
100
AcDbEntity
  8
0
  6
Continuous
 62
     7
100
AcDbLine
 10
-22.4999989436223
 20
-39.19999999999997
 30
0.0
 11
-22.4999989436223
 21
-36.99999999999997
 31
0.0
  0
LINE
  5
9F
330
1F
100
AcDbEntity
  8
0
  6
Continuous
 62
     7
100
AcDbLine
 10
-27.9999989436223
 20
-39.19999999999997
 30
0.0
 11
-22.4999989436223
 21
-39.19999999999997
 31
0.0
  0
LINE
  5
A0
330
1F
100
AcDbEntity
  8
0
  6
Continuous
 62
     7
100
AcDbLine
 10
4.000001056377697
 20
-39.19999999999997
 30
0.0
 11
-1.4999989436223
 21
-39.19999999999997
 31
0.0
  0
LINE
  5
A1
330
1F
100
AcDbEntity
  8
0
  6
Continuous
 62
     7
100
AcDbLine
 10
-1.4999989436223
 20
-39.19999999999997
 30
0.0
 11
-1.4999989436223
 21
-36.99999999999997
 31
0.0
  0
LINE
  5
A2
330
1F
100
AcDbEntity
  8
0
  6
Continuous
 62
     7
100
AcDbLine
 10
-3.999998943622301
 20
-0.1999999999999886
 30
0.0
 11
-19.9999989436223
 21
-0.1999999999999886
 31
0.0
  0
CIRCLE
  5
A3
330
1F
100
AcDbEntity
  8
0
  6
Continuous
 62
     7
100
AcDbCircle
 10
-11.9999989436223
 20
-22.99999999999998
 30
0.0
 40
1.5
  0
LINE
  5
A4
330
1F
100
AcDbEntity
  8
0
  6
Continuous
 62
     7
100
AcDbLine
 10
4.000001056377697
 20
-31.49999999999999
 30
0.0
 11
4.000001056377697
 21
-0.4999999999999858
 31
0.0
  0
LINE
  5
A5
330
1F
100
AcDbEntity
  8
0
  6
Continuous
 62
     7
100
AcDbLine
 10
3.500001056377698
 20
0.0000000000000142
 30
0.0
 11
-3.999998943622301
 21
0.0000000000000142
 31
0.0
  0
LINE
  5
A6
330
1F
100
AcDbEntity
  8
0
  6
Continuous
 62
     7
100
AcDbLine
 10
4.000001056377697
 20
-5.999999999999985
 30
0.0
 11
-2.999998943621846
 21
-5.999999999999985
 31
0.0
  0
LINE
  5
A7
330
1F
100
AcDbEntity
  8
0
  6
Continuous
 62
     7
100
AcDbLine
 10
4.000001056377697
 20
-31.49999999999999
 30
0.0
 11
-27.9999989436223
 21
-31.49999999999999
 31
0.0
  0
LINE
  5
A8
330
1F
100
AcDbEntity
  8
0
  6
Continuous
 62
     7
100
AcDbLine
 10
-27.9999989436223
 20
-31.49999999999999
 30
0.0
 11
-27.9999989436223
 21
-0.4999999999999858
 31
0.0
  0
LINE
  5
A9
330
1F
100
AcDbEntity
  8
0
  6
Continuous
 62
     7
100
AcDbLine
 10
-2.999998943621846
 20
-31.49999999999999
 30
0.0
 11
-2.999998943621846
 21
-5.999999999999985
 31
0.0
  0
LINE
  5
AA
330
1F
100
AcDbEntity
  8
0
  6
Continuous
 62
     7
100
AcDbLine
 10
-20.99999894362186
 20
-31.49999999999999
 30
0.0
 11
-20.99999894362186
 21
-5.999999999999985
 31
0.0
  0
LINE
  5
AB
330
1F
100
AcDbEntity
  8
0
  6
Continuous
 62
     7
100
AcDbLine
 10
-24.99999894362185
 20
-5.999999999999985
 30
0.0
 11
-24.99999894362185
 21
0.0000000000000142
 31
0.0
  0
LINE
  5
AC
330
1F
100
AcDbEntity
  8
0
  6
Continuous
 62
     7
100
AcDbLine
 10
1.000001056377697
 20
-5.999999999999985
 30
0.0
 11
1.000001056377697
 21
0.0000000000000142
 31
0.0
  0
LINE
  5
AD
330
1F
100
AcDbEntity
  8
0
  6
Continuous
 62
     7
100
AcDbLine
 10
-20.99999894362186
 20
-5.999999999999985
 30
0.0
 11
-27.9999989436223
 21
-5.999999999999985
 31
0.0
  0
LINE
  5
AE
330
1F
100
AcDbEntity
  8
0
  6
Continuous
 62
     7
100
AcDbLine
 10
-3.999998943622301
 20
-16.99999999999998
 30
0.0
 11
-3.999998943622301
 21
0.0000000000000142
 31
0.0
  0
LINE
  5
AF
330
1F
100
AcDbEntity
  8
0
  6
Continuous
 62
     7
100
AcDbLine
 10
-19.9999989436223
 20
-16.99999999999998
 30
0.0
 11
-19.9999989436223
 21
0.0000000000000142
 31
0.0
  0
LINE
  5
B0
330
1F
100
AcDbEntity
  8
0
  6
Continuous
 62
     7
100
AcDbLine
 10
-9.878678600062642
 20
-24.12132034355963
 30
0.0
 11
-4.878678600062641
 21
-19.12132034355963
 31
0.0
  0
LINE
  5
B1
330
1F
100
AcDbEntity
  8
0
  6
Continuous
 62
     7
100
AcDbLine
 10
-14.12131928718196
 20
-24.12132034355963
 30
0.0
 11
-19.12131928718196
 21
-19.12132034355963
 31
0.0
  0
ARC
  5
B2
330
1F
100
AcDbEntity
  8
0
  6
Continuous
 62
     7
100
AcDbCircle
 10
-11.9999989436223
 20
-21.99999999999999
 30
0.0
 40
3.0
100
AcDbArc
 50
225.0000000000001
 51
314.9999999999999
  0
ARC
  5
B3
330
1F
100
AcDbEntity
  8
0
  6
Continuous
 62
     7
100
AcDbCircle
 10
-6.9999989436223
 20
-16.99999999999998
 30
0.0
 40
3.0
100
AcDbArc
 50
314.9999999999999
 51
360.0
  0
ARC
  5
B4
330
1F
100
AcDbEntity
  8
0
  6
Continuous
 62
     7
100
AcDbCircle
 10
-16.9999989436223
 20
-16.99999999999998
 30
0.0
 40
3.0
100
AcDbArc
 50
180.0000000000001
 51
225.0000000000001
  0
LINE
  5
B5
330
1F
100
AcDbEntity
  8
0
  6
Continuous
 62
     7
100
AcDbLine
 10
-19.9999989436223
 20
0.0000000000000142
 30
0.0
 11
-27.4999989436223
 21
0.0000000000000142
 31
0.0
  0
LINE
  5
B6
330
1F
100
AcDbEntity
  8
0
  6
Continuous
 62
     7
100
AcDbLine
 10
-27.9999989436223
 20
-0.4999999999999858
 30
0.0
 11
-27.4999989436223
 21
0.0000000000000142
 31
0.0
  0
LINE
  5
B7
330
1F
100
AcDbEntity
  8
0
  6
Continuous
 62
     7
100
AcDbLine
 10
4.000001056377697
 20
-0.4999999999999858
 30
0.0
 11
3.500001056377698
 21
0.0000000000000142
 31
0.0
  0
LINE
  5
B8
330
1F
100
AcDbEntity
  8
0
  6
Continuous
 62
     7
100
AcDbLine
 10
-11.29289216243575
 20
-23.70710678118653
 30
0.0
 11
-12.70710572480885
 21
-22.29289321881344
 31
0.0
  0
LINE
  5
B9
330
1F
100
AcDbEntity
  8
0
  6
Continuous
 62
     7
100
AcDbLine
 10
-11.29289216243575
 20
-22.29289321881345
 30
0.0
 11
-12.70710572480885
 21
-23.70710678118653
 31
0.0
  0
LINE
  5
BA
330
1F
100
AcDbEntity
  8
0
  6
Continuous
 62
     2
100
AcDbLine
 10
-12.00001725416916
 20
-48.99999999999997
 30
0.0
 11
-11.9999989436223
 21
3.000000000000013
 31
0.0
  0
ENDBLK
  5
BB
330
1F
100
AcDbEntity
  8
0
100
AcDbBlockEnd
  0
BLOCK
  5
22
330
21
100
AcDbEntity
  8
0
 62
     0
100
AcDbBlockBegin
  2
_OPEN30
 70
     2
 10
0.0
 20
0.0
 30
0.0
  3
_OPEN30
  1

  0
LINE
  5
23
330
21
100
AcDbEntity
  8
0
  6
ByBlock
 62
     0
100
AcDbLine
 10
-1.0
 20
0.267949
 30
0.0
 11
0.0
 21
0.0
 31
0.0
  0
LINE
  5
24
330
21
100
AcDbEntity
  8
0
  6
ByBlock
 62
     0
100
AcDbLine
 10
0.0
 20
0.0
 30
0.0
 11
-1.0
 21
-0.267949
 31
0.0
  0
LINE
  5
25
330
21
100
AcDbEntity
  8
0
  6
ByBlock
 62
     0
100
AcDbLine
 10
0.0
 20
0.0
 30
0.0
 11
-1.0
 21
0.0
 31
0.0
  0
ENDBLK
  5
26
330
21
100
AcDbEntity
  8
0
 62
     0
100
AcDbBlockEnd
  0
BLOCK
  5
27A
330
279
100
AcDbEntity
  8
0
100
AcDbBlockBegin
  2
MS_1
 70
     0
 10
0.0
 20
0.0
 30
0.0
  3
MS_1
  1

  0
LINE
  5
27C
330
279
100
AcDbEntity
  8
0
  6
Continuous
 62
     2
100
AcDbLine
 10
-29.5
 20
3.0
 30
0.0
 11
-29.5
 21
-8.800000000000068
 31
0.0
  0
LINE
  5
27D
330
279
100
AcDbEntity
  8
0
  6
Continuous
 62
     2
100
AcDbLine
 10
29.49999999999999
 20
3.0
 30
0.0
 11
29.49999999999999
 21
-8.800000000000068
 31
0.0
  0
LINE
  5
27E
330
279
100
AcDbEntity
  8
0
  6
Continuous
 62
     7
100
AcDbLine
 10
-36.49999999999998
 20
-11.30000000000012
 30
0.0
 11
-51.55130978437084
 21
-11.30000000000009
 31
0.0
  0
LINE
  5
27F
330
279
100
AcDbEntity
  8
0
  6
Continuous
 62
     7
100
AcDbLine
 10
-36.50000000136196
 20
-6.300000000000068
 30
0.0
 11
-51.55130978437084
 21
-6.300000000000039
 31
0.0
  0
LINE
  5
280
330
279
100
AcDbEntity
  8
0
  6
Continuous
 62
     7
100
AcDbLine
 10
-33.00000000000003
 20
0.0
 30
0.0
 11
-33.50000000000003
 21
-0.5
 31
0.0
  0
LINE
  5
281
330
279
100
AcDbEntity
  8
0
  6
Continuous
 62
     7
100
AcDbLine
 10
33.00000000000002
 20
0.0
 30
0.0
 11
33.50000000000001
 21
-0.4999999999999645
 31
0.0
  0
LINE
  5
282
330
279
100
AcDbEntity
  8
0
  6
Continuous
 62
     7
100
AcDbLine
 10
31.89999999999998
 20
-46.0
 30
0.0
 11
31.89999999999998
 21
-39.2
 31
0.0
  0
LINE
  5
283
330
279
100
AcDbEntity
  8
0
  6
Continuous
 62
     7
100
AcDbLine
 10
11.09999999999999
 20
-46.0
 30
0.0
 11
11.09999999999999
 21
-39.2
 31
0.0
  0
LINE
  5
284
330
279
100
AcDbEntity
  8
0
  6
Continuous
 62
     7
100
AcDbLine
 10
-11.10000000000003
 20
-46.0
 30
0.0
 11
-11.10000000000003
 21
-39.2
 31
0.0
  0
LINE
  5
285
330
279
100
AcDbEntity
  8
0
  6
Continuous
 62
     7
100
AcDbLine
 10
-31.90000000000001
 20
-46.0
 30
0.0
 11
-31.90000000000001
 21
-39.2
 31
0.0
  0
LINE
  5
286
330
279
100
AcDbEntity
  8
0
  6
Continuous
 62
     7
100
AcDbLine
 10
32.89999999999998
 20
-46.0
 30
0.0
 11
32.89999999999998
 21
-39.2
 31
0.0
  0
LINE
  5
287
330
279
100
AcDbEntity
  8
0
  6
Continuous
 62
     7
100
AcDbLine
 10
10.09999999999999
 20
-46.0
 30
0.0
 11
10.09999999999999
 21
-39.2
 31
0.0
  0
LINE
  5
288
330
279
100
AcDbEntity
  8
0
  6
Continuous
 62
     7
100
AcDbLine
 10
-10.10000000000003
 20
-46.0
 30
0.0
 11
-10.10000000000003
 21
-39.2
 31
0.0
  0
LINE
  5
289
330
279
100
AcDbEntity
  8
0
  6
Continuous
 62
     7
100
AcDbLine
 10
-32.90000000000003
 20
-46.0
 30
0.0
 11
-32.90000000000003
 21
-39.2
 31
0.0
  0
LINE
  5
28A
330
279
100
AcDbEntity
  8
0
  6
Continuous
 62
     7
100
AcDbLine
 10
-35.99999999999997
 20
-3.800000000000061
 30
0.0
 11
-35.99999999999997
 21
-13.80000000000005
 31
0.0
  0
LINE
  5
28B
330
279
100
AcDbEntity
  8
0
  6
Continuous
 62
     7
100
AcDbLine
 10
-36.49999999999998
 20
-13.30000000000005
 30
0.0
 11
-36.49999999999998
 21
-4.300000000000068
 31
0.0
  0
LINE
  5
28C
330
279
100
AcDbEntity
  8
0
  6
Continuous
 62
     7
100
AcDbLine
 10
-36.49999999999998
 20
-13.30000000000005
 30
0.0
 11
-35.99999999999997
 21
-13.80000000000005
 31
0.0
  0
LINE
  5
28D
330
279
100
AcDbEntity
  8
0
  6
Continuous
 62
     7
100
AcDbLine
 10
-35.99999999999997
 20
-3.800000000000061
 30
0.0
 11
-36.49999999999998
 21
-4.300000000000068
 31
0.0
  0
LINE
  5
28E
330
279
100
AcDbEntity
  8
0
  6
Continuous
 62
     7
100
AcDbLine
 10
-35.99999999999997
 20
-3.800000000000061
 30
0.0
 11
-33.50000000000004
 21
-3.800000000000061
 31
0.0
  0
LINE
  5
28F
330
279
100
AcDbEntity
  8
0
  6
Continuous
 62
     7
100
AcDbLine
 10
-35.99999999999997
 20
-13.80000000000005
 30
0.0
 11
-33.50000000000001
 21
-13.80000000000005
 31
0.0
  0
LINE
  5
290
330
279
100
AcDbEntity
  8
0
  6
Continuous
 62
     2
100
AcDbLine
 10
17.99999999999998
 20
-44.0
 30
0.0
 11
12.99999999999998
 21
-44.0
 31
0.0
  0
LINE
  5
291
330
279
100
AcDbEntity
  8
0
  6
Continuous
 62
     2
100
AcDbLine
 10
29.99999999999999
 20
-44.0
 30
0.0
 11
24.99999999999999
 21
-44.0
 31
0.0
  0
CIRCLE
  5
292
330
279
100
AcDbEntity
  8
0
  6
Continuous
 62
     2
100
AcDbCircle
 10
27.49999999999999
 20
-44.0
 30
0.0
 40
1.5
  0
LINE
  5
293
330
279
100
AcDbEntity
  8
0
  6
Continuous
 62
     2
100
AcDbLine
 10
27.49999999999999
 20
-46.5
 30
0.0
 11
27.49999999999999
 21
-41.5
 31
0.0
  0
CIRCLE
  5
294
330
279
100
AcDbEntity
  8
0
  6
Continuous
 62
     2
100
AcDbCircle
 10
15.49999999999998
 20
-44.0
 30
0.0
 40
1.5
  0
LINE
  5
295
330
279
100
AcDbEntity
  8
0
  6
Continuous
 62
     2
100
AcDbLine
 10
15.49999999999998
 20
-46.5
 30
0.0
 11
15.49999999999998
 21
-41.5
 31
0.0
  0
CIRCLE
  5
296
330
279
100
AcDbEntity
  8
0
  6
Continuous
 62
     2
100
AcDbCircle
 10
-15.50000000000003
 20
-44.0
 30
0.0
 40
1.5
  0
LINE
  5
297
330
279
100
AcDbEntity
  8
0
  6
Continuous
 62
     2
100
AcDbLine
 10
-15.50000000000003
 20
-46.5
 30
0.0
 11
-15.50000000000003
 21
-41.5
 31
0.0
  0
LINE
  5
298
330
279
100
AcDbEntity
  8
0
  6
Continuous
 62
     2
100
AcDbLine
 10
-13.00000000000003
 20
-44.0
 30
0.0
 11
-18.00000000000003
 21
-44.0
 31
0.0
  0
CIRCLE
  5
299
330
279
100
AcDbEntity
  8
0
  6
Continuous
 62
     2
100
AcDbCircle
 10
-27.50000000000003
 20
-44.0
 30
0.0
 40
1.5
  0
LINE
  5
29A
330
279
100
AcDbEntity
  8
0
  6
Continuous
 62
     2
100
AcDbLine
 10
-27.50000000000003
 20
-46.5
 30
0.0
 11
-27.50000000000003
 21
-41.5
 31
0.0
  0
LINE
  5
29B
330
279
100
AcDbEntity
  8
0
  6
Continuous
 62
     2
100
AcDbLine
 10
-25.00000000000003
 20
-44.0
 30
0.0
 11
-30.00000000000003
 21
-44.0
 31
0.0
  0
LINE
  5
29C
330
279
100
AcDbEntity
  8
0
  6
Continuous
 62
     7
100
AcDbLine
 10
30.50000000000001
 20
-5.999999999999992
 30
0.0
 11
30.50000000000001
 21
0.0
 31
0.0
  0
LINE
  5
29D
330
279
100
AcDbEntity
  8
0
  6
Continuous
 62
     7
100
AcDbLine
 10
26.50000000000006
 20
-5.999999999999992
 30
0.0
 11
33.50000000000006
 21
-5.999999999999992
 31
0.0
  0
LINE
  5
29E
330
279
100
AcDbEntity
  8
0
  6
Continuous
 62
     7
100
AcDbLine
 10
26.49999999999999
 20
-31.5
 30
0.0
 11
26.50000000000006
 21
-5.999999999999992
 31
0.0
  0
LINE
  5
29F
330
279
100
AcDbEntity
  8
0
  6
Continuous
 62
     7
100
AcDbLine
 10
30.49999999999989
 20
-39.2
 30
0.0
 11
30.49999999999989
 21
-31.5
 31
0.0
  0
LINE
  5
2A0
330
279
100
AcDbEntity
  8
0
  6
Continuous
 62
     7
100
AcDbLine
 10
-30.49999999999996
 20
-39.2
 30
0.0
 11
-30.49999999999996
 21
-31.5
 31
0.0
  0
LINE
  5
2A1
330
279
100
AcDbEntity
  8
0
  6
Continuous
 62
     7
100
AcDbLine
 10
-33.50000000000003
 20
-39.2
 30
0.0
 11
-33.50000000000003
 21
-0.5
 31
0.0
  0
LINE
  5
2A2
330
279
100
AcDbEntity
  8
0
  6
Continuous
 62
     7
100
AcDbLine
 10
34.00000000000001
 20
-24.50000000000001
 30
0.0
 11
34.00000000000001
 21
-21.50000000000005
 31
0.0
  0
LINE
  5
2A3
330
279
100
AcDbEntity
  8
0
  6
Continuous
 62
     7
100
AcDbLine
 10
33.50000000000001
 20
-24.50000000000001
 30
0.0
 11
34.00000000000001
 21
-24.50000000000001
 31
0.0
  0
LINE
  5
2A4
330
279
100
AcDbEntity
  8
0
  6
Continuous
 62
     7
100
AcDbLine
 10
33.50000000000001
 20
-21.5
 30
0.0
 11
34.00000000000001
 21
-21.5
 31
0.0
  0
LINE
  5
2A5
330
279
100
AcDbEntity
  8
0
  6
Continuous
 62
     7
100
AcDbLine
 10
-33.50000000000003
 20
-21.5
 30
0.0
 11
-34.00000000000001
 21
-21.5
 31
0.0
  0
LINE
  5
2A6
330
279
100
AcDbEntity
  8
0
  6
Continuous
 62
     7
100
AcDbLine
 10
-33.50000000000003
 20
-24.50000000000001
 30
0.0
 11
-34.00000000000001
 21
-24.50000000000001
 31
0.0
  0
LINE
  5
2A7
330
279
100
AcDbEntity
  8
0
  6
Continuous
 62
     7
100
AcDbLine
 10
-34.00000000000001
 20
-24.50000000000001
 30
0.0
 11
-34.00000000000001
 21
-21.50000000000005
 31
0.0
  0
LINE
  5
2A8
330
279
100
AcDbEntity
  8
0
  6
Continuous
 62
     7
100
AcDbLine
 10
33.50000000000001
 20
-39.2
 30
0.0
 11
33.50000000000001
 21
-0.4999999999999716
 31
0.0
  0
LINE
  5
2A9
330
279
100
AcDbEntity
  8
0
  6
Continuous
 62
     7
100
AcDbLine
 10
33.00000000000002
 20
0.0
 30
0.0
 11
-33.00000000000003
 21
0.0
 31
0.0
  0
LINE
  5
2AA
330
279
100
AcDbEntity
  8
0
  6
Continuous
 62
     7
100
AcDbLine
 10
33.50000000000001
 20
-31.5
 30
0.0
 11
-33.50000000000003
 21
-31.5
 31
0.0
  0
LINE
  5
2AB
330
279
100
AcDbEntity
  8
0
  6
Continuous
 62
     7
100
AcDbLine
 10
-32.90000000000003
 20
-46.0
 30
0.0
 11
-10.10000000000003
 21
-46.0
 31
0.0
  0
LINE
  5
2AC
330
279
100
AcDbEntity
  8
0
  6
Continuous
 62
     7
100
AcDbLine
 10
10.09999999999999
 20
-46.0
 30
0.0
 11
32.89999999999998
 21
-46.0
 31
0.0
  0
LINE
  5
2AD
330
279
100
AcDbEntity
  8
0
  6
Continuous
 62
     7
100
AcDbLine
 10
-10.10000000000003
 20
-41.5
 30
0.0
 11
10.09999999999999
 21
-41.5
 31
0.0
  0
LINE
  5
2AE
330
279
100
AcDbEntity
  8
0
  6
Continuous
 62
     7
100
AcDbLine
 10
-33.50000000000003
 20
-39.2
 30
0.0
 11
33.50000000000001
 21
-39.2
 31
0.0
  0
LINE
  5
2AF
330
279
100
AcDbEntity
  8
0
  6
Continuous
 62
     7
100
AcDbLine
 10
-30.49999999999996
 20
-5.999999999999992
 30
0.0
 11
-30.49999999999996
 21
0.0000000000000142
 31
0.0
  0
LINE
  5
2B0
330
279
100
AcDbEntity
  8
0
  6
Continuous
 62
     7
100
AcDbLine
 10
-26.50000000000001
 20
-5.999999999999992
 30
0.0
 11
-33.50000000000003
 21
-5.999999999999992
 31
0.0
  0
LINE
  5
2B1
330
279
100
AcDbEntity
  8
0
  6
Continuous
 62
     7
100
AcDbLine
 10
-26.49999999999996
 20
-31.5
 30
0.0
 11
-26.50000000000001
 21
-5.999999999999992
 31
0.0
  0
CIRCLE
  5
2B2
330
279
100
AcDbEntity
  8
0
  6
Continuous
 62
     7
100
AcDbCircle
 10
-27.50000000000003
 20
-44.0
 30
0.0
 40
1.25
  0
CIRCLE
  5
2B3
330
279
100
AcDbEntity
  8
0
  6
Continuous
 62
     7
100
AcDbCircle
 10
-15.50000000000003
 20
-44.0
 30
0.0
 40
1.25
  0
CIRCLE
  5
2B4
330
279
100
AcDbEntity
  8
0
  6
Continuous
 62
     7
100
AcDbCircle
 10
15.49999999999998
 20
-44.0
 30
0.0
 40
1.25
  0
CIRCLE
  5
2B5
330
279
100
AcDbEntity
  8
0
  6
Continuous
 62
     7
100
AcDbCircle
 10
27.49999999999999
 20
-44.0
 30
0.0
 40
1.25
  0
LINE
  5
2B6
330
279
100
AcDbEntity
  8
0
  6
Continuous
 62
     2
100
AcDbLine
 10
0.0
 20
3.0
 30
0.0
 11
0.0
 21
-50.0
 31
0.0
  0
ENDBLK
  5
27B
330
279
100
AcDbEntity
  8
0
100
AcDbBlockEnd
  0
BLOCK
  5
2B9
330
2B8
100
AcDbEntity
  8
0
100
AcDbBlockBegin
  2
MS_3
 70
     0
 10
0.0
 20
0.0
 30
0.0
  3
MS_3
  1

  0
LINE
  5
2BB
330
2B8
100
AcDbEntity
  8
0
  6
DASHED
 62
     2
100
AcDbLine
 10
1.0
 20
-10.5
 30
0.0
 11
1.0
 21
-11.5
 31
0.0
  0
LINE
  5
2BC
330
2B8
100
AcDbEntity
  8
0
  6
DASHED
 62
     2
100
AcDbLine
 10
2.0
 20
-11.0
 30
0.0
 11
-2.0
 21
-11.0
 31
0.0
  0
LINE
  5
2BD
330
2B8
100
AcDbEntity
  8
0
  6
DASHED
 62
     2
100
AcDbLine
 10
-1.0
 20
-10.5
 30
0.0
 11
-1.0
 21
-11.5
 31
0.0
  0
ARC
  5
2BE
330
2B8
100
AcDbEntity
  8
0
  6
DASHED
 62
     2
100
AcDbCircle
 10
0.0
 20
-10.5
 30
0.0
 40
1.0
100
AcDbArc
 50
0.0
 51
180.0
  0
ARC
  5
2BF
330
2B8
100
AcDbEntity
  8
0
  6
DASHED
 62
     2
100
AcDbCircle
 10
0.0
 20
-11.5
 30
0.0
 40
1.0
100
AcDbArc
 50
180.0
 51
0.0
  0
LINE
  5
2C0
330
2B8
100
AcDbEntity
  8
0
  6
DASHED
 62
     2
100
AcDbLine
 10
-1.555510840281549
 20
-10.5
 30
0.0
 11
1.512624874320572
 21
-10.5
 31
0.0
  0
LINE
  5
2C1
330
2B8
100
AcDbEntity
  8
0
  6
DASHED
 62
     2
100
AcDbLine
 10
-1.555510840281549
 20
-11.5
 30
0.0
 11
1.512624874320572
 21
-11.5
 31
0.0
  0
LINE
  5
2C2
330
2B8
100
AcDbEntity
  8
0
  6
DASHED
 62
     2
100
AcDbLine
 10
-2.0
 20
11.0
 30
0.0
 11
2.0
 21
11.0
 31
0.0
  0
CIRCLE
  5
2C3
330
2B8
100
AcDbEntity
  8
0
  6
DASHED
 62
     2
100
AcDbCircle
 10
0.0
 20
11.0
 30
0.0
 40
1.0
  0
LINE
  5
2C4
330
2B8
100
AcDbEntity
  8
0
  6
DASHED
 62
     2
100
AcDbLine
 10
26.50000000000002
 20
12.00000000000011
 30
0.0
 11
32.50000000000002
 21
12.00000000000011
 31
0.0
  0
LINE
  5
2C5
330
2B8
100
AcDbEntity
  8
0
  6
DASHED
 62
     2
100
AcDbLine
 10
29.50000000000002
 20
9.000000000000113
 30
0.0
 11
29.50000000000002
 21
15.00000000000011
 31
0.0
  0
CIRCLE
  5
2C6
330
2B8
100
AcDbEntity
  8
0
  6
DASHED
 62
     2
100
AcDbCircle
 10
29.50000000000002
 20
12.00000000000011
 30
0.0
 40
2.0
  0
CIRCLE
  5
2C7
330
2B8
100
AcDbEntity
  8
0
  6
DASHED
 62
     2
100
AcDbCircle
 10
29.50000000000002
 20
12.00000000000011
 30
0.0
 40
1.649999999999999
  0
LINE
  5
2C8
330
2B8
100
AcDbEntity
  8
0
  6
DASHED
 62
     2
100
AcDbLine
 10
-29.5
 20
9.0
 30
0.0
 11
-29.5
 21
15.0
 31
0.0
  0
CIRCLE
  5
2C9
330
2B8
100
AcDbEntity
  8
0
  6
DASHED
 62
     2
100
AcDbCircle
 10
-29.5
 20
12.0
 30
0.0
 40
2.0
  0
LINE
  5
2CA
330
2B8
100
AcDbEntity
  8
0
  6
DASHED
 62
     2
100
AcDbLine
 10
-26.5
 20
12.0
 30
0.0
 11
-32.5
 21
12.0
 31
0.0
  0
CIRCLE
  5
2CB
330
2B8
100
AcDbEntity
  8
0
  6
DASHED
 62
     2
100
AcDbCircle
 10
-29.5
 20
12.0
 30
0.0
 40
1.649999999999999
  0
LINE
  5
2CC
330
2B8
100
AcDbEntity
  8
0
  6
DASHED
 62
     2
100
AcDbLine
 10
26.50000000000002
 20
-12.0000000000001
 30
0.0
 11
32.50000000000002
 21
-12.0000000000001
 31
0.0
  0
LINE
  5
2CD
330
2B8
100
AcDbEntity
  8
0
  6
DASHED
 62
     2
100
AcDbLine
 10
29.50000000000002
 20
-9.000000000000099
 30
0.0
 11
29.50000000000002
 21
-15.0000000000001
 31
0.0
  0
CIRCLE
  5
2CE
330
2B8
100
AcDbEntity
  8
0
  6
DASHED
 62
     2
100
AcDbCircle
 10
29.50000000000002
 20
-12.0000000000001
 30
0.0
 40
2.0
  0
CIRCLE
  5
2CF
330
2B8
100
AcDbEntity
  8
0
  6
DASHED
 62
     2
100
AcDbCircle
 10
29.50000000000002
 20
-12.0000000000001
 30
0.0
 40
1.649999999999999
  0
LINE
  5
2D0
330
2B8
100
AcDbEntity
  8
0
  6
DASHED
 62
     2
100
AcDbLine
 10
-29.5
 20
-9.0
 30
0.0
 11
-29.5
 21
-15.0
 31
0.0
  0
CIRCLE
  5
2D1
330
2B8
100
AcDbEntity
  8
0
  6
DASHED
 62
     2
100
AcDbCircle
 10
-29.5
 20
-12.0
 30
0.0
 40
2.0
  0
LINE
  5
2D2
330
2B8
100
AcDbEntity
  8
0
  6
DASHED
 62
     2
100
AcDbLine
 10
-26.5
 20
-12.0
 30
0.0
 11
-32.5
 21
-12.0
 31
0.0
  0
CIRCLE
  5
2D3
330
2B8
100
AcDbEntity
  8
0
  6
DASHED
 62
     2
100
AcDbCircle
 10
-29.5
 20
-12.0
 30
0.0
 40
1.649999999999999
  0
CIRCLE
  5
2D4
330
2B8
100
AcDbEntity
  8
0
  6
DASHED
 62
     2
100
AcDbCircle
 10
0.0
 20
11.0
 30
0.0
 40
1.199999999999999
  0
ARC
  5
2D5
330
2B8
100
AcDbEntity
  8
0
  6
DASHED
 62
     2
100
AcDbCircle
 10
0.0
 20
-11.5
 30
0.0
 40
1.199999999999999
100
AcDbArc
 50
180.0
 51
0.0
  0
ARC
  5
2D6
330
2B8
100
AcDbEntity
  8
0
  6
DASHED
 62
     2
100
AcDbCircle
 10
0.0
 20
-10.5
 30
0.0
 40
1.199999999999999
100
AcDbArc
 50
0.0
 51
180.0
  0
LINE
  5
2D7
330
2B8
100
AcDbEntity
  8
0
  6
DASHED
 62
     2
100
AcDbLine
 10
-1.199999999999999
 20
-10.5
 30
0.0
 11
-1.199999999999999
 21
-11.5
 31
0.0
  0
LINE
  5
2D8
330
2B8
100
AcDbEntity
  8
0
  6
DASHED
 62
     2
100
AcDbLine
 10
1.200000000000013
 20
-10.5
 30
0.0
 11
1.200000000000013
 21
-11.5
 31
0.0
  0
LINE
  5
2D9
330
2B8
100
AcDbEntity
  8
0
  6
Continuous
 62
     7
100
AcDbLine
 10
-36.50000000136194
 20
-2.500000000000063
 30
0.0
 11
-51.55130980397081
 21
-2.500000000000028
 31
0.0
  0
LINE
  5
2DA
330
2B8
100
AcDbEntity
  8
0
  6
Continuous
 62
     7
100
AcDbLine
 10
-36.50000000272392
 20
2.5
 30
0.0
 11
-51.55130980397081
 21
2.500000000000028
 31
0.0
  0
CIRCLE
  5
2DB
330
2B8
100
AcDbEntity
  8
0
  6
Continuous
 62
     2
100
AcDbCircle
 10
21.50000000000002
 20
7.5
 30
0.0
 40
1.5
  0
LINE
  5
2DC
330
2B8
100
AcDbEntity
  8
0
  6
Continuous
 62
     2
100
AcDbLine
 10
24.00000000000002
 20
7.5
 30
0.0
 11
19.00000000000002
 21
7.5
 31
0.0
  0
CIRCLE
  5
2DD
330
2B8
100
AcDbEntity
  8
0
  6
Continuous
 62
     7
100
AcDbCircle
 10
21.50000000000002
 20
0.0
 30
0.0
 40
1.5
  0
CIRCLE
  5
2DE
330
2B8
100
AcDbEntity
  8
0
  6
Continuous
 62
     2
100
AcDbCircle
 10
21.50000000000002
 20
-7.5
 30
0.0
 40
1.5
  0
LINE
  5
2DF
330
2B8
100
AcDbEntity
  8
0
  6
Continuous
 62
     2
100
AcDbLine
 10
24.00000000000002
 20
-7.5
 30
0.0
 11
19.00000000000002
 21
-7.5
 31
0.0
  0
LINE
  5
2E0
330
2B8
100
AcDbEntity
  8
0
  6
Continuous
 62
     2
100
AcDbLine
 10
21.50000000000002
 20
9.658584594726569
 30
0.0
 11
21.50000000000002
 21
-10.00000762939453
 31
0.0
  0
CIRCLE
  5
2E1
330
2B8
100
AcDbEntity
  8
0
  6
Continuous
 62
     2
100
AcDbCircle
 10
-21.49999999999998
 20
7.5
 30
0.0
 40
1.5
  0
LINE
  5
2E2
330
2B8
100
AcDbEntity
  8
0
  6
Continuous
 62
     2
100
AcDbLine
 10
-18.99999999999998
 20
7.5
 30
0.0
 11
-23.99999999999998
 21
7.5
 31
0.0
  0
CIRCLE
  5
2E3
330
2B8
100
AcDbEntity
  8
0
  6
Continuous
 62
     7
100
AcDbCircle
 10
-21.49999999999998
 20
0.0
 30
0.0
 40
1.5
  0
CIRCLE
  5
2E4
330
2B8
100
AcDbEntity
  8
0
  6
Continuous
 62
     2
100
AcDbCircle
 10
-21.49999999999998
 20
-7.5
 30
0.0
 40
1.5
  0
LINE
  5
2E5
330
2B8
100
AcDbEntity
  8
0
  6
Continuous
 62
     2
100
AcDbLine
 10
-18.99999999999998
 20
-7.5
 30
0.0
 11
-23.99999999999998
 21
-7.5
 31
0.0
  0
LINE
  5
2E6
330
2B8
100
AcDbEntity
  8
0
  6
Continuous
 62
     2
100
AcDbLine
 10
-21.49999999999998
 20
9.658584594726569
 30
0.0
 11
-21.49999999999998
 21
-10.00000762939453
 31
0.0
  0
LINE
  5
2E7
330
2B8
100
AcDbEntity
  8
0
  6
Continuous
 62
     7
100
AcDbLine
 10
31.90000000000001
 20
5.000000000000028
 30
0.0
 11
11.10000000000001
 21
5.000000000000028
 31
0.0
  0
LINE
  5
2E8
330
2B8
100
AcDbEntity
  8
0
  6
Continuous
 62
     7
100
AcDbLine
 10
31.90000000000001
 20
-5.0
 30
0.0
 11
11.10000000000001
 21
-5.0
 31
0.0
  0
LINE
  5
2E9
330
2B8
100
AcDbEntity
  8
0
  6
Continuous
 62
     7
100
AcDbLine
 10
-11.09999999999999
 20
-5.0
 30
0.0
 11
-31.89999999999999
 21
-5.0
 31
0.0
  0
LINE
  5
2EA
330
2B8
100
AcDbEntity
  8
0
  6
Continuous
 62
     7
100
AcDbLine
 10
-11.09999999999999
 20
5.000000000000028
 30
0.0
 11
-31.89999999999999
 21
5.000000000000028
 31
0.0
  0
LINE
  5
2EB
330
2B8
100
AcDbEntity
  8
0
  6
Continuous
 62
     7
100
AcDbLine
 10
31.90000000000001
 20
-10.0
 30
0.0
 11
31.90000000000001
 21
10.00000000000003
 31
0.0
  0
LINE
  5
2EC
330
2B8
100
AcDbEntity
  8
0
  6
Continuous
 62
     7
100
AcDbLine
 10
11.10000000000001
 20
-10.0
 30
0.0
 11
11.10000000000001
 21
10.00000000000003
 31
0.0
  0
LINE
  5
2ED
330
2B8
100
AcDbEntity
  8
0
  6
Continuous
 62
     7
100
AcDbLine
 10
-11.09999999999999
 20
-10.0
 30
0.0
 11
-11.09999999999999
 21
10.00000000000003
 31
0.0
  0
LINE
  5
2EE
330
2B8
100
AcDbEntity
  8
0
  6
Continuous
 62
     7
100
AcDbLine
 10
-31.89999999999999
 20
-10.0
 30
0.0
 11
-31.89999999999999
 21
10.00000000000003
 31
0.0
  0
LINE
  5
2EF
330
2B8
100
AcDbEntity
  8
0
  6
Continuous
 62
     7
100
AcDbLine
 10
5.500009170871198
 20
-0.0000219994167239
 30
0.0
 11
6.250007561545778
 21
-1.299061065254591
 31
0.0
  0
LINE
  5
2F0
330
2B8
100
AcDbEntity
  8
0
  6
Continuous
 62
     7
100
AcDbLine
 10
6.250000000000008
 20
-1.299041748046867
 30
0.0
 11
7.750000000000019
 21
-1.299041748046867
 31
0.0
  0
LINE
  5
2F1
330
2B8
100
AcDbEntity
  8
0
  6
Continuous
 62
     7
100
AcDbLine
 10
8.50004886533317
 20
-0.0000129588679627
 30
0.0
 11
7.750046659969489
 21
-1.299058631960178
 31
0.0
  0
LINE
  5
2F2
330
2B8
100
AcDbEntity
  8
0
  6
Continuous
 62
     7
100
AcDbLine
 10
7.750006720750679
 20
1.299019753754244
 30
0.0
 11
8.500005111425277
 21
-0.0000193120836371
 31
0.0
  0
LINE
  5
2F3
330
2B8
100
AcDbEntity
  8
0
  6
Continuous
 62
     7
100
AcDbLine
 10
6.250000000000008
 20
1.299041748046867
 30
0.0
 11
7.750000000000019
 21
1.299041748046867
 31
0.0
  0
LINE
  5
2F4
330
2B8
100
AcDbEntity
  8
0
  6
Continuous
 62
     7
100
AcDbLine
 10
5.500045295400939
 20
-0.0000234860435739
 30
0.0
 11
6.250047500764608
 21
1.299022187048642
 31
0.0
  0
CIRCLE
  5
2F5
330
2B8
100
AcDbEntity
  8
0
  6
Continuous
 62
     7
100
AcDbCircle
 10
7.000000000000019
 20
0.0
 30
0.0
 40
1.5
  0
CIRCLE
  5
2F6
330
2B8
100
AcDbEntity
  8
0
  6
Continuous
 62
     7
100
AcDbCircle
 10
7.000000000000019
 20
0.0
 30
0.0
 40
2.75
  0
CIRCLE
  5
2F7
330
2B8
100
AcDbEntity
  8
0
  6
Continuous
 62
     7
100
AcDbCircle
 10
7.000000000000019
 20
0.0
 30
0.0
 40
3.0
  0
LINE
  5
2F8
330
2B8
100
AcDbEntity
  8
0
  6
Continuous
 62
     7
100
AcDbLine
 10
-8.499990829128797
 20
-0.0000219994167239
 30
0.0
 11
-7.749992438454214
 21
-1.299061065254591
 31
0.0
  0
LINE
  5
2F9
330
2B8
100
AcDbEntity
  8
0
  6
Continuous
 62
     7
100
AcDbLine
 10
-7.749999999999989
 20
-1.299041748046867
 30
0.0
 11
-6.249999999999989
 21
-1.299041748046867
 31
0.0
  0
LINE
  5
2FA
330
2B8
100
AcDbEntity
  8
0
  6
Continuous
 62
     7
100
AcDbLine
 10
-5.499951134666829
 20
-0.0000129588679627
 30
0.0
 11
-6.249953340030511
 21
-1.299058631960178
 31
0.0
  0
LINE
  5
2FB
330
2B8
100
AcDbEntity
  8
0
  6
Continuous
 62
     7
100
AcDbLine
 10
-6.24999327924932
 20
1.299019753754244
 30
0.0
 11
-5.499994888574729
 21
-0.0000193120836371
 31
0.0
  0
LINE
  5
2FC
330
2B8
100
AcDbEntity
  8
0
  6
Continuous
 62
     7
100
AcDbLine
 10
-7.749999999999989
 20
1.299041748046867
 30
0.0
 11
-6.249999999999989
 21
1.299041748046867
 31
0.0
  0
LINE
  5
2FD
330
2B8
100
AcDbEntity
  8
0
  6
Continuous
 62
     7
100
AcDbLine
 10
-8.499954704599069
 20
-0.0000234860435739
 30
0.0
 11
-7.749952499235391
 21
1.299022187048642
 31
0.0
  0
CIRCLE
  5
2FE
330
2B8
100
AcDbEntity
  8
0
  6
Continuous
 62
     7
100
AcDbCircle
 10
-6.999999999999989
 20
0.0
 30
0.0
 40
1.5
  0
CIRCLE
  5
2FF
330
2B8
100
AcDbEntity
  8
0
  6
Continuous
 62
     7
100
AcDbCircle
 10
-6.999999999999989
 20
0.0
 30
0.0
 40
2.75
  0
CIRCLE
  5
300
330
2B8
100
AcDbEntity
  8
0
  6
Continuous
 62
     7
100
AcDbCircle
 10
-6.999999999999989
 20
0.0
 30
0.0
 40
3.0
  0
LINE
  5
301
330
2B8
100
AcDbEntity
  8
0
  6
Continuous
 62
     7
100
AcDbLine
 10
32.90000000000001
 20
5.0
 30
0.0
 11
33.50000000000003
 21
5.0
 31
0.0
  0
LINE
  5
302
330
2B8
100
AcDbEntity
  8
0
  6
Continuous
 62
     7
100
AcDbLine
 10
-10.1
 20
5.0
 30
0.0
 11
10.10000000000001
 21
5.0
 31
0.0
  0
LINE
  5
303
330
2B8
100
AcDbEntity
  8
0
  6
Continuous
 62
     7
100
AcDbLine
 10
10.10000000000001
 20
4.5
 30
0.0
 11
-10.1
 21
4.5
 31
0.0
  0
LINE
  5
304
330
2B8
100
AcDbEntity
  8
0
  6
Continuous
 62
     7
100
AcDbLine
 10
10.10000000000001
 20
-4.5
 30
0.0
 11
-10.1
 21
-4.5
 31
0.0
  0
LINE
  5
305
330
2B8
100
AcDbEntity
  8
0
  6
Continuous
 62
     7
100
AcDbLine
 10
-36.50000000136193
 20
5.0
 30
0.0
 11
-36.00000000136193
 21
5.5
 31
0.0
  0
LINE
  5
306
330
2B8
100
AcDbEntity
  8
0
  6
Continuous
 62
     7
100
AcDbLine
 10
-36.00000000136193
 20
5.5
 30
0.0
 11
-33.50000000136196
 21
5.5
 31
0.0
  0
LINE
  5
307
330
2B8
100
AcDbEntity
  8
0
  6
Continuous
 62
     7
100
AcDbLine
 10
-36.00000000136193
 20
-5.5
 30
0.0
 11
-36.50000000136193
 21
-5.0
 31
0.0
  0
LINE
  5
308
330
2B8
100
AcDbEntity
  8
0
  6
Continuous
 62
     7
100
AcDbLine
 10
-36.00000000136193
 20
5.5
 30
0.0
 11
-36.00000000136193
 21
-5.5
 31
0.0
  0
LINE
  5
309
330
2B8
100
AcDbEntity
  8
0
  6
Continuous
 62
     7
100
AcDbLine
 10
-36.00000000136193
 20
-5.5
 30
0.0
 11
-33.50000000136198
 21
-5.5
 31
0.0
  0
LINE
  5
30A
330
2B8
100
AcDbEntity
  8
0
  6
Continuous
 62
     7
100
AcDbLine
 10
-36.50000000136193
 20
5.0
 30
0.0
 11
-36.50000000136193
 21
-5.0
 31
0.0
  0
LINE
  5
30B
330
2B8
100
AcDbEntity
  8
0
  6
Continuous
 62
     7
100
AcDbLine
 10
32.90000000000001
 20
-10.0
 30
0.0
 11
10.10000000000001
 21
-10.0
 31
0.0
  0
LINE
  5
30C
330
2B8
100
AcDbEntity
  8
0
  6
Continuous
 62
     7
100
AcDbLine
 10
32.90000000000001
 20
10.00000000000003
 30
0.0
 11
10.10000000000001
 21
10.00000000000003
 31
0.0
  0
LINE
  5
30D
330
2B8
100
AcDbEntity
  8
0
  6
Continuous
 62
     7
100
AcDbLine
 10
32.90000000000001
 20
-10.0
 30
0.0
 11
32.90000000000001
 21
10.00000000000003
 31
0.0
  0
LINE
  5
30E
330
2B8
100
AcDbEntity
  8
0
  6
Continuous
 62
     7
100
AcDbLine
 10
10.10000000000001
 20
-10.0
 30
0.0
 11
10.10000000000001
 21
10.00000000000003
 31
0.0
  0
LINE
  5
30F
330
2B8
100
AcDbEntity
  8
0
  6
Continuous
 62
     7
100
AcDbLine
 10
-10.1
 20
-10.0
 30
0.0
 11
-10.1
 21
10.00000000000003
 31
0.0
  0
LINE
  5
310
330
2B8
100
AcDbEntity
  8
0
  6
Continuous
 62
     7
100
AcDbLine
 10
-32.89999999999999
 20
-10.0
 30
0.0
 11
-32.89999999999999
 21
10.00000000000003
 31
0.0
  0
LINE
  5
311
330
2B8
100
AcDbEntity
  8
0
  6
Continuous
 62
     7
100
AcDbLine
 10
-10.1
 20
-10.0
 30
0.0
 11
-32.89999999999999
 21
-10.0
 31
0.0
  0
LINE
  5
312
330
2B8
100
AcDbEntity
  8
0
  6
Continuous
 62
     7
100
AcDbLine
 10
-10.1
 20
10.00000000000003
 30
0.0
 11
-32.89999999999999
 21
10.00000000000003
 31
0.0
  0
LINE
  5
313
330
2B8
100
AcDbEntity
  8
0
  6
Continuous
 62
     7
100
AcDbLine
 10
-30.49999999999998
 20
-16.0
 30
0.0
 11
-33.49999999999998
 21
-12.99999999999954
 31
0.0
  0
LINE
  5
314
330
2B8
100
AcDbEntity
  8
0
  6
Continuous
 62
     7
100
AcDbLine
 10
30.50000000000003
 20
-16.0
 30
0.0
 11
-30.49999999999998
 21
-16.0
 31
0.0
  0
LINE
  5
315
330
2B8
100
AcDbEntity
  8
0
  6
Continuous
 62
     7
100
AcDbLine
 10
-33.49999999999998
 20
13.00000000000003
 30
0.0
 11
-33.49999999999998
 21
-12.99999999999954
 31
0.0
  0
LINE
  5
316
330
2B8
100
AcDbEntity
  8
0
  6
Continuous
 62
     7
100
AcDbLine
 10
-33.49999999999998
 20
13.00000000000003
 30
0.0
 11
-30.49999999999994
 21
16.00000000000003
 31
0.0
  0
LINE
  5
317
330
2B8
100
AcDbEntity
  8
0
  6
Continuous
 62
     7
100
AcDbLine
 10
30.49999999999993
 20
16.00000000000003
 30
0.0
 11
-30.49999999999994
 21
16.00000000000003
 31
0.0
  0
ARC
  5
318
330
2B8
100
AcDbEntity
  8
0
  6
Continuous
 62
     7
100
AcDbCircle
 10
-33.79999999999997
 20
1.200000000000045
 30
0.0
 40
0.3
100
AcDbArc
 50
90.0
 51
180.0
  0
ARC
  5
319
330
2B8
100
AcDbEntity
  8
0
  6
Continuous
 62
     7
100
AcDbCircle
 10
-33.79999999999997
 20
-1.199999999999988
 30
0.0
 40
0.3
100
AcDbArc
 50
180.0
 51
270.0
  0
LINE
  5
31A
330
2B8
100
AcDbEntity
  8
0
  6
Continuous
 62
     7
100
AcDbLine
 10
-34.09999999999998
 20
1.199999999999988
 30
0.0
 11
-34.09999999999998
 21
-1.200000000000038
 31
0.0
  0
LINE
  5
31B
330
2B8
100
AcDbEntity
  8
0
  6
Continuous
 62
     7
100
AcDbLine
 10
33.50000000000003
 20
13.00000000000003
 30
0.0
 11
33.50000000000003
 21
-12.99999999999954
 31
0.0
  0
LINE
  5
31C
330
2B8
100
AcDbEntity
  8
0
  6
Continuous
 62
     7
100
AcDbLine
 10
30.50000000000003
 20
-16.0
 30
0.0
 11
33.50000000000003
 21
-12.99999999999954
 31
0.0
  0
LINE
  5
31D
330
2B8
100
AcDbEntity
  8
0
  6
Continuous
 62
     7
100
AcDbLine
 10
33.50000000000003
 20
13.00000000000003
 30
0.0
 11
30.49999999999993
 21
16.00000000000003
 31
0.0
  0
LINE
  5
31E
330
2B8
100
AcDbEntity
  8
0
  6
Continuous
 62
     7
100
AcDbLine
 10
33.50000000000003
 20
1.5
 30
0.0
 11
33.8
 21
1.5
 31
0.0
  0
LINE
  5
31F
330
2B8
100
AcDbEntity
  8
0
  6
Continuous
 62
     7
100
AcDbLine
 10
34.10000000000001
 20
1.199999999999988
 30
0.0
 11
34.10000000000001
 21
-1.200000000000038
 31
0.0
  0
ARC
  5
320
330
2B8
100
AcDbEntity
  8
0
  6
Continuous
 62
     7
100
AcDbCircle
 10
33.8
 20
1.199999999999988
 30
0.0
 40
0.3
100
AcDbArc
 50
0.0
 51
90.0
  0
LINE
  5
321
330
2B8
100
AcDbEntity
  8
0
  6
Continuous
 62
     7
100
AcDbLine
 10
33.50000000000003
 20
-1.5
 30
0.0
 11
33.8
 21
-1.5
 31
0.0
  0
ARC
  5
322
330
2B8
100
AcDbEntity
  8
0
  6
Continuous
 62
     7
100
AcDbCircle
 10
33.8
 20
-1.200000000000038
 30
0.0
 40
0.3
100
AcDbArc
 50
270.0
 51
0.0
  0
LINE
  5
323
330
2B8
100
AcDbEntity
  8
0
  6
Continuous
 62
     7
100
AcDbLine
 10
-33.79999999999997
 20
1.5
 30
0.0
 11
-33.49999999999998
 21
1.5
 31
0.0
  0
LINE
  5
324
330
2B8
100
AcDbEntity
  8
0
  6
Continuous
 62
     7
100
AcDbLine
 10
-33.79999999999997
 20
-1.500000000000028
 30
0.0
 11
-33.49999999999998
 21
-1.500000000000028
 31
0.0
  0
LINE
  5
325
330
2B8
100
AcDbEntity
  8
0
  6
Continuous
 62
     7
100
AcDbLine
 10
33.50000000000003
 20
10.50000000000003
 30
0.0
 11
-33.49999999999998
 21
10.50000000000003
 31
0.0
  0
LINE
  5
326
330
2B8
100
AcDbEntity
  8
0
  6
Continuous
 62
     7
100
AcDbLine
 10
33.50000000000003
 20
-10.5
 30
0.0
 11
-33.49999999999998
 21
-10.5
 31
0.0
  0
LINE
  5
327
330
2B8
100
AcDbEntity
  8
0
  6
Continuous
 62
     7
100
AcDbLine
 10
-32.89999999999999
 20
-4.5
 30
0.0
 11
-33.49999999999998
 21
-4.5
 31
0.0
  0
LINE
  5
328
330
2B8
100
AcDbEntity
  8
0
  6
Continuous
 62
     7
100
AcDbLine
 10
32.90000000000001
 20
-4.5
 30
0.0
 11
33.50000000000003
 21
-4.5
 31
0.0
  0
LINE
  5
329
330
2B8
100
AcDbEntity
  8
0
  6
Continuous
 62
     7
100
AcDbLine
 10
-32.89999999999999
 20
5.0
 30
0.0
 11
-33.49999999999998
 21
5.0
 31
0.0
  0
CIRCLE
  5
32A
330
2B8
100
AcDbEntity
  8
0
  6
Continuous
 62
     7
100
AcDbCircle
 10
-21.49999999999998
 20
7.5
 30
0.0
 40
1.25
  0
CIRCLE
  5
32B
330
2B8
100
AcDbEntity
  8
0
  6
Continuous
 62
     7
100
AcDbCircle
 10
-21.49999999999998
 20
-7.5
 30
0.0
 40
1.25
  0
CIRCLE
  5
32C
330
2B8
100
AcDbEntity
  8
0
  6
Continuous
 62
     7
100
AcDbCircle
 10
21.50000000000002
 20
-7.5
 30
0.0
 40
1.25
  0
CIRCLE
  5
32D
330
2B8
100
AcDbEntity
  8
0
  6
Continuous
 62
     7
100
AcDbCircle
 10
21.50000000000002
 20
7.5
 30
0.0
 40
1.25
  0
LINE
  5
32E
330
2B8
100
AcDbEntity
  8
0
  6
Continuous
 62
     2
100
AcDbLine
 10
36.00000000000001
 20
0.0
 30
0.0
 11
-64.62121493947643
 21
0.0
 31
0.0
  0
LINE
  5
32F
330
2B8
100
AcDbEntity
  8
0
  6
Continuous
 62
     2
100
AcDbLine
 10
0.0
 20
19.00000000000003
 30
0.0
 11
0.0
 21
-19.0
 31
0.0
  0
ENDBLK
  5
2BA
330
2B8
100
AcDbEntity
  8
0
100
AcDbBlockEnd
  0
ENDSEC
  0
SECTION
  2
ENTITIES
  0
INSERT
  5
155
330
A
100
AcDbEntity
  8
0
  6
ByBlock
100
AcDbBlockReference
  2
MS_2
 10
112.0000161977914
 20
55.99999999999997
 30
0.0
  0
MTEXT
  5
157
330
A
100
AcDbEntity
  8
0
  6
Continuous
 62
     7
100
AcDbMText
 10
-164.5394709782257
 20
121.3500061035156
 30
0.0
 40
4.5
 41
0.0
 71
     4
 72
     5
  1
{\W0.947;EWHA24A}
 73
     1
 44
1.0
1001
ACAD
1000
ACAD_MTEXT_DEFINED_HEIGHT_BEGIN
1070
    46
1040
0.0
1000
ACAD_MTEXT_DEFINED_HEIGHT_END
1000
MTEXTBEGIN
1070
    73
1070
     1
1070
    44
1040
1.0
1070
    74
1070
     0
1000
MTEXTEND
  0
MTEXT
  5
158
330
A
100
AcDbEntity
  8
0
  6
Continuous
 62
     7
100
AcDbMText
 10
-169.0241898944859
 20
128.8500061035156
 30
0.0
 40
4.5
 41
0.0
 71
     4
 72
     5
  1
\W0.968;\A1;ELE WAVE
 73
     1
 44
1.0
1001
ACAD
1000
MTEXTBEGIN
1070
    73
1070
     1
1070
    44
1040
1.0
1070
    74
1070
     0
1000
MTEXTEND
  0
LINE
  5
159
330
A
100
AcDbEntity
  8
0
  6
Continuous
 62
     7
100
AcDbLine
 10
109.8000030517578
 20
-118.5
 30
0.0
 11
109.8000030517578
 21
-133.5
 31
0.0
  0
LINE
  5
15A
330
A
100
AcDbEntity
  8
0
  6
Continuous
 62
     7
100
AcDbLine
 10
109.8000030517578
 20
-118.5
 30
0.0
 11
194.8000030517578
 21
-118.5
 31
0.0
  0
MTEXT
  5
15B
330
A
100
AcDbEntity
  8
0
  6
Continuous
 62
     7
100
AcDbMText
 10
115.5267259825148
 20
-126.0
 30
0.0
 40
6.300000190734862
 41
0.0
 71
     4
 72
     5
  1
\W1.121;\A1;KOGANEI CORP.
 73
     1
 44
1.0
1001
ACAD
1000
MTEXTBEGIN
1070
    73
1070
     1
1070
    44
1040
1.0
1070
    74
1070
     0
1000
MTEXTEND
  0
LINE
  5
15C
330
A
100
AcDbEntity
  8
0
  6
Continuous
 62
     7
100
AcDbLine
 10
109.8000030517578
 20
132.6000061035156
 30
0.0
 11
109.8000030517578
 21
117.6000061035155
 31
0.0
  0
LINE
  5
15D
330
A
100
AcDbEntity
  8
0
  6
Continuous
 62
     7
100
AcDbLine
 10
109.8000030517578
 20
117.6000061035155
 30
0.0
 11
194.8000030517578
 21
117.6000061035155
 31
0.0
  0
MTEXT
  5
15E
330
A
100
AcDbEntity
  8
0
  6
Continuous
 62
     7
100
AcDbMText
 10
135.2836132057677
 20
125.1000061035156
 30
0.0
 40
4.5
 41
0.0
 71
     4
 72
     5
  1
\W1.311;\A1;Ver. 1.0
 73
     1
 44
1.0
1001
ACAD
1000
MTEXTBEGIN
1070
    73
1070
     1
1070
    44
1040
1.0
1070
    74
1070
     0
1000
MTEXTEND
  0
MTEXT
  5
15F
330
A
100
AcDbEntity
  8
0
  6
Continuous
 62
     7
100
AcDbMText
 10
-185.7285714318557
 20
107.6000061035156
 30
0.0
 40
4.5
 41
0.0
 71
     4
 72
     5
  1
{\W1.029;MODEL:EWHA24A}
 73
     1
 44
1.0
1001
ACAD
1000
ACAD_MTEXT_DEFINED_HEIGHT_BEGIN
1070
    46
1040
0.0
1000
ACAD_MTEXT_DEFINED_HEIGHT_END
1000
MTEXTBEGIN
1070
    73
1070
     1
1070
    44
1040
1.0
1070
    74
1070
     0
1000
MTEXTEND
  0
LINE
  5
160
330
A
100
AcDbEntity
  8
0
  6
Continuous
 62
     7
100
AcDbLine
 10
-194.25
 20
117.6000061035155
 30
0.0
 11
-109.25
 21
117.6000061035155
 31
0.0
  0
LINE
  5
161
330
A
100
AcDbEntity
  8
0
  6
Continuous
 62
     7
100
AcDbLine
 10
-109.25
 20
132.6000061035156
 30
0.0
 11
-109.25
 21
117.6000061035155
 31
0.0
  0
LINE
  5
162
330
A
100
AcDbEntity
  8
0
  6
Continuous
 62
     7
100
AcDbLine
 10
-194.25
 20
132.6000061035156
 30
0.0
 11
194.8000030517578
 21
132.6000061035156
 31
0.0
  0
LINE
  5
163
330
A
100
AcDbEntity
  8
0
  6
Continuous
 62
     7
100
AcDbLine
 10
194.8000030517578
 20
132.6000061035156
 30
0.0
 11
194.8000030517578
 21
-133.5
 31
0.0
  0
LINE
  5
164
330
A
100
AcDbEntity
  8
0
  6
Continuous
 62
     7
100
AcDbLine
 10
-194.25
 20
132.6000061035156
 30
0.0
 11
-194.25
 21
-133.5
 31
0.0
  0
LINE
  5
165
330
A
100
AcDbEntity
  8
0
  6
Continuous
 62
     7
100
AcDbLine
 10
-194.25
 20
-133.5
 30
0.0
 11
194.8000030517578
 21
-133.5
 31
0.0
  0
LINE
  5
192
330
A
100
AcDbEntity
  8
0
  6
Continuous
 62
     2
100
AcDbLine
 10
-51.12569091613054
 20
47.19999999999992
 30
0.0
 11
-82.74950632613624
 21
47.1999999999999
 31
0.0
  0
INSERT
  5
2B7
330
A
100
AcDbEntity
  8
0
  6
Continuous
100
AcDbBlockReference
  2
MS_1
 10
-19.99998387263367
 20
55.99999999999999
 30
0.0
  0
INSERT
  5
330
330
A
100
AcDbEntity
  8
0
  6
Continuous
100
AcDbBlockReference
  2
MS_3
 10
-20.0
 20
-60.0
 30
0.0
  0
ENDSEC
  0
SECTION
  2
OBJECTS
  0
DICTIONARY
  5
19
330
0
100
AcDbDictionary
281
     1
  3
ACAD_COLOR
350
16E
  3
ACAD_GROUP
350
1A
  3
ACAD_LAYOUT
350
171
  3
ACAD_MATERIAL
350
16D
  3
ACAD_MLINESTYLE
350
1B
  3
ACAD_PLOTSETTINGS
350
172
  3
ACAD_PLOTSTYLENAME
350
16B
  3
ACAD_TABLESTYLE
350
16F
  3
ACDBHEADERROUNDTRIPXREC
350
333
  3
AcDbVariableDictionary
350
26A
  3
DWGPROPS
350
332
  0
DICTIONARY
  5
1CA
330
A
100
AcDbDictionary
280
     1
281
     1
  3
ACAD_SORTENTS
360
1CB
  0
DICTIONARY
  5
16E
102
{ACAD_REACTORS
330
19
102
}
330
19
100
AcDbDictionary
281
     1
  0
DICTIONARY
  5
1A
102
{ACAD_REACTORS
330
19
102
}
330
19
100
AcDbDictionary
281
     1
  0
DICTIONARY
  5
171
102
{ACAD_REACTORS
330
19
102
}
330
19
100
AcDbDictionary
281
     1
  3
Model
350
173
  3
レイアウト1
350
174
  0
DICTIONARY
  5
16D
102
{ACAD_REACTORS
330
19
102
}
330
19
100
AcDbDictionary
281
     1
  0
DICTIONARY
  5
1B
102
{ACAD_REACTORS
330
19
102
}
330
19
100
AcDbDictionary
281
     1
  3
STANDARD
350
1C
  0
DICTIONARY
  5
172
102
{ACAD_REACTORS
330
19
102
}
330
19
100
AcDbDictionary
281
     1
  0
ACDBDICTIONARYWDFLT
  5
16B
102
{ACAD_REACTORS
330
19
102
}
330
19
100
AcDbDictionary
281
     1
  3
Normal
350
16C
100
AcDbDictionaryWithDefault
340
16C
  0
DICTIONARY
  5
16F
102
{ACAD_REACTORS
330
19
102
}
330
19
100
AcDbDictionary
281
     1
  3
Standard
350
170
  0
DICTIONARY
  5
333
102
{ACAD_REACTORS
330
19
102
}
330
19
100
AcDbDictionary
281
     1
  0
DICTIONARY
  5
26A
102
{ACAD_REACTORS
330
19
102
}
330
19
100
AcDbDictionary
281
     1
  3
CTABLESTYLE
350
26B
  3
DIMASSOC
350
26C
  3
PROJECTNAME
350
26D
  0
XRECORD
  5
332
102
{ACAD_REACTORS
330
19
102
}
330
19
100
AcDbXrecord
280
     1
  1
DWGPROPS COOKIE
  2

  3

  4

  6

  7

  8

  9

300
=
301
=
302
=
303
=
304
=
305
=
306
=
307
=
308
=
309
=
 40
0.0075842939814815
 41
2453984.744699074
 42
2454495.674852558
  1

 90
        0
  0
SORTENTSTABLE
  5
1CB
102
{ACAD_REACTORS
330
1CA
102
}
330
1CA
100
AcDbSortentsTable
330
A
331
15F
  5
25C
331
158
  5
255
331
155
  5
201
331
160
  5
25D
331
159
  5
256
331
161
  5
25E
331
15A
  5
257
331
157
  5
254
331
162
  5
25F
331
192
  5
21C
331
15B
  5
258
331
163
  5
260
331
15C
  5
259
331
164
  5
268
331
15D
  5
25A
331
165
  5
269
331
15E
  5
25B
  0
LAYOUT
  5
173
102
{ACAD_XDICTIONARY
360
334
102
}
102
{ACAD_REACTORS
330
171
102
}
330
171
100
AcDbPlotSettings
  1

  2
Microsoft Office Document Image Writer
  4

  6

 40
0.0
 41
0.0
 42
0.0
 43
0.0
 44
0.0
 45
0.0
 46
0.0
 47
0.0
 48
0.0
 49
0.0
140
0.0
141
0.0
142
1.0
143
1.0
 70
  1712
 72
     0
 73
     0
 74
     0
  7

 75
     0
147
1.0
148
0.0
149
0.0
100
AcDbLayout
  1
Model
 70
     1
 71
     0
 10
0.0
 20
0.0
 11
12.0
 21
9.0
 12
0.0
 22
0.0
 32
0.0
 14
0.0
 24
0.0
 34
0.0
 15
0.0
 25
0.0
 35
0.0
146
0.0
 13
0.0
 23
0.0
 33
0.0
 16
1.0
 26
0.0
 36
0.0
 17
0.0
 27
1.0
 37
0.0
 76
     0
330
A
  0
LAYOUT
  5
174
102
{ACAD_XDICTIONARY
360
336
102
}
102
{ACAD_REACTORS
330
171
102
}
330
171
100
AcDbPlotSettings
  1

  2
Microsoft Office Document Image Writer
  4

  6

 40
0.0
 41
0.0
 42
0.0
 43
0.0
 44
0.0
 45
0.0
 46
0.0
 47
0.0
 48
0.0
 49
0.0
140
0.0
141
0.0
142
1.0
143
1.0
 70
   688
 72
     0
 73
     0
 74
     5
  7

 75
    16
147
1.0
148
0.0
149
0.0
100
AcDbLayout
  1
レイアウト1
 70
     0
 71
     1
 10
0.0
 20
0.0
 11
12.0
 21
9.0
 12
0.0
 22
0.0
 32
0.0
 14
1.000000000000000E+20
 24
1.000000000000000E+20
 34
1.000000000000000E+20
 15
-1.000000000000000E+20
 25
-1.000000000000000E+20
 35
-1.000000000000000E+20
146
0.0
 13
0.0
 23
0.0
 33
0.0
 16
1.0
 26
0.0
 36
0.0
 17
0.0
 27
1.0
 37
0.0
 76
     0
330
B
  0
MLINESTYLE
  5
1C
102
{ACAD_REACTORS
330
1B
102
}
330
1B
100
AcDbMlineStyle
  2
STANDARD
 70
     0
  3

 62
     0
 51
90.0
 52
90.0
 71
     2
 49
0.5
 62
   256
  6
BYLAYER
 49
-0.5
 62
   256
  6
BYLAYER
  0
ACDBPLACEHOLDER
  5
16C
102
{ACAD_REACTORS
330
16B
102
}
330
16B
  0
TABLESTYLE
  5
170
102
{ACAD_REACTORS
330
16F
102
}
330
16F
100
AcDbTableStyle
  3
Standard
 70
     0
 71
     0
 40
0.06
 41
0.06
280
     0
281
     0
  7
MX_NOTE_STANDARD
140
0.18
170
     2
 62
     0
 63
     7
283
     0
274
    -2
284
     1
 64
     0
275
    -2
285
     1
 65
     0
276
    -2
286
     1
 66
     0
277
    -2
287
     1
 67
     0
278
    -2
288
     1
 68
     0
279
    -2
289
     1
 69
     0
  7
MX_NOTE_STANDARD
140
0.25
170
     5
 62
     0
 63
     7
283
     0
274
    -2
284
     1
 64
     0
275
    -2
285
     1
 65
     0
276
    -2
286
     1
 66
     0
277
    -2
287
     1
 67
     0
278
    -2
288
     1
 68
     0
279
    -2
289
     1
 69
     0
  7
MX_NOTE_STANDARD
140
0.18
170
     5
 62
     0
 63
     7
283
     0
274
    -2
284
     1
 64
     0
275
    -2
285
     1
 65
     0
276
    -2
286
     1
 66
     0
277
    -2
287
     1
 67
     0
278
    -2
288
     1
 68
     0
279
    -2
289
     1
 69
     0
  0
DICTIONARYVAR
  5
26B
102
{ACAD_REACTORS
330
26A
102
}
330
26A
100
DictionaryVariables
280
     0
  1
STANDARD
  0
DICTIONARYVAR
  5
26C
102
{ACAD_REACTORS
330
26A
102
}
330
26A
100
DictionaryVariables
280
     0
  1
1
  0
DICTIONARYVAR
  5
26D
102
{ACAD_REACTORS
330
26A
102
}
330
26A
100
DictionaryVariables
280
     0
  1

  0
DICTIONARY
  5
334
330
173
100
AcDbDictionary
280
     1
281
     1
  3
ACAD_XREC_ROUNDTRIP
360
335
  0
DICTIONARY
  5
336
330
174
100
AcDbDictionary
280
     1
281
     1
  3
ACAD_XREC_ROUNDTRIP
360
337
  0
XRECORD
  5
335
102
{ACAD_REACTORS
330
334
102
}
330
334
100
AcDbXrecord
280
     1
102
SHADEPLOT
 70
     0
102
SHADEPLOTRESLEVEL
 70
     2
102
SHADEPLOTCUSTOMDPI
 70
   300
  0
XRECORD
  5
337
102
{ACAD_REACTORS
330
336
102
}
330
336
100
AcDbXrecord
280
     1
102
SHADEPLOT
 70
     0
102
SHADEPLOTRESLEVEL
 70
     2
102
SHADEPLOTCUSTOMDPI
 70
   300
  0
ENDSEC
  0
EOF
