  0
SECTION
  2
HEADER
  9
$ACADVER
  1
AC1015
  9
$ACADMAINTVER
 70
    20
  9
$DWGCODEPAGE
  3
ANSI_932
  9
$INSBASE
 10
0.0
 20
0.0
 30
0.0
  9
$EXTMIN
 10
-194.25
 20
-133.5
 30
0.0
  9
$EXTMAX
 10
197.9202284770089
 20
132.6000061035156
 30
0.0
  9
$LIMMIN
 10
-194.25
 20
-133.5
  9
$LIMMAX
 10
196.2500042915344
 20
132.6000061035156
  9
$ORTHOMODE
 70
     0
  9
$REGENMODE
 70
     1
  9
$FILLMODE
 70
     1
  9
$QTEXTMODE
 70
     0
  9
$MIRRTEXT
 70
     1
  9
$LTSCALE
 40
1.0
  9
$ATTMODE
 70
     1
  9
$TEXTSIZE
 40
3.200000047683714
  9
$TRACEWID
 40
0.05
  9
$TEXTSTYLE
  7
MX_NOTE_STANDARD
  9
$CLAYER
  8
0
  9
$CELTYPE
  6
CONTINUOUS
  9
$CECOLOR
 62
   256
  9
$CELTSCALE
 40
1.0
  9
$DISPSILH
 70
     0
  9
$DIMSCALE
 40
1.0
  9
$DIMASZ
 40
2.5
  9
$DIMEXO
 40
1.5
  9
$DIMDLI
 40
3.75
  9
$DIMRND
 40
0.0
  9
$DIMDLE
 40
0.0
  9
$DIMEXE
 40
1.5
  9
$DIMTP
 40
0.0
  9
$DIMTM
 40
0.0
  9
$DIMTXT
 40
3.200000047683714
  9
$DIMCEN
 40
2.5
  9
$DIMTSZ
 40
0.0
  9
$DIMTOL
 70
     0
  9
$DIMLIM
 70
     0
  9
$DIMTIH
 70
     0
  9
$DIMTOH
 70
     0
  9
$DIMSE1
 70
     0
  9
$DIMSE2
 70
     0
  9
$DIMTAD
 70
     1
  9
$DIMZIN
 70
     8
  9
$DIMBLK
  1

  9
$DIMASO
 70
     1
  9
$DIMSHO
 70
     1
  9
$DIMPOST
  1

  9
$DIMAPOST
  1

  9
$DIMALT
 70
     0
  9
$DIMALTD
 70
     4
  9
$DIMALTF
 40
0.03937007874016
  9
$DIMLFAC
 40
1.0
  9
$DIMTOFL
 70
     1
  9
$DIMTVP
 40
0.0
  9
$DIMTIX
 70
     0
  9
$DIMSOXD
 70
     0
  9
$DIMSAH
 70
     0
  9
$DIMBLK1
  1

  9
$DIMBLK2
  1

  9
$DIMSTYLE
  2
MXDIMSTYLE
  9
$DIMCLRD
 70
     0
  9
$DIMCLRE
 70
     0
  9
$DIMCLRT
 70
     0
  9
$DIMTFAC
 40
1.0
  9
$DIMGAP
 40
1.0
  9
$DIMJUST
 70
     0
  9
$DIMSD1
 70
     0
  9
$DIMSD2
 70
     0
  9
$DIMTOLJ
 70
     1
  9
$DIMTZIN
 70
     0
  9
$DIMALTZ
 70
     0
  9
$DIMALTTZ
 70
     0
  9
$DIMUPT
 70
     0
  9
$DIMDEC
 70
     4
  9
$DIMTDEC
 70
     4
  9
$DIMALTU
 70
     2
  9
$DIMALTTD
 70
     2
  9
$DIMTXSTY
  7
STANDARD
  9
$DIMAUNIT
 70
     0
  9
$DIMADEC
 70
     0
  9
$DIMALTRND
 40
0.0
  9
$DIMAZIN
 70
     0
  9
$DIMDSEP
 70
    46
  9
$DIMATFIT
 70
     3
  9
$DIMFRAC
 70
     0
  9
$DIMLDRBLK
  1

  9
$DIMLUNIT
 70
     2
  9
$DIMLWD
 70
    -2
  9
$DIMLWE
 70
    -2
  9
$DIMTMOVE
 70
     0
  9
$LUNITS
 70
     2
  9
$LUPREC
 70
     4
  9
$SKETCHINC
 40
0.1
  9
$FILLETRAD
 40
0.0
  9
$AUNITS
 70
     0
  9
$AUPREC
 70
     0
  9
$MENU
  1
acad
  9
$ELEVATION
 40
0.0
  9
$PELEVATION
 40
0.0
  9
$THICKNESS
 40
0.0
  9
$LIMCHECK
 70
     0
  9
$CHAMFERA
 40
0.0
  9
$CHAMFERB
 40
0.0
  9
$CHAMFERC
 40
0.0
  9
$CHAMFERD
 40
0.0
  9
$SKPOLY
 70
     0
  9
$TDCREATE
 40
2453797.695000000
  9
$TDUCREATE
 40
2453797.320000000
  9
$TDUPDATE
 40
2454495.726025544
  9
$TDUUPDATE
 40
2454495.351025544
  9
$TDINDWG
 40
0.0029728356
  9
$TDUSRTIMER
 40
0.0029585069
  9
$USRTIMER
 70
     1
  9
$ANGBASE
 50
0.0
  9
$ANGDIR
 70
     0
  9
$PDMODE
 70
     0
  9
$PDSIZE
 40
0.0
  9
$PLINEWID
 40
0.0
  9
$SPLFRAME
 70
     0
  9
$SPLINETYPE
 70
     6
  9
$SPLINESEGS
 70
     8
  9
$HANDSEED
  5
347
  9
$SURFTAB1
 70
     6
  9
$SURFTAB2
 70
     6
  9
$SURFTYPE
 70
     6
  9
$SURFU
 70
     6
  9
$SURFV
 70
     6
  9
$UCSBASE
  2

  9
$UCSNAME
  2

  9
$UCSORG
 10
0.0
 20
0.0
 30
0.0
  9
$UCSXDIR
 10
1.0
 20
0.0
 30
0.0
  9
$UCSYDIR
 10
0.0
 20
1.0
 30
0.0
  9
$UCSORTHOREF
  2

  9
$UCSORTHOVIEW
 70
     0
  9
$UCSORGTOP
 10
0.0
 20
0.0
 30
0.0
  9
$UCSORGBOTTOM
 10
0.0
 20
0.0
 30
0.0
  9
$UCSORGLEFT
 10
0.0
 20
0.0
 30
0.0
  9
$UCSORGRIGHT
 10
0.0
 20
0.0
 30
0.0
  9
$UCSORGFRONT
 10
0.0
 20
0.0
 30
0.0
  9
$UCSORGBACK
 10
0.0
 20
0.0
 30
0.0
  9
$PUCSBASE
  2

  9
$PUCSNAME
  2

  9
$PUCSORG
 10
0.0
 20
0.0
 30
0.0
  9
$PUCSXDIR
 10
1.0
 20
0.0
 30
0.0
  9
$PUCSYDIR
 10
0.0
 20
1.0
 30
0.0
  9
$PUCSORTHOREF
  2

  9
$PUCSORTHOVIEW
 70
     0
  9
$PUCSORGTOP
 10
0.0
 20
0.0
 30
0.0
  9
$PUCSORGBOTTOM
 10
0.0
 20
0.0
 30
0.0
  9
$PUCSORGLEFT
 10
0.0
 20
0.0
 30
0.0
  9
$PUCSORGRIGHT
 10
0.0
 20
0.0
 30
0.0
  9
$PUCSORGFRONT
 10
0.0
 20
0.0
 30
0.0
  9
$PUCSORGBACK
 10
0.0
 20
0.0
 30
0.0
  9
$USERI1
 70
     0
  9
$USERI2
 70
     0
  9
$USERI3
 70
     0
  9
$USERI4
 70
     0
  9
$USERI5
 70
     0
  9
$USERR1
 40
0.0
  9
$USERR2
 40
0.0
  9
$USERR3
 40
0.0
  9
$USERR4
 40
0.0
  9
$USERR5
 40
0.0
  9
$WORLDVIEW
 70
     1
  9
$SHADEDGE
 70
     3
  9
$SHADEDIF
 70
    70
  9
$TILEMODE
 70
     1
  9
$MAXACTVP
 70
    16
  9
$PINSBASE
 10
0.0
 20
0.0
 30
0.0
  9
$PLIMCHECK
 70
     0
  9
$PEXTMIN
 10
1.000000000000000E+20
 20
1.000000000000000E+20
 30
1.000000000000000E+20
  9
$PEXTMAX
 10
-1.000000000000000E+20
 20
-1.000000000000000E+20
 30
-1.000000000000000E+20
  9
$PLIMMIN
 10
0.0
 20
0.0
  9
$PLIMMAX
 10
12.0
 20
9.0
  9
$UNITMODE
 70
     0
  9
$VISRETAIN
 70
     0
  9
$PLINEGEN
 70
     1
  9
$PSLTSCALE
 70
     0
  9
$TREEDEPTH
 70
  3020
  9
$CMLSTYLE
  2
Standard
  9
$CMLJUST
 70
     0
  9
$CMLSCALE
 40
1.0
  9
$PROXYGRAPHICS
 70
     1
  9
$MEASUREMENT
 70
     0
  9
$CELWEIGHT
370
    -1
  9
$ENDCAPS
280
     0
  9
$JOINSTYLE
280
     0
  9
$LWDISPLAY
290
     0
  9
$INSUNITS
 70
     0
  9
$HYPERLINKBASE
  1

  9
$STYLESHEET
  1

  9
$XEDIT
290
     1
  9
$CEPSNTYPE
380
     0
  9
$PSTYLEMODE
290
     1
  9
$FINGERPRINTGUID
  2
{9F0130A3-9CB3-485E-8D23-1F485BFCB3E1}
  9
$VERSIONGUID
  2
{84983269-4EF9-4266-8224-6E0288868AB4}
  9
$EXTNAMES
290
     1
  9
$PSVPSCALE
 40
0.0
  9
$OLESTARTUP
290
     0
  0
ENDSEC
  0
SECTION
  2
CLASSES
  0
CLASS
  1
ACDBDICTIONARYWDFLT
  2
AcDbDictionaryWithDefault
  3
ObjectDBX Classes
 90
        0
280
     0
281
     0
  0
CLASS
  1
TABLESTYLE
  2
AcDbTableStyle
  3
ObjectDBX Classes
 90
     2047
280
     0
281
     0
  0
CLASS
  1
SORTENTSTABLE
  2
AcDbSortentsTable
  3
ObjectDBX Classes
 90
        0
280
     0
281
     0
  0
CLASS
  1
DICTIONARYVAR
  2
AcDbDictionaryVar
  3
ObjectDBX Classes
 90
        0
280
     0
281
     0
  0
CLASS
  1
ACDBPLACEHOLDER
  2
AcDbPlaceHolder
  3
ObjectDBX Classes
 90
        0
280
     0
281
     0
  0
CLASS
  1
LAYOUT
  2
AcDbLayout
  3
ObjectDBX Classes
 90
        0
280
     0
281
     0
  0
ENDSEC
  0
SECTION
  2
TABLES
  0
TABLE
  2
VPORT
  5
1C3
330
0
100
AcDbSymbolTable
 70
     2
  0
VPORT
  5
340
330
1C3
100
AcDbSymbolTableRecord
100
AcDbViewportTableRecord
  2
*Active
 70
     0
 10
0.0
 20
0.0
 11
1.0
 21
1.0
 12
7.193999918610415
 22
-3.264498510920844
 13
0.0
 23
0.0
 14
1.0
 24
1.0
 15
0.0
 25
0.0
 16
0.0
 26
0.0
 36
1.0
 17
0.0
 27
0.0
 37
0.0
 40
347.7349172759425
 41
1.540229885057471
 42
50.0
 43
0.0
 44
0.0
 50
0.0
 51
0.0
 71
     0
 72
   100
 73
     1
 74
     1
 75
     0
 76
     0
 77
     0
 78
     0
281
     0
 65
     0
110
0.0
120
0.0
130
0.0
111
1.0
121
0.0
131
0.0
112
0.0
122
1.0
132
0.0
 79
     0
146
0.0
  0
ENDTAB
  0
TABLE
  2
LTYPE
  5
1C0
330
0
100
AcDbSymbolTable
 70
     4
  0
LTYPE
  5
1CE
330
1C0
100
AcDbSymbolTableRecord
100
AcDbLinetypeTableRecord
  2
ByBlock
 70
     0
  3

 72
    65
 73
     0
 40
0.0
  0
LTYPE
  5
1CF
330
1C0
100
AcDbSymbolTableRecord
100
AcDbLinetypeTableRecord
  2
ByLayer
 70
     0
  3

 72
    65
 73
     0
 40
0.0
  0
LTYPE
  5
1D0
330
1C0
100
AcDbSymbolTableRecord
100
AcDbLinetypeTableRecord
  2
CONTINUOUS
 70
     0
  3
Solid line
 72
    65
 73
     0
 40
0.0
  0
LTYPE
  5
1E3
330
1C0
100
AcDbSymbolTableRecord
100
AcDbLinetypeTableRecord
  2
CENTER
 70
     0
  3
Center ____ _ ____ _ ____ _ ____ _ ____ _ ____
 72
    65
 73
     4
 40
26.0
 49
20.0
 74
     0
 49
-2.0
 74
     0
 49
2.0
 74
     0
 49
-2.0
 74
     0
  0
LTYPE
  5
1E4
330
1C0
100
AcDbSymbolTableRecord
100
AcDbLinetypeTableRecord
  2
PHANTOM
 70
     0
  3
Phantom ______  __  __  ______  __  __  ______
 72
    65
 73
     6
 40
30.0
 49
20.0
 74
     0
 49
-2.0
 74
     0
 49
2.0
 74
     0
 49
-2.0
 74
     0
 49
2.0
 74
     0
 49
-2.0
 74
     0
  0
LTYPE
  5
1E5
330
1C0
100
AcDbSymbolTableRecord
100
AcDbLinetypeTableRecord
  2
DASHED
 70
     0
  3
Dashed __ __ __ __ __ __ __ __ __ __ __ __ __ _
 72
    65
 73
     2
 40
4.0
 49
2.0
 74
     0
 49
-2.0
 74
     0
  0
ENDTAB
  0
TABLE
  2
LAYER
  5
1BD
330
0
100
AcDbSymbolTable
 70
     2
  0
LAYER
  5
1CB
330
1BD
100
AcDbSymbolTableRecord
100
AcDbLayerTableRecord
  2
0
 70
     0
 62
     7
  6
CONTINUOUS
370
    -3
390
1CA
  0
ENDTAB
  0
TABLE
  2
STYLE
  5
1BE
330
0
100
AcDbSymbolTable
 70
     2
  0
STYLE
  5
1CC
330
1BE
100
AcDbSymbolTableRecord
100
AcDbTextStyleTableRecord
  2
STANDARD
 70
     0
 40
0.0
 41
1.0
 50
0.0
 71
     0
 42
0.2
  3
txt
  4

  0
STYLE
  5
1E1
330
1BE
100
AcDbSymbolTableRecord
100
AcDbTextStyleTableRecord
  2
MX_NOTE_STANDARD
 70
     0
 40
0.0
 41
1.0
 50
0.0
 71
     0
 42
3.200000047683714
  3
txt.shx
  4
extfont.shx
  0
ENDTAB
  0
TABLE
  2
VIEW
  5
1C1
330
0
100
AcDbSymbolTable
 70
     0
  0
ENDTAB
  0
TABLE
  2
UCS
  5
1C2
330
0
100
AcDbSymbolTable
 70
     0
  0
ENDTAB
  0
TABLE
  2
APPID
  5
1C4
330
0
100
AcDbSymbolTable
 70
     1
  0
APPID
  5
1CD
330
1C4
100
AcDbSymbolTableRecord
100
AcDbRegAppTableRecord
  2
ACAD
 70
     0
  0
ENDTAB
  0
TABLE
  2
DIMSTYLE
  5
1C5
330
0
100
AcDbSymbolTable
 70
     1
100
AcDbDimStyleTable
 71
     0
  0
DIMSTYLE
105
1E7
330
1C5
100
AcDbSymbolTableRecord
100
AcDbDimStyleTableRecord
  2
MXDIMSTYLE
 70
     0
 41
2.5
 42
1.5
 43
3.75
 44
1.5
 73
     0
 74
     0
 77
     1
 78
     8
140
3.200000047683714
141
2.5
143
0.03937007874016
147
1.0
171
     4
172
     1
274
     4
279
     2
284
     8
285
     8
286
     8
340
1E1
  0
ENDTAB
  0
TABLE
  2
BLOCK_RECORD
  5
1BC
330
0
100
AcDbSymbolTable
 70
    11
  0
BLOCK_RECORD
  5
1DD
102
{ACAD_XDICTIONARY
360
255
102
}
330
1BC
100
AcDbSymbolTableRecord
100
AcDbBlockTableRecord
  2
*Model_Space
340
1E0
  0
BLOCK_RECORD
  5
1D9
330
1BC
100
AcDbSymbolTableRecord
100
AcDbBlockTableRecord
  2
*Paper_Space
340
1DC
  0
BLOCK_RECORD
  5
1F0
330
1BC
100
AcDbSymbolTableRecord
100
AcDbBlockTableRecord
  2
EWHRT3-2
340
0
102
{BLKREFS
331
172
102
}
  0
BLOCK_RECORD
  5
1F4
330
1BC
100
AcDbSymbolTableRecord
100
AcDbBlockTableRecord
  2
*U5
340
0
102
{BLKREFS
331
174
102
}
  0
BLOCK_RECORD
  5
1F6
330
1BC
100
AcDbSymbolTableRecord
100
AcDbBlockTableRecord
  2
*U6
340
0
  0
BLOCK_RECORD
  5
1F8
330
1BC
100
AcDbSymbolTableRecord
100
AcDbBlockTableRecord
  2
*U7
340
0
  0
BLOCK_RECORD
  5
1FA
330
1BC
100
AcDbSymbolTableRecord
100
AcDbBlockTableRecord
  2
*U8
340
0
  0
BLOCK_RECORD
  5
1FC
330
1BC
100
AcDbSymbolTableRecord
100
AcDbBlockTableRecord
  2
*U9
340
0
  0
BLOCK_RECORD
  5
1FE
330
1BC
100
AcDbSymbolTableRecord
100
AcDbBlockTableRecord
  2
*U10
340
0
102
{BLKREFS
331
184
102
}
  0
ENDTAB
  0
ENDSEC
  0
SECTION
  2
BLOCKS
  0
BLOCK
  5
1DE
330
1DD
100
AcDbEntity
  8
0
100
AcDbBlockBegin
  2
*Model_Space
 70
     0
 10
0.0
 20
0.0
 30
0.0
  3
*Model_Space
  1

  0
ENDBLK
  5
1DF
330
1DD
100
AcDbEntity
  8
0
100
AcDbBlockEnd
  0
BLOCK
  5
1DA
330
1D9
100
AcDbEntity
 67
     1
  8
0
100
AcDbBlockBegin
  2
*Paper_Space
 70
     0
 10
0.0
 20
0.0
 30
0.0
  3
*Paper_Space
  1

  0
ENDBLK
  5
1DB
330
1D9
100
AcDbEntity
 67
     1
  8
0
100
AcDbBlockEnd
  0
BLOCK
  5
1F1
330
1F0
100
AcDbEntity
  8
0
100
AcDbBlockBegin
  2
EWHRT3-2
 70
     0
 10
0.0
 20
0.0
 30
0.0
  3
EWHRT3-2
  1

  0
ARC
  5
7A
330
1F0
100
AcDbEntity
  8
0
  6
Continuous
 62
     7
100
AcDbCircle
 10
24.19999999999999
 20
43.7
 30
0.0
 40
0.8
100
AcDbArc
 50
0.0
 51
90.0
  0
ARC
  5
7B
330
1F0
100
AcDbEntity
  8
0
  6
Continuous
 62
     7
100
AcDbCircle
 10
-24.20000000000001
 20
43.7
 30
0.0
 40
0.8
100
AcDbArc
 50
90.0
 51
180.0
  0
LINE
  5
7C
330
1F0
100
AcDbEntity
  8
0
  6
CENTER
 62
     2
100
AcDbLine
 10
0.0
 20
58.00000000000002
 30
0.0
 11
0.0
 21
-5.0
 31
0.0
  0
LINE
  5
7D
330
1F0
100
AcDbEntity
  8
0
  6
Continuous
 62
     2
100
AcDbLine
 10
21.0
 20
-2.5
 30
0.0
 11
21.0
 21
2.5
 31
0.0
  0
LINE
  5
7E
330
1F0
100
AcDbEntity
  8
0
  6
Continuous
 62
     2
100
AcDbLine
 10
-21.0
 20
-2.5
 30
0.0
 11
-21.0
 21
2.5
 31
0.0
  0
LINE
  5
7F
330
1F0
100
AcDbEntity
  8
0
  6
Continuous
 62
     7
100
AcDbLine
 10
-22.0
 20
48.50000000000002
 30
0.0
 11
-22.0
 21
53.00000000000002
 31
0.0
  0
LINE
  5
80
330
1F0
100
AcDbEntity
  8
0
  6
Continuous
 62
     7
100
AcDbLine
 10
22.0
 20
48.50000000000002
 30
0.0
 11
22.0
 21
53.00000000000002
 31
0.0
  0
LINE
  5
81
330
1F0
100
AcDbEntity
  8
0
  6
Continuous
 62
     7
100
AcDbLine
 10
-22.0
 20
53.00000000000002
 30
0.0
 11
22.0
 21
53.00000000000002
 31
0.0
  0
LINE
  5
82
330
1F0
100
AcDbEntity
  8
0
  6
Continuous
 62
     7
100
AcDbLine
 10
16.0
 20
44.50000000000001
 30
0.0
 11
16.0
 21
48.50000000000002
 31
0.0
  0
LINE
  5
83
330
1F0
100
AcDbEntity
  8
0
  6
Continuous
 62
     7
100
AcDbLine
 10
-16.0
 20
44.50000000000001
 30
0.0
 11
-16.0
 21
48.50000000000002
 31
0.0
  0
LINE
  5
84
330
1F0
100
AcDbEntity
  8
0
  6
Continuous
 62
     7
100
AcDbLine
 10
24.0
 20
44.50000000000001
 30
0.0
 11
24.0
 21
48.50000000000002
 31
0.0
  0
LINE
  5
85
330
1F0
100
AcDbEntity
  8
0
  6
Continuous
 62
     7
100
AcDbLine
 10
-24.0
 20
44.50000000000001
 30
0.0
 11
-24.0
 21
48.50000000000002
 31
0.0
  0
LINE
  5
86
330
1F0
100
AcDbEntity
  8
0
  6
Continuous
 62
     7
100
AcDbLine
 10
17.0
 20
5.0
 30
0.0
 11
17.0
 21
44.50000000000001
 31
0.0
  0
LINE
  5
87
330
1F0
100
AcDbEntity
  8
0
  6
Continuous
 62
     7
100
AcDbLine
 10
-17.0
 20
5.0
 30
0.0
 11
-17.0
 21
44.50000000000001
 31
0.0
  0
LINE
  5
88
330
1F0
100
AcDbEntity
  8
0
  6
Continuous
 62
     7
100
AcDbLine
 10
25.0
 20
0.0
 30
0.0
 11
25.0
 21
43.7
 31
0.0
  0
LINE
  5
89
330
1F0
100
AcDbEntity
  8
0
  6
Continuous
 62
     7
100
AcDbLine
 10
-25.0
 20
0.0
 30
0.0
 11
-25.0
 21
43.7
 31
0.0
  0
LINE
  5
8A
330
1F0
100
AcDbEntity
  8
0
  6
Continuous
 62
     7
100
AcDbLine
 10
-24.20000000000001
 20
44.50000000000001
 30
0.0
 11
24.19999999999999
 21
44.50000000000001
 31
0.0
  0
LINE
  5
8B
330
1F0
100
AcDbEntity
  8
0
  6
Continuous
 62
     7
100
AcDbLine
 10
-24.0
 20
48.50000000000002
 30
0.0
 11
24.0
 21
48.50000000000002
 31
0.0
  0
LINE
  5
8C
330
1F0
100
AcDbEntity
  8
0
  6
Continuous
 62
     7
100
AcDbLine
 10
-25.0
 20
5.0
 30
0.0
 11
25.0
 21
5.0
 31
0.0
  0
LINE
  5
8D
330
1F0
100
AcDbEntity
  8
0
  6
Continuous
 62
     7
100
AcDbLine
 10
-25.0
 20
0.0
 30
0.0
 11
25.0
 21
0.0
 31
0.0
  0
ENDBLK
  5
8E
330
1F0
100
AcDbEntity
  8
0
100
AcDbBlockEnd
  0
BLOCK
  5
1F5
330
1F4
100
AcDbEntity
  8
0
100
AcDbBlockBegin
  2
*U5
 70
     1
 10
0.0
 20
0.0
 30
0.0
  3
*U5
  1

  0
TEXT
  5
1A1
330
1F4
100
AcDbEntity
  8
0
  6
Continuous
 62
     7
100
AcDbText
 10
115.5267259825148
 20
-129.1500000953674
 30
0.0
 40
6.300000190734863
  1
KOGANEI CORP.
 41
1.120999999999999
100
AcDbText
  0
ENDBLK
  5
1A3
330
1F4
100
AcDbEntity
  8
0
100
AcDbBlockEnd
  0
BLOCK
  5
1F7
330
1F6
100
AcDbEntity
  8
0
100
AcDbBlockBegin
  2
*U6
 70
     1
 10
0.0
 20
0.0
 30
0.0
  3
*U6
  1

  0
TEXT
  5
1A5
330
1F6
100
AcDbEntity
  8
0
  6
Continuous
 62
     7
100
AcDbText
 10
135.3112425902714
 20
122.8500061035155
 30
0.0
 40
4.5
  1
Ver. 1.1
 41
1.348
100
AcDbText
  0
ENDBLK
  5
1A7
330
1F6
100
AcDbEntity
  8
0
100
AcDbBlockEnd
  0
BLOCK
  5
1F9
330
1F8
100
AcDbEntity
  8
0
100
AcDbBlockBegin
  2
*U7
 70
     1
 10
0.0
 20
0.0
 30
0.0
  3
*U7
  1

  0
TEXT
  5
1A9
330
1F8
100
AcDbEntity
  8
0
  6
Continuous
 62
     7
100
AcDbText
 10
-185.7285714318557
 20
105.3500061035156
 30
0.0
 40
4.5
  1
MODEL:EWHRT3
 41
1.028999999999999
100
AcDbText
  0
ENDBLK
  5
1AB
330
1F8
100
AcDbEntity
  8
0
100
AcDbBlockEnd
  0
BLOCK
  5
1FB
330
1FA
100
AcDbEntity
  8
0
100
AcDbBlockBegin
  2
*U8
 70
     1
 10
0.0
 20
0.0
 30
0.0
  3
*U8
  1

  0
TEXT
  5
1AD
330
1FA
100
AcDbEntity
  8
0
  6
Continuous
 62
     7
100
AcDbText
 10
-164.5394709782257
 20
119.1000061035156
 30
0.0
 40
4.5
  1
EWHRT3
 41
0.947
100
AcDbText
  0
ENDBLK
  5
1AF
330
1FA
100
AcDbEntity
  8
0
100
AcDbBlockEnd
  0
BLOCK
  5
1FD
330
1FC
100
AcDbEntity
  8
0
100
AcDbBlockBegin
  2
*U9
 70
     1
 10
0.0
 20
0.0
 30
0.0
  3
*U9
  1

  0
TEXT
  5
1B1
330
1FC
100
AcDbEntity
  8
0
  6
Continuous
 62
     7
100
AcDbText
 10
-169.0241898944859
 20
126.6000061035156
 30
0.0
 40
4.5
  1
ELE WAVE
 41
0.9679999999999999
100
AcDbText
  0
ENDBLK
  5
1B3
330
1FC
100
AcDbEntity
  8
0
100
AcDbBlockEnd
  0
BLOCK
  5
1FF
330
1FE
100
AcDbEntity
  8
0
100
AcDbBlockBegin
  2
*U10
 70
     1
 10
0.0
 20
0.0
 30
0.0
  3
*U10
  1

  0
TEXT
  5
1B5
330
1FE
100
AcDbEntity
  8
0
  6
Continuous
 62
     7
100
AcDbText
 10
115.5267259825148
 20
-129.1500000953674
 30
0.0
 40
6.300000190734863
  1
KOGANEI CORP.
 41
1.120999999999999
100
AcDbText
  0
ENDBLK
  5
1B7
330
1FE
100
AcDbEntity
  8
0
100
AcDbBlockEnd
  0
ENDSEC
  0
SECTION
  2
ENTITIES
  0
INSERT
  5
172
330
1DD
100
AcDbEntity
  8
0
  6
ByBlock
100
AcDbBlockReference
  2
EWHRT3-2
 10
120.0
 20
-70.0
 30
0.0
  0
INSERT
  5
174
330
1DD
100
AcDbEntity
  8
0
  6
Continuous
100
AcDbBlockReference
  2
*U5
 10
0.0
 20
0.0
 30
0.0
  0
LINE
  5
17A
330
1DD
100
AcDbEntity
  8
0
  6
Continuous
 62
     7
100
AcDbLine
 10
-194.25
 20
132.6000061035156
 30
0.0
 11
194.8000030517578
 21
132.6000061035156
 31
0.0
  0
LINE
  5
17B
330
1DD
100
AcDbEntity
  8
0
  6
Continuous
 62
     7
100
AcDbLine
 10
194.8000030517578
 20
132.6000061035156
 30
0.0
 11
194.8000030517578
 21
-133.5
 31
0.0
  0
LINE
  5
17C
330
1DD
100
AcDbEntity
  8
0
  6
Continuous
 62
     7
100
AcDbLine
 10
-194.25
 20
132.6000061035156
 30
0.0
 11
-194.25
 21
-133.5
 31
0.0
  0
LINE
  5
17D
330
1DD
100
AcDbEntity
  8
0
  6
Continuous
 62
     7
100
AcDbLine
 10
-194.25
 20
-133.5
 30
0.0
 11
194.8000030517578
 21
-133.5
 31
0.0
  0
LINE
  5
17E
330
1DD
100
AcDbEntity
  8
0
  6
Continuous
 62
     7
100
AcDbLine
 10
109.8000030517578
 20
-118.5
 30
0.0
 11
109.8000030517578
 21
-133.5
 31
0.0
  0
LINE
  5
17F
330
1DD
100
AcDbEntity
  8
0
  6
Continuous
 62
     7
100
AcDbLine
 10
109.8000030517578
 20
-118.5
 30
0.0
 11
194.8000030517578
 21
-118.5
 31
0.0
  0
LINE
  5
180
330
1DD
100
AcDbEntity
  8
0
  6
Continuous
 62
     7
100
AcDbLine
 10
109.8000030517578
 20
132.6000061035156
 30
0.0
 11
109.8000030517578
 21
117.6000061035155
 31
0.0
  0
LINE
  5
181
330
1DD
100
AcDbEntity
  8
0
  6
Continuous
 62
     7
100
AcDbLine
 10
109.8000030517578
 20
117.6000061035155
 30
0.0
 11
194.8000030517578
 21
117.6000061035155
 31
0.0
  0
LINE
  5
182
330
1DD
100
AcDbEntity
  8
0
  6
Continuous
 62
     7
100
AcDbLine
 10
-194.25
 20
117.6000061035155
 30
0.0
 11
-109.25
 21
117.6000061035155
 31
0.0
  0
LINE
  5
183
330
1DD
100
AcDbEntity
  8
0
  6
Continuous
 62
     7
100
AcDbLine
 10
-109.25
 20
132.6000061035156
 30
0.0
 11
-109.25
 21
117.6000061035155
 31
0.0
  0
INSERT
  5
184
330
1DD
100
AcDbEntity
  8
0
  6
Continuous
100
AcDbBlockReference
  2
*U10
 10
0.0
 20
0.0
 30
0.0
  0
LINE
  5
201
330
1DD
100
AcDbEntity
  8
0
  6
Continuous
 62
     7
100
AcDbLine
 10
-9.0
 20
-25.49999999999999
 30
0.0
 11
-9.0
 21
-21.49999999999998
 31
0.0
  0
LINE
  5
202
330
1DD
100
AcDbEntity
  8
0
  6
Continuous
 62
     7
100
AcDbLine
 10
-71.0
 20
-25.49999999999999
 30
0.0
 11
-71.0
 21
-21.49999999999998
 31
0.0
  0
LINE
  5
203
330
1DD
100
AcDbEntity
  8
0
  6
Continuous
 62
     2
100
AcDbLine
 10
-76.0
 20
-67.5
 30
0.0
 11
-76.0
 21
-72.5
 31
0.0
  0
LINE
  5
204
330
1DD
100
AcDbEntity
  8
0
  6
Continuous
 62
     2
100
AcDbLine
 10
-4.0
 20
-67.5
 30
0.0
 11
-4.0
 21
-72.5
 31
0.0
  0
LINE
  5
205
330
1DD
100
AcDbEntity
  8
0
  6
CENTER
 62
     2
100
AcDbLine
 10
-40.0
 20
-75.0
 30
0.0
 11
-40.0
 21
-11.99999999999998
 31
0.0
  0
LINE
  5
206
330
1DD
100
AcDbEntity
  8
0
  6
Continuous
 62
     7
100
AcDbLine
 10
-0.0000000000000355
 20
-70.0
 30
0.0
 11
-80.0
 21
-70.0
 31
0.0
  0
LINE
  5
207
330
1DD
100
AcDbEntity
  8
0
  6
Continuous
 62
     7
100
AcDbLine
 10
-0.0000000000000355
 20
-65.0
 30
0.0
 11
-82.0
 21
-65.0
 31
0.0
  0
LINE
  5
208
330
1DD
100
AcDbEntity
  8
0
  6
Continuous
 62
     7
100
AcDbLine
 10
-0.8000000000000113
 20
-25.49999999999999
 30
0.0
 11
-79.2
 21
-25.49999999999999
 31
0.0
  0
LINE
  5
209
330
1DD
100
AcDbEntity
  8
0
  6
Continuous
 62
     7
100
AcDbLine
 10
-18.00000000000003
 20
-16.99999999999998
 30
0.0
 11
-61.99999999999999
 21
-16.99999999999998
 31
0.0
  0
LINE
  5
20A
330
1DD
100
AcDbEntity
  8
0
  6
Continuous
 62
     7
100
AcDbLine
 10
-61.99999999999999
 20
-21.49999999999998
 30
0.0
 11
-61.99999999999999
 21
-16.99999999999998
 31
0.0
  0
LINE
  5
20B
330
1DD
100
AcDbEntity
  8
0
  6
Continuous
 62
     7
100
AcDbLine
 10
-1.000000000000035
 20
-21.49999999999998
 30
0.0
 11
-79.00000000000002
 21
-21.49999999999998
 31
0.0
  0
LINE
  5
20C
330
1DD
100
AcDbEntity
  8
0
  6
Continuous
 62
     7
100
AcDbLine
 10
-18.00000000000003
 20
-21.49999999999998
 30
0.0
 11
-18.00000000000003
 21
-16.99999999999998
 31
0.0
  0
LINE
  5
20D
330
1DD
100
AcDbEntity
  8
0
  6
Continuous
 62
     7
100
AcDbLine
 10
-1.000000000000035
 20
-21.49999999999998
 30
0.0
 11
-1.000000000000035
 21
-25.49999999999999
 31
0.0
  0
LINE
  5
20E
330
1DD
100
AcDbEntity
  8
0
  6
Continuous
 62
     7
100
AcDbLine
 10
-79.00000000000002
 20
-21.49999999999998
 30
0.0
 11
-79.00000000000002
 21
-25.49999999999999
 31
0.0
  0
LINE
  5
20F
330
1DD
100
AcDbEntity
  8
0
  6
Continuous
 62
     7
100
AcDbLine
 10
-80.0
 20
-26.29999999999999
 30
0.0
 11
-80.0
 21
-70.0
 31
0.0
  0
LINE
  5
210
330
1DD
100
AcDbEntity
  8
0
  6
Continuous
 62
     7
100
AcDbLine
 10
-0.0000000000000355
 20
-26.29999999999999
 30
0.0
 11
-0.0000000000000355
 21
-70.0
 31
0.0
  0
LINE
  5
211
330
1DD
100
AcDbEntity
  8
0
  6
Continuous
 62
     7
100
AcDbLine
 10
-20.75
 20
-21.49999999999998
 30
0.0
 11
-20.75
 21
-24.89999999999999
 31
0.0
  0
LINE
  5
212
330
1DD
100
AcDbEntity
  8
0
  6
Continuous
 62
     7
100
AcDbLine
 10
-27.25
 20
-21.49999999999998
 30
0.0
 11
-27.25
 21
-24.89999999999999
 31
0.0
  0
LINE
  5
213
330
1DD
100
AcDbEntity
  8
0
  6
Continuous
 62
     7
100
AcDbLine
 10
-27.25
 20
-24.9
 30
0.0
 11
-20.75
 21
-24.9
 31
0.0
  0
ARC
  5
214
330
1DD
100
AcDbEntity
  8
0
  6
Continuous
 62
     7
100
AcDbCircle
 10
-79.2
 20
-26.29999999999999
 30
0.0
 40
0.8
100
AcDbArc
 50
90.0
 51
180.0
  0
ARC
  5
215
330
1DD
100
AcDbEntity
  8
0
  6
Continuous
 62
     7
100
AcDbCircle
 10
-0.8000000000000113
 20
-26.29999999999999
 30
0.0
 40
0.8
100
AcDbArc
 50
0.0
 51
90.0
  0
LINE
  5
216
330
1DD
100
AcDbEntity
  8
0
  6
Continuous
 62
     7
100
AcDbLine
 10
-8.000000000000031
 20
-25.49999999999999
 30
0.0
 11
-8.000000000000031
 21
-65.0
 31
0.0
  0
LINE
  5
217
330
1DD
100
AcDbEntity
  8
0
  6
Continuous
 62
     7
100
AcDbLine
 10
-72.0
 20
-25.49999999999999
 30
0.0
 11
-72.0
 21
-65.0
 31
0.0
  0
LINE
  5
218
330
1DD
100
AcDbEntity
  8
0
  6
Continuous
 62
     7
100
AcDbLine
 10
-82.0
 20
-58.5
 30
0.0
 11
-82.0
 21
-65.0
 31
0.0
  0
LINE
  5
219
330
1DD
100
AcDbEntity
  8
0
  6
Continuous
 62
     7
100
AcDbLine
 10
-80.0
 20
-58.0
 30
0.0
 11
-81.5
 21
-58.0
 31
0.0
  0
ARC
  5
21A
330
1DD
100
AcDbEntity
  8
0
  6
Continuous
 62
     7
100
AcDbCircle
 10
-81.5
 20
-58.5
 30
0.0
 40
0.5
100
AcDbArc
 50
90.0
 51
180.0
  0
LINE
  5
24C
330
1DD
100
AcDbEntity
  8
0
  6
Continuous
 62
     7
100
AcDbLine
 10
-88.48850355905833
 20
-59.5
 30
0.0
 11
-82.0
 21
-59.5
 31
0.0
  0
LINE
  5
24D
330
1DD
100
AcDbEntity
  8
0
  6
Continuous
 62
     7
100
AcDbLine
 10
-87.14875759469924
 20
-64.5
 30
0.0
 11
-82.0
 21
-64.5
 31
0.0
  0
LINE
  5
250
330
1DD
100
AcDbEntity
  8
0
  6
Continuous
 62
     2
100
AcDbLine
 10
-88.96060113470364
 20
-57.73810786445944
 30
0.0
 11
-86.58801155160587
 21
-66.59273271952584
 31
0.0
  0
LINE
  5
251
330
1DD
100
AcDbEntity
  8
0
  6
Continuous
 62
     7
100
AcDbLine
 10
-21.25
 20
-21.89999999999999
 30
0.0
 11
-21.25
 21
-24.9
 31
0.0
  0
LINE
  5
252
330
1DD
100
AcDbEntity
  8
0
  6
Continuous
 62
     7
100
AcDbLine
 10
-26.74999999999999
 20
-21.89999999999999
 30
0.0
 11
-26.74999999999999
 21
-24.9
 31
0.0
  0
LINE
  5
253
330
1DD
100
AcDbEntity
  8
0
  6
Continuous
 62
     7
100
AcDbLine
 10
-26.74999999999999
 20
-21.89999999999999
 30
0.0
 11
-21.25
 21
-21.89999999999999
 31
0.0
  0
LINE
  5
257
330
1DD
100
AcDbEntity
  8
0
  6
Continuous
 62
     2
100
AcDbLine
 10
-40.0
 20
80.0
 30
0.0
 11
-40.0
 21
20.0
 31
0.0
  0
ARC
  5
258
330
1DD
100
AcDbEntity
  8
0
  6
Continuous
 62
     7
100
AcDbCircle
 10
-4.0
 20
71.0
 30
0.0
 40
4.0
100
AcDbArc
 50
180.0
 51
270.0
  0
ARC
  5
259
330
1DD
100
AcDbEntity
  8
0
  6
Continuous
 62
     7
100
AcDbCircle
 10
-4.0
 20
71.0
 30
0.0
 40
5.0
100
AcDbArc
 50
180.0
 51
270.0
  0
ARC
  5
25A
330
1DD
100
AcDbEntity
  8
0
  6
Continuous
 62
     7
100
AcDbCircle
 10
-4.0
 20
29.0
 30
0.0
 40
4.0
100
AcDbArc
 50
90.0
 51
180.0
  0
ARC
  5
25B
330
1DD
100
AcDbEntity
  8
0
  6
Continuous
 62
     7
100
AcDbCircle
 10
-4.0
 20
29.0
 30
0.0
 40
5.0
100
AcDbArc
 50
90.0
 51
180.0
  0
LINE
  5
25C
330
1DD
100
AcDbEntity
  8
0
  6
Continuous
 62
     7
100
AcDbLine
 10
-5.148126413497358
 20
62.42264973081037
 30
0.0
 11
-4.148126413497358
 21
61.84529946162075
 31
0.0
  0
LINE
  5
25D
330
1DD
100
AcDbEntity
  8
0
  6
Continuous
 62
     7
100
AcDbLine
 10
-5.148126413497358
 20
63.57735026918962
 30
0.0
 11
-4.148126413497358
 21
64.15470053837925
 31
0.0
  0
CIRCLE
  5
25E
330
1DD
100
AcDbEntity
  8
0
  6
Continuous
 62
     7
100
AcDbCircle
 10
-4.148126413497358
 20
63.0
 30
0.0
 40
2.25
  0
LINE
  5
25F
330
1DD
100
AcDbEntity
  8
0
  6
Continuous
 62
     2
100
AcDbLine
 10
-0.9678903701766259
 20
63.0
 30
0.0
 11
-7.329456778956121
 21
63.0
 31
0.0
  0
CIRCLE
  5
260
330
1DD
100
AcDbEntity
  8
0
  6
Continuous
 62
     7
100
AcDbCircle
 10
-4.148126413497358
 20
63.0
 30
0.0
 40
2.5
  0
LINE
  5
261
330
1DD
100
AcDbEntity
  8
0
  6
Continuous
 62
     7
100
AcDbLine
 10
-5.148126413497358
 20
40.57735026918962
 30
0.0
 11
-4.148126413497358
 21
41.15470053837924
 31
0.0
  0
LINE
  5
262
330
1DD
100
AcDbEntity
  8
0
  6
Continuous
 62
     7
100
AcDbLine
 10
-5.148126413497358
 20
39.42264973081038
 30
0.0
 11
-4.148126413497358
 21
38.84529946162076
 31
0.0
  0
CIRCLE
  5
263
330
1DD
100
AcDbEntity
  8
0
  6
Continuous
 62
     7
100
AcDbCircle
 10
-4.148126413497358
 20
40.0
 30
0.0
 40
2.25
  0
CIRCLE
  5
264
330
1DD
100
AcDbEntity
  8
0
  6
Continuous
 62
     7
100
AcDbCircle
 10
-4.0
 20
29.0
 30
0.0
 40
2.25
  0
LINE
  5
265
330
1DD
100
AcDbEntity
  8
0
  6
Continuous
 62
     2
100
AcDbLine
 10
0.0
 20
29.0
 30
0.0
 11
-8.0
 21
29.0
 31
0.0
  0
LINE
  5
266
330
1DD
100
AcDbEntity
  8
0
  6
Continuous
 62
     2
100
AcDbLine
 10
-0.9678903701766259
 20
40.0
 30
0.0
 11
-7.329456778956121
 21
40.0
 31
0.0
  0
LINE
  5
267
330
1DD
100
AcDbEntity
  8
0
  6
Continuous
 62
     7
100
AcDbLine
 10
-4.0
 20
75.0
 30
0.0
 11
-76.0
 21
75.0
 31
0.0
  0
LINE
  5
268
330
1DD
100
AcDbEntity
  8
0
  6
Continuous
 62
     7
100
AcDbLine
 10
-4.0
 20
25.0
 30
0.0
 11
-76.0
 21
25.0
 31
0.0
  0
CIRCLE
  5
269
330
1DD
100
AcDbEntity
  8
0
  6
Continuous
 62
     7
100
AcDbCircle
 10
-4.148126413497358
 20
40.0
 30
0.0
 40
2.5
  0
LINE
  5
26A
330
1DD
100
AcDbEntity
  8
0
  6
Continuous
 62
     2
100
AcDbLine
 10
0.0
 20
71.0
 30
0.0
 11
-8.0
 21
71.0
 31
0.0
  0
CIRCLE
  5
26B
330
1DD
100
AcDbEntity
  8
0
  6
Continuous
 62
     7
100
AcDbCircle
 10
-4.0
 20
71.0
 30
0.0
 40
2.25
  0
LINE
  5
26C
330
1DD
100
AcDbEntity
  8
0
  6
Continuous
 62
     2
100
AcDbLine
 10
4.999999999999992
 20
50.0
 30
0.0
 11
-85.0
 21
50.0
 31
0.0
  0
LINE
  5
26D
330
1DD
100
AcDbEntity
  8
0
  6
Continuous
 62
     7
100
AcDbLine
 10
-86.48850355905834
 20
63.5
 30
0.0
 11
-82.0
 21
63.5
 31
0.0
  0
LINE
  5
26E
330
1DD
100
AcDbEntity
  8
0
  6
Continuous
 62
     7
100
AcDbLine
 10
-85.14875759469925
 20
58.5
 30
0.0
 11
-82.0
 21
58.5
 31
0.0
  0
CIRCLE
  5
26F
330
1DD
100
AcDbEntity
  8
0
  6
Continuous
 62
     2
100
AcDbCircle
 10
-40.0
 20
50.0
 30
0.0
 40
15.0
  0
CIRCLE
  5
270
330
1DD
100
AcDbEntity
  8
0
  6
Continuous
 62
     7
100
AcDbCircle
 10
-40.0
 20
50.0
 30
0.0
 40
8.0
  0
CIRCLE
  5
271
330
1DD
100
AcDbEntity
  8
0
  6
Continuous
 62
     2
100
AcDbCircle
 10
-40.0
 20
35.0
 30
0.0
 40
2.0
  0
CIRCLE
  5
272
330
1DD
100
AcDbEntity
  8
0
  6
Continuous
 62
     7
100
AcDbCircle
 10
-40.0
 20
35.0
 30
0.0
 40
1.6
  0
CIRCLE
  5
273
330
1DD
100
AcDbEntity
  8
0
  6
Continuous
 62
     2
100
AcDbCircle
 10
-25.00000000000002
 20
50.0
 30
0.0
 40
2.0
  0
CIRCLE
  5
274
330
1DD
100
AcDbEntity
  8
0
  6
Continuous
 62
     7
100
AcDbCircle
 10
-25.00000000000002
 20
50.0
 30
0.0
 40
1.6
  0
CIRCLE
  5
275
330
1DD
100
AcDbEntity
  8
0
  6
Continuous
 62
     2
100
AcDbCircle
 10
-40.0
 20
65.0
 30
0.0
 40
2.0
  0
CIRCLE
  5
276
330
1DD
100
AcDbEntity
  8
0
  6
Continuous
 62
     7
100
AcDbCircle
 10
-40.0
 20
65.0
 30
0.0
 40
1.6
  0
CIRCLE
  5
277
330
1DD
100
AcDbEntity
  8
0
  6
Continuous
 62
     2
100
AcDbCircle
 10
-55.00000000000001
 20
50.0
 30
0.0
 40
2.0
  0
CIRCLE
  5
278
330
1DD
100
AcDbEntity
  8
0
  6
Continuous
 62
     7
100
AcDbCircle
 10
-55.00000000000001
 20
50.0
 30
0.0
 40
1.6
  0
CIRCLE
  5
279
330
1DD
100
AcDbEntity
  8
0
  6
Continuous
 62
     7
100
AcDbCircle
 10
-40.0
 20
50.0
 30
0.0
 40
3.0
  0
LINE
  5
27A
330
1DD
100
AcDbEntity
  8
0
  6
Continuous
 62
     7
100
AcDbLine
 10
-24.00000000000002
 20
69.565
 30
0.0
 11
-25.24274645443067
 21
70.28250000000003
 31
0.0
  0
LINE
  5
27B
330
1DD
100
AcDbEntity
  8
0
  6
Continuous
 62
     7
100
AcDbLine
 10
-24.00000000000002
 20
69.565
 30
0.0
 11
-22.75725354556932
 21
70.28250000000003
 31
0.0
  0
LINE
  5
27C
330
1DD
100
AcDbEntity
  8
0
  6
Continuous
 62
     7
100
AcDbLine
 10
-24.00000000000002
 20
72.435
 30
0.0
 11
-22.75725354556932
 21
71.7175
 31
0.0
  0
LINE
  5
27D
330
1DD
100
AcDbEntity
  8
0
  6
Continuous
 62
     7
100
AcDbLine
 10
-24.00000000000002
 20
72.435
 30
0.0
 11
-25.24274645443067
 21
71.7175
 31
0.0
  0
LINE
  5
27E
330
1DD
100
AcDbEntity
  8
0
  6
Continuous
 62
     7
100
AcDbLine
 10
-25.24274645443067
 20
70.28250000000003
 30
0.0
 11
-25.24274645443067
 21
71.7175
 31
0.0
  0
LINE
  5
27F
330
1DD
100
AcDbEntity
  8
0
  6
Continuous
 62
     7
100
AcDbLine
 10
-22.75725354556932
 20
70.28250000000003
 30
0.0
 11
-22.75725354556932
 21
71.7175
 31
0.0
  0
CIRCLE
  5
280
330
1DD
100
AcDbEntity
  8
0
  6
Continuous
 62
     7
100
AcDbCircle
 10
-24.00000000000002
 20
71.0
 30
0.0
 40
2.75
  0
LINE
  5
281
330
1DD
100
AcDbEntity
  8
0
  6
Continuous
 62
     7
100
AcDbLine
 10
-27.25000000000001
 20
71.0
 30
0.0
 11
-27.25000000000001
 21
74.0
 31
0.0
  0
LINE
  5
282
330
1DD
100
AcDbEntity
  8
0
  6
Continuous
 62
     7
100
AcDbLine
 10
-20.75
 20
71.0
 30
0.0
 11
-20.75
 21
74.0
 31
0.0
  0
ARC
  5
283
330
1DD
100
AcDbEntity
  8
0
  6
Continuous
 62
     7
100
AcDbCircle
 10
-24.00000000000002
 20
71.0
 30
0.0
 40
3.25
100
AcDbArc
 50
180.0
 51
0.0
  0
LINE
  5
284
330
1DD
100
AcDbEntity
  8
0
  6
Continuous
 62
     7
100
AcDbLine
 10
-79.0
 20
64.0
 30
0.0
 11
-79.0
 21
36.0
 31
0.0
  0
LINE
  5
285
330
1DD
100
AcDbEntity
  8
0
  6
Continuous
 62
     7
100
AcDbLine
 10
-76.0
 20
34.0
 30
0.0
 11
-77.0
 21
34.0
 31
0.0
  0
LINE
  5
286
330
1DD
100
AcDbEntity
  8
0
  6
Continuous
 62
     7
100
AcDbLine
 10
-11.0
 20
26.0
 30
0.0
 11
-69.0
 21
26.0
 31
0.0
  0
LINE
  5
287
330
1DD
100
AcDbEntity
  8
0
  6
Continuous
 62
     7
100
AcDbLine
 10
-71.0
 20
29.0
 30
0.0
 11
-71.0
 21
28.0
 31
0.0
  0
LINE
  5
288
330
1DD
100
AcDbEntity
  8
0
  6
Continuous
 62
     7
100
AcDbLine
 10
-72.0
 20
29.0
 30
0.0
 11
-72.0
 21
28.0
 31
0.0
  0
CIRCLE
  5
289
330
1DD
100
AcDbEntity
  8
0
  6
Continuous
 62
     7
100
AcDbCircle
 10
-76.0
 20
29.0
 30
0.0
 40
2.25
  0
LINE
  5
28A
330
1DD
100
AcDbEntity
  8
0
  6
Continuous
 62
     2
100
AcDbLine
 10
-76.0
 20
32.96357632572074
 30
0.0
 11
-76.0
 21
25.0
 31
0.0
  0
ARC
  5
28B
330
1DD
100
AcDbEntity
  8
0
  6
Continuous
 62
     7
100
AcDbCircle
 10
-76.0
 20
29.0
 30
0.0
 40
4.0
100
AcDbArc
 50
180.0
 51
270.0
  0
LINE
  5
28C
330
1DD
100
AcDbEntity
  8
0
  6
Continuous
 62
     7
100
AcDbLine
 10
-76.0
 20
33.0
 30
0.0
 11
-77.0
 21
33.0
 31
0.0
  0
LINE
  5
28D
330
1DD
100
AcDbEntity
  8
0
  6
Continuous
 62
     2
100
AcDbLine
 10
-80.0
 20
29.0
 30
0.0
 11
-72.0
 21
29.0
 31
0.0
  0
CIRCLE
  5
28E
330
1DD
100
AcDbEntity
  8
0
  6
Continuous
 62
     7
100
AcDbCircle
 10
-76.0
 20
71.0
 30
0.0
 40
2.25
  0
LINE
  5
28F
330
1DD
100
AcDbEntity
  8
0
  6
Continuous
 62
     2
100
AcDbLine
 10
-76.0
 20
67.03642367427926
 30
0.0
 11
-76.0
 21
75.0
 31
0.0
  0
ARC
  5
290
330
1DD
100
AcDbEntity
  8
0
  6
Continuous
 62
     7
100
AcDbCircle
 10
-76.0
 20
71.0
 30
0.0
 40
4.0
100
AcDbArc
 50
90.0
 51
180.0
  0
LINE
  5
291
330
1DD
100
AcDbEntity
  8
0
  6
Continuous
 62
     2
100
AcDbLine
 10
-80.0
 20
71.0
 30
0.0
 11
-72.0
 21
71.0
 31
0.0
  0
LINE
  5
292
330
1DD
100
AcDbEntity
  8
0
  6
Continuous
 62
     2
100
AcDbLine
 10
-24.00000000000002
 20
75.5
 30
0.0
 11
-24.00000000000002
 21
66.5
 31
0.0
  0
LINE
  5
293
330
1DD
100
AcDbEntity
  8
0
  6
Continuous
 62
     2
100
AcDbLine
 10
-19.5
 20
71.0
 30
0.0
 11
-28.50000000000001
 21
71.0
 31
0.0
  0
LINE
  5
294
330
1DD
100
AcDbEntity
  8
0
  6
Continuous
 62
     7
100
AcDbLine
 10
-80.0
 20
29.0
 30
0.0
 11
-80.0
 21
64.0
 31
0.0
  0
LINE
  5
295
330
1DD
100
AcDbEntity
  8
0
  6
Continuous
 62
     7
100
AcDbLine
 10
-24.00000000000002
 20
30.435
 30
0.0
 11
-25.24274645443067
 21
29.71749999999997
 31
0.0
  0
LINE
  5
296
330
1DD
100
AcDbEntity
  8
0
  6
Continuous
 62
     7
100
AcDbLine
 10
-24.00000000000002
 20
30.435
 30
0.0
 11
-22.75725354556932
 21
29.71749999999997
 31
0.0
  0
CIRCLE
  5
297
330
1DD
100
AcDbEntity
  8
0
  6
Continuous
 62
     7
100
AcDbCircle
 10
-24.00000000000002
 20
29.0
 30
0.0
 40
2.75
  0
LINE
  5
298
330
1DD
100
AcDbEntity
  8
0
  6
Continuous
 62
     7
100
AcDbLine
 10
-27.25000000000001
 20
29.0
 30
0.0
 11
-27.25000000000001
 21
26.0
 31
0.0
  0
LINE
  5
299
330
1DD
100
AcDbEntity
  8
0
  6
Continuous
 62
     7
100
AcDbLine
 10
-20.75
 20
29.0
 30
0.0
 11
-20.75
 21
26.0
 31
0.0
  0
ARC
  5
29A
330
1DD
100
AcDbEntity
  8
0
  6
Continuous
 62
     7
100
AcDbCircle
 10
-24.00000000000002
 20
29.0
 30
0.0
 40
3.25
100
AcDbArc
 50
0.0
 51
180.0
  0
LINE
  5
29B
330
1DD
100
AcDbEntity
  8
0
  6
Continuous
 62
     2
100
AcDbLine
 10
-24.00000000000002
 20
24.5
 30
0.0
 11
-24.00000000000002
 21
33.5
 31
0.0
  0
LINE
  5
29C
330
1DD
100
AcDbEntity
  8
0
  6
Continuous
 62
     2
100
AcDbLine
 10
-19.5
 20
29.0
 30
0.0
 11
-28.50000000000001
 21
29.0
 31
0.0
  0
LINE
  5
29D
330
1DD
100
AcDbEntity
  8
0
  6
Continuous
 62
     7
100
AcDbLine
 10
-22.75725354556932
 20
29.71749999999997
 30
0.0
 11
-22.75725354556932
 21
28.2825
 31
0.0
  0
LINE
  5
29E
330
1DD
100
AcDbEntity
  8
0
  6
Continuous
 62
     7
100
AcDbLine
 10
-25.24274645443067
 20
29.71749999999997
 30
0.0
 11
-25.24274645443067
 21
28.2825
 31
0.0
  0
LINE
  5
29F
330
1DD
100
AcDbEntity
  8
0
  6
Continuous
 62
     7
100
AcDbLine
 10
-24.00000000000002
 20
27.565
 30
0.0
 11
-25.24274645443067
 21
28.2825
 31
0.0
  0
LINE
  5
2A0
330
1DD
100
AcDbEntity
  8
0
  6
Continuous
 62
     7
100
AcDbLine
 10
-24.00000000000002
 20
27.565
 30
0.0
 11
-22.75725354556932
 21
28.2825
 31
0.0
  0
LINE
  5
2A1
330
1DD
100
AcDbEntity
  8
0
  6
Continuous
 62
     7
100
AcDbLine
 10
-74.565
 20
54.5
 30
0.0
 11
-75.28249999999999
 21
55.74274645443066
 31
0.0
  0
LINE
  5
2A2
330
1DD
100
AcDbEntity
  8
0
  6
Continuous
 62
     7
100
AcDbLine
 10
-74.565
 20
54.5
 30
0.0
 11
-75.28249999999999
 21
53.25725354556931
 31
0.0
  0
CIRCLE
  5
2A3
330
1DD
100
AcDbEntity
  8
0
  6
Continuous
 62
     7
100
AcDbCircle
 10
-76.0
 20
54.5
 30
0.0
 40
2.75
  0
LINE
  5
2A4
330
1DD
100
AcDbEntity
  8
0
  6
Continuous
 62
     7
100
AcDbLine
 10
-76.0
 20
57.75
 30
0.0
 11
-79.0
 21
57.75
 31
0.0
  0
LINE
  5
2A5
330
1DD
100
AcDbEntity
  8
0
  6
Continuous
 62
     7
100
AcDbLine
 10
-76.0
 20
51.25
 30
0.0
 11
-79.0
 21
51.25
 31
0.0
  0
ARC
  5
2A6
330
1DD
100
AcDbEntity
  8
0
  6
Continuous
 62
     7
100
AcDbCircle
 10
-76.0
 20
54.5
 30
0.0
 40
3.25
100
AcDbArc
 50
270.0
 51
90.0
  0
LINE
  5
2A7
330
1DD
100
AcDbEntity
  8
0
  6
Continuous
 62
     2
100
AcDbLine
 10
-80.5
 20
54.5
 30
0.0
 11
-71.5
 21
54.5
 31
0.0
  0
LINE
  5
2A8
330
1DD
100
AcDbEntity
  8
0
  6
Continuous
 62
     7
100
AcDbLine
 10
-77.435
 20
54.5
 30
0.0
 11
-76.7175
 21
53.25725354556931
 31
0.0
  0
LINE
  5
2A9
330
1DD
100
AcDbEntity
  8
0
  6
Continuous
 62
     7
100
AcDbLine
 10
-77.435
 20
54.5
 30
0.0
 11
-76.7175
 21
55.74274645443066
 31
0.0
  0
LINE
  5
2AA
330
1DD
100
AcDbEntity
  8
0
  6
Continuous
 62
     7
100
AcDbLine
 10
-75.28249999999999
 20
55.74274645443066
 30
0.0
 11
-76.7175
 21
55.74274645443066
 31
0.0
  0
LINE
  5
2AB
330
1DD
100
AcDbEntity
  8
0
  6
Continuous
 62
     7
100
AcDbLine
 10
-75.28249999999999
 20
53.25725354556931
 30
0.0
 11
-76.7175
 21
53.25725354556931
 31
0.0
  0
LINE
  5
2AC
330
1DD
100
AcDbEntity
  8
0
  6
Continuous
 62
     2
100
AcDbLine
 10
-76.0
 20
50.0
 30
0.0
 11
-76.0
 21
59.0
 31
0.0
  0
LINE
  5
2AD
330
1DD
100
AcDbEntity
  8
0
  6
Continuous
 62
     7
100
AcDbLine
 10
-5.148126413497358
 20
40.57735026918962
 30
0.0
 11
-5.148126413497358
 21
39.42264973081038
 31
0.0
  0
LINE
  5
2AE
330
1DD
100
AcDbEntity
  8
0
  6
Continuous
 62
     7
100
AcDbLine
 10
-5.148126413497358
 20
63.57735026918962
 30
0.0
 11
-5.148126413497358
 21
62.42264973081037
 31
0.0
  0
ARC
  5
2AF
330
1DD
100
AcDbEntity
  8
0
  6
Continuous
 62
     7
100
AcDbCircle
 10
-69.0
 20
28.0
 30
0.0
 40
2.0
100
AcDbArc
 50
180.0
 51
270.0
  0
ARC
  5
2B0
330
1DD
100
AcDbEntity
  8
0
  6
Continuous
 62
     7
100
AcDbCircle
 10
-77.0
 20
36.0
 30
0.0
 40
2.0
100
AcDbArc
 50
180.0
 51
270.0
  0
ARC
  5
2B1
330
1DD
100
AcDbEntity
  8
0
  6
Continuous
 62
     7
100
AcDbCircle
 10
-76.0
 20
29.0
 30
0.0
 40
5.0
100
AcDbArc
 50
0.0
 51
90.0
  0
ARC
  5
2B2
330
1DD
100
AcDbEntity
  8
0
  6
Continuous
 62
     7
100
AcDbCircle
 10
-76.0
 20
29.0
 30
0.0
 40
4.0
100
AcDbArc
 50
0.0
 51
90.0
  0
ARC
  5
2B3
330
1DD
100
AcDbEntity
  8
0
  6
Continuous
 62
     7
100
AcDbCircle
 10
-77.0
 20
36.0
 30
0.0
 40
3.0
100
AcDbArc
 50
180.0
 51
270.0
  0
ARC
  5
2B4
330
1DD
100
AcDbEntity
  8
0
  6
Continuous
 62
     7
100
AcDbCircle
 10
-69.0
 20
28.0
 30
0.0
 40
3.0
100
AcDbArc
 50
180.0
 51
270.0
  0
ARC
  5
2B5
330
1DD
100
AcDbEntity
  8
0
  6
Continuous
 62
     7
100
AcDbCircle
 10
-11.0
 20
28.0
 30
0.0
 40
3.0
100
AcDbArc
 50
270.0
 51
0.0
  0
ARC
  5
2B6
330
1DD
100
AcDbEntity
  8
0
  6
Continuous
 62
     7
100
AcDbCircle
 10
-11.0
 20
28.0
 30
0.0
 40
2.0
100
AcDbArc
 50
270.0
 51
0.0
  0
LINE
  5
2B7
330
1DD
100
AcDbEntity
  8
0
  6
Continuous
 62
     7
100
AcDbLine
 10
-9.0
 20
29.0
 30
0.0
 11
-9.0
 21
28.0
 31
0.0
  0
LINE
  5
2B8
330
1DD
100
AcDbEntity
  8
0
  6
Continuous
 62
     7
100
AcDbLine
 10
-8.0
 20
29.0
 30
0.0
 11
-8.0
 21
28.0
 31
0.0
  0
ARC
  5
2B9
330
1DD
100
AcDbEntity
  8
0
  6
Continuous
 62
     7
100
AcDbCircle
 10
-69.0
 20
72.0
 30
0.0
 40
3.0
100
AcDbArc
 50
90.0
 51
180.0
  0
ARC
  5
2BA
330
1DD
100
AcDbEntity
  8
0
  6
Continuous
 62
     7
100
AcDbCircle
 10
-69.0
 20
72.0
 30
0.0
 40
2.0
100
AcDbArc
 50
90.0
 51
180.0
  0
LINE
  5
2BB
330
1DD
100
AcDbEntity
  8
0
  6
Continuous
 62
     7
100
AcDbLine
 10
-11.0
 20
74.0
 30
0.0
 11
-69.0
 21
74.0
 31
0.0
  0
LINE
  5
2BC
330
1DD
100
AcDbEntity
  8
0
  6
Continuous
 62
     7
100
AcDbLine
 10
-71.0
 20
71.0
 30
0.0
 11
-71.0
 21
72.0
 31
0.0
  0
LINE
  5
2BD
330
1DD
100
AcDbEntity
  8
0
  6
Continuous
 62
     7
100
AcDbLine
 10
-72.0
 20
71.0
 30
0.0
 11
-72.0
 21
72.0
 31
0.0
  0
ARC
  5
2BE
330
1DD
100
AcDbEntity
  8
0
  6
Continuous
 62
     7
100
AcDbCircle
 10
-76.0
 20
71.0
 30
0.0
 40
4.0
100
AcDbArc
 50
270.0
 51
0.0
  0
ARC
  5
2BF
330
1DD
100
AcDbEntity
  8
0
  6
Continuous
 62
     7
100
AcDbCircle
 10
-76.0
 20
71.0
 30
0.0
 40
5.0
100
AcDbArc
 50
270.0
 51
0.0
  0
LINE
  5
2C0
330
1DD
100
AcDbEntity
  8
0
  6
Continuous
 62
     7
100
AcDbLine
 10
-76.0
 20
66.0
 30
0.0
 11
-77.0
 21
66.0
 31
0.0
  0
LINE
  5
2C1
330
1DD
100
AcDbEntity
  8
0
  6
Continuous
 62
     7
100
AcDbLine
 10
-76.0
 20
67.0
 30
0.0
 11
-77.0
 21
67.0
 31
0.0
  0
ARC
  5
2C2
330
1DD
100
AcDbEntity
  8
0
  6
Continuous
 62
     7
100
AcDbCircle
 10
-77.0
 20
64.0
 30
0.0
 40
3.0
100
AcDbArc
 50
90.0
 51
180.0
  0
ARC
  5
2C3
330
1DD
100
AcDbEntity
  8
0
  6
Continuous
 62
     7
100
AcDbCircle
 10
-77.0
 20
64.0
 30
0.0
 40
2.0
100
AcDbArc
 50
90.0
 51
180.0
  0
ARC
  5
2C4
330
1DD
100
AcDbEntity
  8
0
  6
Continuous
 62
     7
100
AcDbCircle
 10
-11.0
 20
72.0
 30
0.0
 40
3.0
100
AcDbArc
 50
0.0
 51
90.0
  0
ARC
  5
2C5
330
1DD
100
AcDbEntity
  8
0
  6
Continuous
 62
     7
100
AcDbCircle
 10
-11.0
 20
72.0
 30
0.0
 40
2.0
100
AcDbArc
 50
0.0
 51
90.0
  0
LINE
  5
2C6
330
1DD
100
AcDbEntity
  8
0
  6
Continuous
 62
     7
100
AcDbLine
 10
-9.0
 20
71.0
 30
0.0
 11
-9.0
 21
72.0
 31
0.0
  0
LINE
  5
2C7
330
1DD
100
AcDbEntity
  8
0
  6
Continuous
 62
     7
100
AcDbLine
 10
-8.0
 20
71.0
 30
0.0
 11
-8.0
 21
72.0
 31
0.0
  0
LINE
  5
2C8
330
1DD
100
AcDbEntity
  8
0
  6
Continuous
 62
     7
100
AcDbLine
 10
-82.0
 20
57.5
 30
0.0
 11
-82.0
 21
64.5
 31
0.0
  0
LINE
  5
2C9
330
1DD
100
AcDbEntity
  8
0
  6
Continuous
 62
     7
100
AcDbLine
 10
-81.5
 20
65.0
 30
0.0
 11
-79.82842712474621
 21
65.0
 31
0.0
  0
LINE
  5
2CA
330
1DD
100
AcDbEntity
  8
0
  6
Continuous
 62
     7
100
AcDbLine
 10
-81.5
 20
57.0
 30
0.0
 11
-80.0
 21
57.0
 31
0.0
  0
LINE
  5
2CB
330
1DD
100
AcDbEntity
  8
0
  6
Continuous
 62
     7
100
AcDbLine
 10
-80.0
 20
65.0
 30
0.0
 11
-80.0
 21
71.0
 31
0.0
  0
ARC
  5
2CC
330
1DD
100
AcDbEntity
  8
0
  6
Continuous
 62
     7
100
AcDbCircle
 10
-81.5
 20
64.5
 30
0.0
 40
0.5
100
AcDbArc
 50
90.0
 51
180.0
  0
ARC
  5
2CD
330
1DD
100
AcDbEntity
  8
0
  6
Continuous
 62
     7
100
AcDbCircle
 10
-81.5
 20
57.5
 30
0.0
 40
0.5
100
AcDbArc
 50
180.0
 51
270.0
  0
LINE
  5
30F
330
1DD
100
AcDbEntity
  8
0
  6
Continuous
 62
     2
100
AcDbLine
 10
-86.79781511535123
 20
64.65436644155474
 30
0.0
 11
-84.7855919271422
 21
57.1446472793416
 31
0.0
  0
CIRCLE
  5
311
330
1DD
100
AcDbEntity
  8
0
  6
Continuous
 62
     7
100
AcDbCircle
 10
-40.0
 20
50.0
 30
0.0
 40
21.99999999999999
  0
LINE
  5
312
330
1DD
100
AcDbEntity
  8
0
  6
Continuous
 62
     2
100
AcDbLine
 10
-59.81799796859212
 20
30.18200203140788
 30
0.0
 11
-38.22420798169746
 21
51.77579201830255
 31
0.0
  0
ARC
  5
313
330
1DD
100
AcDbEntity
  8
0
  6
Continuous
 62
     7
100
AcDbCircle
 10
-49.89949493661167
 20
40.10050506338834
 30
0.0
 40
2.0
100
AcDbArc
 50
315.0
 51
135.0
  0
LINE
  5
314
330
1DD
100
AcDbEntity
  8
0
  6
Continuous
 62
     2
100
AcDbLine
 10
-48.1521762016345
 20
38.35318632841117
 30
0.0
 11
-51.63399005627588
 21
41.83500018305255
 31
0.0
  0
ARC
  5
315
330
1DD
100
AcDbEntity
  8
0
  6
Continuous
 62
     7
100
AcDbCircle
 10
-51.31370849898477
 20
38.68629150101524
 30
0.0
 40
2.0
100
AcDbArc
 50
135.0
 51
315.0000000000003
  0
LINE
  5
316
330
1DD
100
AcDbEntity
  8
0
  6
Continuous
 62
     2
100
AcDbLine
 10
-49.56638976400757
 20
36.93897276603807
 30
0.0
 11
-53.04820361864899
 21
40.42078662067945
 31
0.0
  0
LINE
  5
317
330
1DD
100
AcDbEntity
  8
0
  6
Continuous
 62
     7
100
AcDbLine
 10
-48.48528137423858
 20
38.68629150101524
 30
0.0
 11
-49.89949493661167
 21
37.27207793864216
 31
0.0
  0
LINE
  5
318
330
1DD
100
AcDbEntity
  8
0
  6
Continuous
 62
     7
100
AcDbLine
 10
-51.31370849898477
 20
41.51471862576141
 30
0.0
 11
-52.72792206135784
 21
40.10050506338834
 31
0.0
  0
LINE
  5
319
330
1DD
100
AcDbEntity
  8
0
  6
Continuous
 62
     2
100
AcDbLine
 10
-4.0
 20
67.03642367427929
 30
0.0
 11
-4.0
 21
75.0
 31
0.0
  0
ARC
  5
31A
330
1DD
100
AcDbEntity
  8
0
  6
Continuous
 62
     7
100
AcDbCircle
 10
-4.0
 20
71.0
 30
0.0
 40
4.0
100
AcDbArc
 50
0.0
 51
90.0
  0
ARC
  5
31B
330
1DD
100
AcDbEntity
  8
0
  6
Continuous
 62
     7
100
AcDbCircle
 10
-4.0
 20
29.0
 30
0.0
 40
4.0
100
AcDbArc
 50
270.0
 51
0.0
  0
LINE
  5
31C
330
1DD
100
AcDbEntity
  8
0
  6
Continuous
 62
     7
100
AcDbLine
 10
0.0
 20
71.0
 30
0.0
 11
0.0
 21
29.0
 31
0.0
  0
LINE
  5
31D
330
1DD
100
AcDbEntity
  8
0
  6
Continuous
 62
     2
100
AcDbLine
 10
-4.148126413497358
 20
43.00258794768319
 30
0.0
 11
-4.148126413497358
 21
36.97235312269428
 31
0.0
  0
LINE
  5
31E
330
1DD
100
AcDbEntity
  8
0
  6
Continuous
 62
     2
100
AcDbLine
 10
-4.0
 20
32.96357632572071
 30
0.0
 11
-4.0
 21
25.0
 31
0.0
  0
LINE
  5
31F
330
1DD
100
AcDbEntity
  8
0
  6
Continuous
 62
     7
100
AcDbLine
 10
-3.148126413497358
 20
40.57735026918962
 30
0.0
 11
-3.148126413497358
 21
39.42264973081038
 31
0.0
  0
LINE
  5
320
330
1DD
100
AcDbEntity
  8
0
  6
Continuous
 62
     7
100
AcDbLine
 10
-3.148126413497358
 20
39.42264973081038
 30
0.0
 11
-4.148126413497358
 21
38.84529946162076
 31
0.0
  0
LINE
  5
321
330
1DD
100
AcDbEntity
  8
0
  6
Continuous
 62
     7
100
AcDbLine
 10
-3.148126413497358
 20
40.57735026918962
 30
0.0
 11
-4.148126413497358
 21
41.15470053837924
 31
0.0
  0
LINE
  5
322
330
1DD
100
AcDbEntity
  8
0
  6
Continuous
 62
     2
100
AcDbLine
 10
-4.148126413497358
 20
66.00258794768318
 30
0.0
 11
-4.148126413497358
 21
59.97235312269427
 31
0.0
  0
LINE
  5
323
330
1DD
100
AcDbEntity
  8
0
  6
Continuous
 62
     7
100
AcDbLine
 10
-3.148126413497358
 20
63.57735026918962
 30
0.0
 11
-4.148126413497358
 21
64.15470053837925
 31
0.0
  0
LINE
  5
324
330
1DD
100
AcDbEntity
  8
0
  6
Continuous
 62
     7
100
AcDbLine
 10
-3.148126413497358
 20
62.42264973081037
 30
0.0
 11
-4.148126413497358
 21
61.84529946162075
 31
0.0
  0
LINE
  5
325
330
1DD
100
AcDbEntity
  8
0
  6
Continuous
 62
     7
100
AcDbLine
 10
-3.148126413497358
 20
63.57735026918962
 30
0.0
 11
-3.148126413497358
 21
62.42264973081037
 31
0.0
  0
LINE
  5
326
330
1DD
100
AcDbEntity
  8
0
  6
Continuous
 62
     7
100
AcDbLine
 10
-4.0
 20
33.0
 30
0.0
 11
-3.000000000000007
 21
33.0
 31
0.0
  0
LINE
  5
327
330
1DD
100
AcDbEntity
  8
0
  6
Continuous
 62
     7
100
AcDbLine
 10
-4.0
 20
34.0
 30
0.0
 11
-3.000000000000007
 21
34.0
 31
0.0
  0
ARC
  5
328
330
1DD
100
AcDbEntity
  8
0
  6
Continuous
 62
     7
100
AcDbCircle
 10
-3.000000000000007
 20
36.0
 30
0.0
 40
2.0
100
AcDbArc
 50
270.0
 51
0.0
  0
ARC
  5
329
330
1DD
100
AcDbEntity
  8
0
  6
Continuous
 62
     7
100
AcDbCircle
 10
-3.000000000000007
 20
36.0
 30
0.0
 40
3.0
100
AcDbArc
 50
270.0
 51
0.0
  0
LINE
  5
32A
330
1DD
100
AcDbEntity
  8
0
  6
Continuous
 62
     7
100
AcDbLine
 10
-1.0
 20
64.0
 30
0.0
 11
-1.0
 21
36.0
 31
0.0
  0
ARC
  5
32B
330
1DD
100
AcDbEntity
  8
0
  6
Continuous
 62
     7
100
AcDbCircle
 10
-3.000000000000007
 20
64.0
 30
0.0
 40
2.0
100
AcDbArc
 50
0.0
 51
90.0
  0
ARC
  5
32C
330
1DD
100
AcDbEntity
  8
0
  6
Continuous
 62
     7
100
AcDbCircle
 10
-3.000000000000007
 20
64.0
 30
0.0
 40
3.0
100
AcDbArc
 50
0.0
 51
90.0
  0
LINE
  5
32D
330
1DD
100
AcDbEntity
  8
0
  6
Continuous
 62
     7
100
AcDbLine
 10
-4.0
 20
66.0
 30
0.0
 11
-3.000000000000007
 21
66.0
 31
0.0
  0
LINE
  5
32E
330
1DD
100
AcDbEntity
  8
0
  6
Continuous
 62
     7
100
AcDbLine
 10
-4.0
 20
67.0
 30
0.0
 11
-3.000000000000007
 21
67.0
 31
0.0
  0
LINE
  5
32F
330
1DD
100
AcDbEntity
  8
0
  6
DASHED
 62
     2
100
AcDbLine
 10
-42.75547984037541
 20
30.0
 30
0.0
 11
-36.97388850126408
 21
30.0
 31
0.0
  0
CIRCLE
  5
330
330
1DD
100
AcDbEntity
  8
0
  6
DASHED
 62
     2
100
AcDbCircle
 10
-40.0
 20
30.0
 30
0.0
 40
2.0
  0
LINE
  5
331
330
1DD
100
AcDbEntity
  8
0
  6
DASHED
 62
     2
100
AcDbLine
 10
-42.75547984037541
 20
70.0
 30
0.0
 11
-36.97388850126408
 21
70.0
 31
0.0
  0
LINE
  5
332
330
1DD
100
AcDbEntity
  8
0
  6
DASHED
 62
     2
100
AcDbLine
 10
-42.0
 20
69.0
 30
0.0
 11
-42.0
 21
71.0
 31
0.0
  0
LINE
  5
333
330
1DD
100
AcDbEntity
  8
0
  6
DASHED
 62
     2
100
AcDbLine
 10
-38.0
 20
69.0
 30
0.0
 11
-38.0
 21
71.0
 31
0.0
  0
ARC
  5
334
330
1DD
100
AcDbEntity
  8
0
  6
DASHED
 62
     2
100
AcDbCircle
 10
-40.0
 20
71.0
 30
0.0
 40
2.0
100
AcDbArc
 50
0.0
 51
180.0
  0
ARC
  5
335
330
1DD
100
AcDbEntity
  8
0
  6
DASHED
 62
     2
100
AcDbCircle
 10
-40.0
 20
69.0
 30
0.0
 40
2.0
100
AcDbArc
 50
180.0
 51
0.0
  0
LINE
  5
336
330
1DD
100
AcDbEntity
  8
0
  6
Continuous
 62
     2
100
AcDbLine
 10
-106.1740055287329
 20
-62.00000000000001
 30
0.0
 11
-77.11871162906025
 21
-62.0
 31
0.0
  0
LINE
  5
337
330
1DD
100
AcDbEntity
  8
0
  6
Continuous
 62
     2
100
AcDbLine
 10
-105.3933003130703
 20
61.00000000000001
 30
0.0
 11
-77.11871162906025
 21
61.0
 31
0.0
  0
TEXT
  5
338
330
1DD
100
AcDbEntity
  8
0
  6
Continuous
 62
     7
100
AcDbText
 10
-169.0241898944859
 20
126.6000061035156
 30
0.0
 40
4.5
  1
ELE WAVE
 41
0.9679999999999999
100
AcDbText
  0
TEXT
  5
339
330
1DD
100
AcDbEntity
  8
0
  6
Continuous
 62
     7
100
AcDbText
 10
-164.5394709782257
 20
119.1000061035156
 30
0.0
 40
4.5
  1
EWHRT3A
 41
0.947
100
AcDbText
  0
TEXT
  5
33A
330
1DD
100
AcDbEntity
  8
0
  6
Continuous
 62
     7
100
AcDbText
 10
-185.7285714318557
 20
105.3500061035156
 30
0.0
 40
4.5
  1
MODEL:EWHRT3A
 41
1.028999999999999
100
AcDbText
  0
TEXT
  5
33B
330
1DD
100
AcDbEntity
  8
0
  6
Continuous
 62
     7
100
AcDbText
 10
135.3112425902714
 20
122.8500061035155
 30
0.0
 40
4.5
  1
Ver. 1.0
 41
1.348
100
AcDbText
  0
ENDSEC
  0
SECTION
  2
OBJECTS
  0
DICTIONARY
  5
1C7
330
0
100
AcDbDictionary
281
     1
  3
ACAD_COLOR
350
1D6
  3
ACAD_GROUP
350
1C8
  3
ACAD_LAYOUT
350
1D4
  3
ACAD_MATERIAL
350
1D5
  3
ACAD_MLINESTYLE
350
1D1
  3
ACAD_PLOTSETTINGS
350
1D3
  3
ACAD_PLOTSTYLENAME
350
1C9
  3
ACAD_TABLESTYLE
350
1D7
  3
ACDBHEADERROUNDTRIPXREC
350
342
  3
AcDbVariableDictionary
350
33C
  3
DWGPROPS
350
341
  0
DICTIONARY
  5
255
330
1DD
100
AcDbDictionary
280
     1
281
     1
  3
ACAD_SORTENTS
360
256
  0
DICTIONARY
  5
1D6
102
{ACAD_REACTORS
330
1C7
102
}
330
1C7
100
AcDbDictionary
281
     1
  0
DICTIONARY
  5
1C8
102
{ACAD_REACTORS
330
1C7
102
}
330
1C7
100
AcDbDictionary
281
     1
  0
DICTIONARY
  5
1D4
102
{ACAD_REACTORS
330
1C7
102
}
330
1C7
100
AcDbDictionary
281
     1
  3
Model
350
1E0
  3
レイアウト1
350
1DC
  0
DICTIONARY
  5
1D5
102
{ACAD_REACTORS
330
1C7
102
}
330
1C7
100
AcDbDictionary
281
     1
  0
DICTIONARY
  5
1D1
102
{ACAD_REACTORS
330
1C7
102
}
330
1C7
100
AcDbDictionary
281
     1
  3
Standard
350
1D2
  0
DICTIONARY
  5
1D3
102
{ACAD_REACTORS
330
1C7
102
}
330
1C7
100
AcDbDictionary
281
     1
  0
ACDBDICTIONARYWDFLT
  5
1C9
102
{ACAD_REACTORS
330
1C7
102
}
330
1C7
100
AcDbDictionary
281
     1
  3
Normal
350
1CA
100
AcDbDictionaryWithDefault
340
1CA
  0
DICTIONARY
  5
1D7
102
{ACAD_REACTORS
330
1C7
102
}
330
1C7
100
AcDbDictionary
281
     1
  3
Standard
350
1D8
  0
DICTIONARY
  5
342
102
{ACAD_REACTORS
330
1C7
102
}
330
1C7
100
AcDbDictionary
281
     1
  0
DICTIONARY
  5
33C
102
{ACAD_REACTORS
330
1C7
102
}
330
1C7
100
AcDbDictionary
281
     1
  3
CTABLESTYLE
350
33D
  3
DIMASSOC
350
33E
  3
PROJECTNAME
350
33F
  0
XRECORD
  5
341
102
{ACAD_REACTORS
330
1C7
102
}
330
1C7
100
AcDbXrecord
280
     1
  1
DWGPROPS COOKIE
  2

  3

  4

  6

  7

  8

  9

300
=
301
=
302
=
303
=
304
=
305
=
306
=
307
=
308
=
309
=
 40
0.0029728356481481
 41
2453797.695
 42
2454495.726025544
  1

 90
        0
  0
SORTENTSTABLE
  5
256
102
{ACAD_REACTORS
330
255
102
}
330
255
100
AcDbSortentsTable
330
1DD
331
172
  5
2D2
331
282
  5
21B
331
20E
  5
2E0
331
26D
  5
206
331
2A4
  5
23D
331
324
  5
2C0
331
293
  5
22C
331
2B5
  5
24E
331
25C
  5
179
331
335
  5
2D1
331
313
  5
2AF
331
27E
  5
217
331
2C6
  5
261
331
280
  5
219
331
20C
  5
2DE
331
26B
  5
204
331
2A2
  5
23B
331
322
  5
2BE
331
291
  5
22A
331
183
  5
33A
331
25A
  5
177
331
333
  5
2CF
331
311
  5
2AD
331
27C
  5
215
331
2B3
  5
24C
331
2C4
  5
25F
331
2A0
  5
239
331
20A
  5
2DC
331
269
  5
202
331
320
  5
2BC
331
28F
  5
228
331
181
  5
338
331
258
  5
174
331
331
  5
2CD
331
30F
  5
2AC
331
27A
  5
213
331
2B1
  5
24A
331
2C2
  5
25D
331
208
  5
2DA
331
31E
  5
2BA
331
2C0
  5
25B
331
17F
  5
336
331
219
  5
2EB
331
32F
  5
2CB
331
278
  5
211
331
2AF
  5
248
331
28D
  5
226
331
267
  5
184
331
29E
  5
237
331
31C
  5
2B8
331
17D
  5
334
331
28B
  5
224
331
217
  5
2E9
331
32D
  5
2C9
331
276
  5
20F
331
2AD
  5
246
331
206
  5
2D8
331
265
  5
182
331
2BE
  5
259
331
29C
  5
235
331
31A
  5
2B6
331
17B
  5
332
331
252
  5
324
331
289
  5
222
331
215
  5
2E7
331
274
  5
20D
331
2AB
  5
244
331
32B
  5
2C7
331
204
  5
2D6
331
263
  5
180
331
29A
  5
233
331
2BC
  5
257
331
2CD
  5
268
331
33A
  5
32E
331
318
  5
2B4
331
250
  5
322
331
287
  5
220
331
213
  5
2E5
331
272
  5
20B
331
2A9
  5
242
331
329
  5
2C5
331
298
  5
231
331
202
  5
2D4
331
261
  5
17E
331
2BA
  5
253
331
2CB
  5
266
331
338
  5
330
331
285
  5
21E
331
211
  5
2E3
331
270
  5
209
331
2A7
  5
240
331
327
  5
2C3
331
296
  5
22F
331
316
  5
2B2
331
2B8
  5
251
331
25F
  5
17C
331
2C9
  5
264
331
24C
  5
31E
331
283
  5
21C
331
20F
  5
2E1
331
26E
  5
207
331
2A5
  5
23E
331
325
  5
2C1
331
294
  5
22D
331
2B6
  5
24F
331
25D
  5
17A
331
336
  5
327
331
314
  5
2B0
331
27F
  5
218
331
2C7
  5
262
331
281
  5
21A
331
20D
  5
2DF
331
26C
  5
205
331
2A3
  5
23C
331
323
  5
2BF
331
292
  5
22B
331
184
  5
33B
331
25B
  5
178
331
334
  5
2D0
331
312
  5
2AE
331
27D
  5
216
331
2B4
  5
24D
331
2C5
  5
260
331
2A1
  5
23A
331
20B
  5
2DD
331
26A
  5
203
331
321
  5
2BD
331
290
  5
229
331
182
  5
339
331
259
  5
175
331
332
  5
2CE
331
27B
  5
214
331
2B2
  5
24B
331
2C3
  5
25E
331
209
  5
2DB
331
268
  5
201
331
31F
  5
2BB
331
28E
  5
227
331
180
  5
337
331
257
  5
172
331
21A
  5
31D
331
330
  5
2CC
331
279
  5
212
331
2B0
  5
249
331
2C1
  5
25C
331
29F
  5
238
331
31D
  5
2B9
331
17E
  5
335
331
28C
  5
225
331
218
  5
2EA
331
277
  5
210
331
2AE
  5
247
331
207
  5
2D9
331
266
  5
183
331
29D
  5
236
331
2BF
  5
25A
331
32E
  5
2CA
331
31B
  5
2B7
331
17C
  5
333
331
253
  5
326
331
28A
  5
223
331
216
  5
2E8
331
32C
  5
2C8
331
275
  5
20E
331
2AC
  5
245
331
205
  5
2D7
331
264
  5
181
331
2BD
  5
258
331
29B
  5
234
331
33B
  5
32D
331
319
  5
2B5
331
17A
  5
331
331
251
  5
323
331
288
  5
221
331
214
  5
2E6
331
273
  5
20C
331
2AA
  5
243
331
32A
  5
2C6
331
203
  5
2D5
331
262
  5
17F
331
299
  5
232
331
2BB
  5
254
331
2CC
  5
267
331
339
  5
32F
331
286
  5
21F
331
212
  5
2E4
331
271
  5
20A
331
2A8
  5
241
331
328
  5
2C4
331
297
  5
230
331
201
  5
2D3
331
260
  5
17D
331
317
  5
2B3
331
2B9
  5
252
331
2CA
  5
265
331
174
  5
328
331
24D
  5
321
331
284
  5
21D
331
210
  5
2E2
331
26F
  5
208
331
2A6
  5
23F
331
326
  5
2C2
331
295
  5
22E
331
315
  5
2B1
331
2B7
  5
250
331
25E
  5
17B
331
2C8
  5
263
331
337
  5
2AA
  0
LAYOUT
  5
1E0
102
{ACAD_XDICTIONARY
360
345
102
}
102
{ACAD_REACTORS
330
1D4
102
}
330
1D4
100
AcDbPlotSettings
  1

  2
Microsoft Office Document Image Writer
  4

  6

 40
0.0
 41
0.0
 42
0.0
 43
0.0
 44
0.0
 45
0.0
 46
0.0
 47
0.0
 48
0.0
 49
0.0
140
0.0
141
0.0
142
1.0
143
1.0
 70
  1712
 72
     0
 73
     0
 74
     0
  7

 75
     0
147
1.0
148
0.0
149
0.0
100
AcDbLayout
  1
Model
 70
     1
 71
     0
 10
0.0
 20
0.0
 11
12.0
 21
9.0
 12
0.0
 22
0.0
 32
0.0
 14
0.0
 24
0.0
 34
0.0
 15
0.0
 25
0.0
 35
0.0
146
0.0
 13
0.0
 23
0.0
 33
0.0
 16
1.0
 26
0.0
 36
0.0
 17
0.0
 27
1.0
 37
0.0
 76
     0
330
1DD
  0
LAYOUT
  5
1DC
102
{ACAD_XDICTIONARY
360
343
102
}
102
{ACAD_REACTORS
330
1D4
102
}
330
1D4
100
AcDbPlotSettings
  1

  2
Microsoft Office Document Image Writer
  4

  6

 40
0.0
 41
0.0
 42
0.0
 43
0.0
 44
0.0
 45
0.0
 46
0.0
 47
0.0
 48
0.0
 49
0.0
140
0.0
141
0.0
142
1.0
143
1.0
 70
   688
 72
     0
 73
     0
 74
     5
  7

 75
    16
147
1.0
148
0.0
149
0.0
100
AcDbLayout
  1
レイアウト1
 70
     0
 71
     1
 10
0.0
 20
0.0
 11
12.0
 21
9.0
 12
0.0
 22
0.0
 32
0.0
 14
1.000000000000000E+20
 24
1.000000000000000E+20
 34
1.000000000000000E+20
 15
-1.000000000000000E+20
 25
-1.000000000000000E+20
 35
-1.000000000000000E+20
146
0.0
 13
0.0
 23
0.0
 33
0.0
 16
1.0
 26
0.0
 36
0.0
 17
0.0
 27
1.0
 37
0.0
 76
     0
330
1D9
  0
MLINESTYLE
  5
1D2
102
{ACAD_REACTORS
330
1D1
102
}
330
1D1
100
AcDbMlineStyle
  2
STANDARD
 70
     0
  3

 62
   256
 51
90.0
 52
90.0
 71
     2
 49
0.5
 62
   256
  6
BYLAYER
 49
-0.5
 62
   256
  6
BYLAYER
  0
ACDBPLACEHOLDER
  5
1CA
102
{ACAD_REACTORS
330
1C9
102
}
330
1C9
  0
TABLESTYLE
  5
1D8
102
{ACAD_REACTORS
330
1D7
102
}
330
1D7
100
AcDbTableStyle
  3
Standard
 70
     0
 71
     0
 40
0.06
 41
0.06
280
     0
281
     0
  7
STANDARD
140
0.18
170
     2
 62
     0
 63
     7
283
     0
274
    -2
284
     1
 64
     0
275
    -2
285
     1
 65
     0
276
    -2
286
     1
 66
     0
277
    -2
287
     1
 67
     0
278
    -2
288
     1
 68
     0
279
    -2
289
     1
 69
     0
  7
STANDARD
140
0.25
170
     5
 62
     0
 63
     7
283
     0
274
    -2
284
     1
 64
     0
275
    -2
285
     1
 65
     0
276
    -2
286
     1
 66
     0
277
    -2
287
     1
 67
     0
278
    -2
288
     1
 68
     0
279
    -2
289
     1
 69
     0
  7
STANDARD
140
0.18
170
     5
 62
     0
 63
     7
283
     0
274
    -2
284
     1
 64
     0
275
    -2
285
     1
 65
     0
276
    -2
286
     1
 66
     0
277
    -2
287
     1
 67
     0
278
    -2
288
     1
 68
     0
279
    -2
289
     1
 69
     0
  0
DICTIONARYVAR
  5
33D
102
{ACAD_REACTORS
330
33C
102
}
330
33C
100
DictionaryVariables
280
     0
  1
STANDARD
  0
DICTIONARYVAR
  5
33E
102
{ACAD_REACTORS
330
33C
102
}
330
33C
100
DictionaryVariables
280
     0
  1
1
  0
DICTIONARYVAR
  5
33F
102
{ACAD_REACTORS
330
33C
102
}
330
33C
100
DictionaryVariables
280
     0
  1

  0
DICTIONARY
  5
345
330
1E0
100
AcDbDictionary
280
     1
281
     1
  3
ACAD_XREC_ROUNDTRIP
360
346
  0
DICTIONARY
  5
343
330
1DC
100
AcDbDictionary
280
     1
281
     1
  3
ACAD_XREC_ROUNDTRIP
360
344
  0
XRECORD
  5
346
102
{ACAD_REACTORS
330
345
102
}
330
345
100
AcDbXrecord
280
     1
102
SHADEPLOT
 70
     0
102
SHADEPLOTRESLEVEL
 70
     2
102
SHADEPLOTCUSTOMDPI
 70
   300
  0
XRECORD
  5
344
102
{ACAD_REACTORS
330
343
102
}
330
343
100
AcDbXrecord
280
     1
102
SHADEPLOT
 70
     0
102
SHADEPLOTRESLEVEL
 70
     2
102
SHADEPLOTCUSTOMDPI
 70
   300
  0
ENDSEC
  0
EOF
